  0
SECTION
  2
HEADER
  9
$ACADVER
  1
AC1009
  9
$DWGCODEPAGE
  3
ansi_932
  9
$INSBASE
 10
0.0
 20
0.0
 30
0.0
  9
$EXTMIN
 10
-0.0000026270345188
 20
0.000000316319074
 30
0.0
  9
$EXTMAX
 10
243.8333307062988
 20
294.6851315128205
 30
0.0
  9
$LIMMIN
 10
0.0
 20
0.0
  9
$LIMMAX
 10
420.0
 20
420.0
  9
$ORTHOMODE
 70
     0
  9
$REGENMODE
 70
     1
  9
$FILLMODE
 70
     1
  9
$QTEXTMODE
 70
     0
  9
$MIRRTEXT
 70
     0
  9
$DRAGMODE
 70
     2
  9
$LTSCALE
 40
10.0
  9
$OSMODE
 70
   549
  9
$ATTMODE
 70
     1
  9
$TEXTSIZE
 40
1.0
  9
$TRACEWID
 40
1.0
  9
$TEXTSTYLE
  7
STANDARD
  9
$CLAYER
  8
0
  9
$CELTYPE
  6
BYLAYER
  9
$CECOLOR
 62
   256
  9
$DIMSCALE
 40
1.0
  9
$DIMASZ
 40
2.5
  9
$DIMEXO
 40
1.0
  9
$DIMDLI
 40
7.0
  9
$DIMRND
 40
0.0
  9
$DIMDLE
 40
0.0
  9
$DIMEXE
 40
1.0
  9
$DIMTP
 40
0.1
  9
$DIMTM
 40
0.1
  9
$DIMTXT
 40
3.0
  9
$DIMCEN
 40
0.0
  9
$DIMTSZ
 40
0.0
  9
$DIMTOL
 70
     0
  9
$DIMLIM
 70
     0
  9
$DIMTIH
 70
     0
  9
$DIMTOH
 70
     0
  9
$DIMSE1
 70
     0
  9
$DIMSE2
 70
     0
  9
$DIMTAD
 70
     3
  9
$DIMZIN
 70
     8
  9
$DIMBLK
  1
OPEN
  9
$DIMASO
 70
     1
  9
$DIMSHO
 70
     1
  9
$DIMPOST
  1

  9
$DIMAPOST
  1
"
  9
$DIMALT
 70
     0
  9
$DIMALTD
 70
     2
  9
$DIMALTF
 40
0.0393701
  9
$DIMLFAC
 40
1.0
  9
$DIMTOFL
 70
     1
  9
$DIMTVP
 40
0.0
  9
$DIMTIX
 70
     0
  9
$DIMSOXD
 70
     0
  9
$DIMSAH
 70
     0
  9
$DIMBLK1
  1

  9
$DIMBLK2
  1

  9
$DIMSTYLE
  2
AM_JIS
  9
$DIMCLRD
 70
   256
  9
$DIMCLRE
 70
   256
  9
$DIMCLRT
 70
     2
  9
$DIMTFAC
 40
0.71
  9
$DIMGAP
 40
1.0
  9
$LUNITS
 70
     2
  9
$LUPREC
 70
     2
  9
$SKETCHINC
 40
1.0
  9
$FILLETRAD
 40
2.5
  9
$AUNITS
 70
     0
  9
$AUPREC
 70
     0
  9
$MENU
  1
.
  9
$ELEVATION
 40
0.0
  9
$PELEVATION
 40
0.0
  9
$THICKNESS
 40
0.0
  9
$LIMCHECK
 70
     0
  9
$CHAMFERA
 40
2.5
  9
$CHAMFERB
 40
2.5
  9
$SKPOLY
 70
     1
  9
$TDCREATE
 40
2457177.663015984
  9
$TDUPDATE
 40
2460346.661119062
  9
$TDINDWG
 40
0.0053810764
  9
$TDUSRTIMER
 40
0.0053761806
  9
$USRTIMER
 70
     1
  9
$ANGBASE
 50
0.0
  9
$ANGDIR
 70
     0
  9
$PDMODE
 70
     0
  9
$PDSIZE
 40
0.0
  9
$PLINEWID
 40
0.0
  9
$COORDS
 70
     0
  9
$SPLFRAME
 70
     0
  9
$SPLINETYPE
 70
     6
  9
$SPLINESEGS
 70
     8
  9
$ATTDIA
 70
     1
  9
$ATTREQ
 70
     1
  9
$HANDLING
 70
     1
  9
$HANDSEED
  5
9EA5
  9
$SURFTAB1
 70
     6
  9
$SURFTAB2
 70
     6
  9
$SURFTYPE
 70
     6
  9
$SURFU
 70
     6
  9
$SURFV
 70
     6
  9
$UCSNAME
  2

  9
$UCSORG
 10
0.0
 20
0.0
 30
0.0
  9
$UCSXDIR
 10
1.0
 20
0.0
 30
0.0
  9
$UCSYDIR
 10
0.0
 20
1.0
 30
0.0
  9
$PUCSNAME
  2

  9
$PUCSORG
 10
0.0
 20
0.0
 30
0.0
  9
$PUCSXDIR
 10
1.0
 20
0.0
 30
0.0
  9
$PUCSYDIR
 10
0.0
 20
1.0
 30
0.0
  9
$USERI1
 70
     0
  9
$USERI2
 70
     0
  9
$USERI3
 70
     0
  9
$USERI4
 70
     0
  9
$USERI5
 70
     0
  9
$USERR1
 40
0.0
  9
$USERR2
 40
0.0
  9
$USERR3
 40
0.0
  9
$USERR4
 40
0.0
  9
$USERR5
 40
0.0
  9
$WORLDVIEW
 70
     1
  9
$SHADEDGE
 70
     3
  9
$SHADEDIF
 70
    70
  9
$TILEMODE
 70
     1
  9
$MAXACTVP
 70
    48
  9
$PLIMCHECK
 70
     0
  9
$PEXTMIN
 10
1.000000000000000E+20
 20
1.000000000000000E+20
 30
1.000000000000000E+20
  9
$PEXTMAX
 10
-1.000000000000000E+20
 20
-1.000000000000000E+20
 30
-1.000000000000000E+20
  9
$PLIMMIN
 10
-0.2500002402958907
 20
-0.2499999962453767
  9
$PLIMMAX
 10
10.74999951940822
 20
8.249999763458732
  9
$UNITMODE
 70
     0
  9
$VISRETAIN
 70
     1
  9
$PLINEGEN
 70
     0
  9
$PSLTSCALE
 70
     1
  0
ENDSEC
  0
SECTION
  2
TABLES
  0
TABLE
  2
VPORT
 70
     1
  0
VPORT
  2
*ACTIVE
 70
     0
 10
0.0
 20
0.0
 11
1.0
 21
1.0
 12
209.9999986864827
 22
209.9999999999999
 13
0.0
 23
0.0
 14
2.5
 24
2.5
 15
10.0
 25
10.0
 16
0.0
 26
0.0
 36
1.0
 17
0.0
 27
0.0
 37
0.0
 40
423.258971871969
 41
2.05293551491819
 42
50.0
 43
0.0
 44
0.0
 50
0.0
 51
0.0
 71
     0
 72
   100
 73
     1
 74
     3
 75
     0
 76
     0
 77
     0
 78
     0
  0
ENDTAB
  0
TABLE
  2
LTYPE
 70
    22
  0
LTYPE
  2
CONTINUOUS
 70
     0
  3
Solid line
 72
    65
 73
     0
 40
0.0
  0
LTYPE
  2
HIDDEN
 70
     0
  3
__ __ __ __ __ __ __ __ __ __ __ __ __ __ __ __
 72
    65
 73
     2
 40
0.375
 49
0.25
 49
-0.125
  0
LTYPE
  2
PHANTOM2
 70
     0
  3
___ _ _ ___ _ _ ___ _ _ ___ _ _ ___ _ _ ___ _ _
 72
    65
 73
     6
 40
1.25
 49
0.625
 49
-0.125
 49
0.125
 49
-0.125
 49
0.125
 49
-0.125
  0
LTYPE
  2
CENTER
 70
     0
  3
____ _ ____ _ ____ _ ____ _ ____ _ ____ _ ____ 
 72
    65
 73
     4
 40
2.0
 49
1.25
 49
-0.25
 49
0.25
 49
-0.25
  0
LTYPE
  2
ACJISTGB
 70
     0
  3
__ . . __ . .
 72
    65
 73
     6
 40
9.0
 49
4.0
 49
-1.0
 49
1.0
 49
-1.0
 49
1.0
 49
-1.0
  0
LTYPE
  2
ACJISTGL
 70
     0
  3
_ _ _ _ _
 72
    65
 73
     2
 40
3.0
 49
2.0
 49
-1.0
  0
LTYPE
  2
ACISOWELD
 70
     0
  3
_ _ _ _ _
 72
    65
 73
     2
 40
2.0
 49
2.0
 49
-1.0
  0
LTYPE
  2
ACISOTGB
 70
     0
  3
__ . . __ . .
 72
    65
 73
     6
 40
9.0
 49
4.0
 49
-1.0
 49
1.0
 49
-1.0
 49
1.0
 49
-1.0
  0
LTYPE
  2
ACISOTGL
 70
     0
  3
_ _ _ _ _
 72
    65
 73
     2
 40
3.0
 49
2.0
 49
-1.0
  0
LTYPE
  2
AM_ISO02W050
 70
     0
  3
__ __ __ __ __ __ __ __ __ __ __ __ __ __ __
 72
    65
 73
     2
 40
7.5
 49
6.0
 49
-1.5
  0
LTYPE
  2
AM_ISO08W050
 70
     0
  3
____ . ____ . ____ . ____ . ____ . ____ . ____
 72
    65
 73
     4
 40
18.0
 49
12.0
 49
-1.5
 49
3.0
 49
-1.5
  0
LTYPE
  2
AM_ISO09W050
 70
     0
  3
_____ . . _____ . . _____ . . ____ .. ____
 72
    65
 73
     6
 40
22.5
 49
12.0
 49
-1.5
 49
3.0
 49
-1.5
 49
3.0
 49
-1.5
  0
LTYPE
  2
AM_ISO02W050X2
 70
     0
  3
 _ _ _ _ _ _ _ _ _ _ _ _
 72
    65
 73
     2
 40
3.75
 49
3.0
 49
-0.75
  0
LTYPE
  2
AM_ISO08W050X2
 70
     0
  3
__ . __ . __ . __ . __ . __
 72
    65
 73
     4
 40
9.0
 49
6.0
 49
-0.75
 49
1.5
 49
-0.75
  0
LTYPE
  2
AMZIGZAG
 70
     0
  3
/\/-/\/-/\/-/\/-/\/-/\/
 72
    65
 73
     2
 40
11.0001
 49
0.0001
 49
-11.0
  0
LTYPE
  2
AMCONSTR
 70
     0
  3
_______________________
 72
    65
 73
     2
 40
9999.0
 49
9999.0
 49
0.0
  0
LTYPE
  2
CENTER2
 70
     0
  3
Center (.5x) ___ _ ___ _ ___ _ ___ _ ___ _ ___
 72
    65
 73
     4
 40
1.125
 49
0.75
 49
-0.125
 49
0.125
 49
-0.125
  0
LTYPE
  2
HIDDEN2
 70
     0
  3
Hidden (.5x) _ _ _ _ _ _ _ _ _ _ _ _ _ _ _ _ _
 72
    65
 73
     2
 40
0.1875
 49
0.125
 49
-0.0625
  0
LTYPE
  2
ACJISWELD
 70
     0
  3
_ _ _ _ _
 72
    65
 73
     2
 40
2.0
 49
2.0
 49
-1.0
  0
LTYPE
  2
AMZIGZAG2
 70
     0
  3
/\/-/\/-/\/-/\/-/\/-/\/
 72
    65
 73
     2
 40
0.4401
 49
0.0001
 49
-0.44
  0
LTYPE
  2
ACANSTGB
 70
     0
  3
__ . . __ . .
 72
    65
 73
     6
 40
0.35433070866
 49
0.15748031496
 49
-0.03937007874
 49
0.03937007874
 49
-0.03937007874
 49
0.03937007874
 49
-0.03937007874
  0
LTYPE
  2
ACANSTGL
 70
     0
  3
_ _ _ _ _
 72
    65
 73
     2
 40
0.11811023622
 49
0.07874015748
 49
-0.03937007874
  0
ENDTAB
  0
TABLE
  2
LAYER
 70
     5
  0
LAYER
  2
0
 70
     0
 62
     7
  6
CONTINUOUS
  0
LAYER
  2
7
 70
     0
 62
     4
  6
CENTER2
  0
LAYER
  2
10
 70
     0
 62
     2
  6
CONTINUOUS
  0
LAYER
  2
DEFPOINTS
 70
     0
 62
     7
  6
CONTINUOUS
  0
LAYER
  2
AM_0
 70
     0
 62
     7
  6
CONTINUOUS
  0
ENDTAB
  0
TABLE
  2
STYLE
 70
     8
  0
STYLE
  2
STANDARD
 70
     0
 40
0.0
 41
1.0
 50
0.0
 71
     0
 42
1.0
  3
ISOCP.SHX
  4
EXTFONT.SHX
  0
STYLE
  2
ACJISTS
 70
     0
 40
1.0
 41
1.0
 50
0.0
 71
     0
 42
3.5
  3
isocp.shx
  4
extfont.shx
  0
STYLE
  2
ACJISGDT
 70
     0
 40
0.0
 41
1.0
 50
0.0
 71
     0
 42
3.5
  3
amgdt.shx
  4
extfont.shx
  0
STYLE
  2
ACISOTS
 70
     0
 40
1.0
 41
1.0
 50
0.0
 71
     0
 42
1.0
  3
isocp.shx
  4
extfont.shx
  0
STYLE
  2
ACISOGDT
 70
     0
 40
0.0
 41
1.0
 50
0.0
 71
     0
 42
3.5
  3
amgdt.shx
  4
extfont.shx
  0
STYLE
  2

 70
     1
 40
0.0
 41
1.0
 50
0.0
 71
     0
 42
3.5
  3
ltypeshp.shx
  4

  0
STYLE
  2

 70
     1
 40
0.0
 41
1.0
 50
0.0
 71
     0
 42
4.0
  3
genltshp.shx
  4

  0
STYLE
  2
ACANSGDT
 70
     0
 40
0.0
 41
1.0
 50
0.0
 71
     0
 42
4.0
  3
amgdt.shx
  4

  0
ENDTAB
  0
TABLE
  2
VIEW
 70
     3
  0
VIEW
  2
AMDTVIEW1
 70
     0
 40
329.0721649484536
 10
210.0
 20
164.5360824742268
 41
420.0
 11
0.0
 21
0.0
 31
1.0
 12
0.0
 22
0.0
 32
0.0
 42
50.0
 43
0.0
 44
0.0
 50
0.0
 71
     0
  0
VIEW
  2
AMDTVIEW2
 70
     0
 40
329.0721649484536
 10
210.0
 20
164.5360824742268
 41
420.0
 11
0.0
 21
0.0
 31
1.0
 12
0.0
 22
0.0
 32
0.0
 42
50.0
 43
0.0
 44
0.0
 50
0.0
 71
     0
  0
VIEW
  2
AMDTVIEW3
 70
     0
 40
329.0721649484536
 10
210.0
 20
164.5360824742268
 41
420.0
 11
0.0
 21
0.0
 31
1.0
 12
0.0
 22
0.0
 32
0.0
 42
50.0
 43
0.0
 44
0.0
 50
0.0
 71
     0
  0
ENDTAB
  0
TABLE
  2
UCS
 70
     0
  0
ENDTAB
  0
TABLE
  2
APPID
 70
    67
  0
APPID
  2
ACAD
 70
     0
  0
APPID
  2
AD_DRAW
 70
     0
  0
APPID
  2
DESIGNERASSEMBLIES
 70
     0
  0
APPID
  2
MCAD_NO_VIS
 70
     0
  0
APPID
  2
ASURF_PCURVE_APPNAME
 70
     0
  0
APPID
  2
ACAD_TEMP_GRAPHIC
 70
     0
  0
APPID
  2
ACATTRIBSERVICES
 70
     0
  0
APPID
  2
ACADM_DIM_EDIT
 70
     0
  0
APPID
  2
GENIUS_GENDIM_13
 70
     0
  0
APPID
  2
GENIUS_GENDTOL_13
 70
     0
  0
APPID
  2
GENIUS_GE3DTOL_13
 70
     0
  0
APPID
  2
AMG_3D2D_5_0
 70
     0
  0
APPID
  2
AMDT_DM_ADJ
 70
     0
  0
APPID
  2
ACAD_PSEXT
 70
     0
  0
APPID
  2
ACAD_DSTYLE_DIMTEXT_FILL
 70
     0
  0
APPID
  2
ACAECLAYERSTANDARD
 70
     0
  0
APPID
  2
GENIUS_GENREC_14
 70
     0
  0
APPID
  2
GENIUS_GENODEF_13
 70
     0
  0
APPID
  2
GENIUS_GENOBJ-N-REC_13
 70
     0
  0
APPID
  2
DCO15
 70
     0
  0
APPID
  2
ACAD_DSTYLE_DIMJAG
 70
     0
  0
APPID
  2
ACAD_DSTYLE_DIMTALN
 70
     0
  0
APPID
  2
ACAD_MLEADERVER
 70
     0
  0
APPID
  2
GENIUS_GENSCREG_15
 70
     0
  0
APPID
  2
GENIUS_GENOBJ-N-SDF_13
 70
     0
  0
APPID
  2
ACAD_NAV_VCDISPLAY
 70
     0
  0
APPID
  2
ACAD_EXEMPT_FROM_CAD_STAND
 70
     0
  0
APPID
  2
ACCMTRANSPARENCY
 70
     0
  0
APPID
  2
GENIUS_GENOBJ-N-CEN_13
 70
     0
  0
APPID
  2
GENIUS_GENOBJ-N-FIL_13
 70
     0
  0
APPID
  2
GENIUS_GENCEN_19
 70
     0
  0
APPID
  2
ACAD_DSTYLE_DIMBREAK
 70
     0
  0
APPID
  2
PLOTTRANSPARENCY
 70
     0
  0
APPID
  2
ACAD_SPLINE_DATA
 70
     0
  0
APPID
  2
ACAD_SPLINE_DATA2
 70
     0
  0
APPID
  2
HC_SUPERPART
 70
     0
  0
APPID
  2
HC_SP4BLOCK
 70
     0
  0
APPID
  2
HC_XDATA_SPRING
 70
     0
  0
APPID
  2
HCCAD_FRAME
 70
     0
  0
APPID
  2
GENIUS_GENOLIS_13
 70
     0
  0
APPID
  2
GENIUS_GENOENT_13
 70
     0
  0
APPID
  2
GENIUS_GENOREF_13
 70
     0
  0
APPID
  2
GENIUS_GENOBJ-N-TIT_13
 70
     0
  0
APPID
  2
GENIUS_GENOBJ-N-ZOO_13
 70
     0
  0
APPID
  2
GENIUS_GENTITLE_13
 70
     0
  0
APPID
  2
GENIUS_GENSYMENT_13
 70
     0
  0
APPID
  2
GENIUS_GENSCSYM_13
 70
     0
  0
APPID
  2
GENIUS_GENOBJ-N-REV_13
 70
     0
  0
APPID
  2
GENIUS_GENOBJ-N-RSSYM_13
 70
     0
  0
APPID
  2
GENIUS_GENREV_15
 70
     0
  0
APPID
  2
HRA
 70
     0
  0
APPID
  2
HTIT
 70
     0
  0
APPID
  2
GENIUS_GENZOO_17
 70
     0
  0
APPID
  2
GENIUS_GENOBJ-N-CRS_13
 70
     0
  0
APPID
  2
GENIUS_GENCRS_20
 70
     0
  0
APPID
  2
GENIUS_GENOBJ-N-CRC_13
 70
     0
  0
APPID
  2
GENIUS_GENCRC_14
 70
     0
  0
APPID
  2
GENIUS_GENFIL_13
 70
     0
  0
APPID
  2
GENIUS_GENOBJ-N-CHA_13
 70
     0
  0
APPID
  2
GENIUS_GENHATCH_13
 70
     0
  0
APPID
  2
GENIUS_GENOBJ-N-HTC_13
 70
     0
  0
APPID
  2
GENIUS_GENOBJ-N-DIM_13
 70
     0
  0
APPID
  2
GENIUS_GENOBJ-N-DIMLI_13
 70
     0
  0
APPID
  2
GENIUS_GENOBJ-N-FITL_13
 70
     0
  0
APPID
  2
GENIUS_GENFITL_13
 70
     0
  0
APPID
  2
GENLAYCOLOR
 70
     0
  0
APPID
  2
ACADANNOTATIVE
 70
     0
  0
ENDTAB
  0
TABLE
  2
DIMSTYLE
 70
    23
  0
DIMSTYLE
  2
STANDARD
 70
     0
  3

  4

  5

  6

  7

 40
1.0
 41
2.5
 42
0.625
 43
3.75
 44
1.25
 45
0.0
 46
0.0
 47
0.0
 48
0.0
140
2.5
141
2.5
142
0.0
143
0.0394
144
1.0
145
0.0
146
1.0
147
0.625
 71
     0
 72
     0
 73
     0
 74
     0
 75
     0
 76
     0
 77
     1
 78
     8
170
     0
171
     4
172
     1
173
     0
174
     0
175
     0
176
     0
177
     0
178
     0
  0
DIMSTYLE
  2
AM_JIS
 70
     0
  3

  4
"
  5
OPEN
  6

  7

 40
1.0
 41
2.5
 42
1.0
 43
7.0
 44
1.0
 45
0.0
 46
0.0
 47
0.1
 48
0.1
140
3.0
141
0.0
142
0.0
143
0.0393701
144
1.0
145
0.0
146
0.71
147
1.0
 71
     0
 72
     0
 73
     0
 74
     0
 75
     0
 76
     0
 77
     3
 78
     8
170
     0
171
     2
172
     1
173
     0
174
     0
175
     0
176
   256
177
   256
178
     2
  0
DIMSTYLE
  2
AM_JIS$3
 70
     0
  3

  4
"
  5
OPEN
  6

  7

 40
1.0
 41
2.5
 42
1.0
 43
10.0
 44
1.0
 45
0.0
 46
0.0
 47
0.1
 48
0.1
140
3.0
141
0.0
142
0.0
143
0.0393701
144
1.0
145
0.0
146
0.71
147
1.0
 71
     0
 72
     0
 73
     0
 74
     0
 75
     0
 76
     0
 77
     3
 78
     8
170
     0
171
     2
172
     1
173
     0
174
     0
175
     0
176
   256
177
   256
178
     2
  0
DIMSTYLE
  2
AM_JIS$4
 70
     0
  3

  4
"
  5

  6
OPEN30
  7
OPEN
 40
1.0
 41
2.5
 42
1.0
 43
10.0
 44
1.0
 45
0.0
 46
0.0
 47
0.1
 48
0.1
140
3.0
141
0.0
142
0.0
143
0.0393701
144
1.0
145
0.0
146
0.71
147
1.0
 71
     0
 72
     0
 73
     0
 74
     0
 75
     0
 76
     0
 77
     3
 78
     8
170
     0
171
     2
172
     1
173
     1
174
     0
175
     0
176
   256
177
   256
178
     2
  0
DIMSTYLE
  2
AM_JIS$6
 70
     0
  3

  4
"
  5
OPEN30
  6
OPEN30
  7
OPEN30
 40
1.0
 41
2.5
 42
1.0
 43
10.0
 44
1.0
 45
0.0
 46
0.0
 47
0.1
 48
0.1
140
3.5
141
0.0
142
0.0
143
0.0393701
144
1.0
145
0.0
146
0.71
147
1.5
 71
     0
 72
     0
 73
     0
 74
     0
 75
     0
 76
     0
 77
     0
 78
     8
170
     0
171
     2
172
     1
173
     0
174
     0
175
     0
176
   256
177
   256
178
     2
  0
DIMSTYLE
  2
AM_JIS$7
 70
     0
  3

  4
"
  5
OPEN30
  6

  7

 40
1.0
 41
2.5
 42
1.0
 43
10.0
 44
1.0
 45
0.0
 46
0.0
 47
0.1
 48
0.1
140
3.0
141
0.0
142
0.0
143
0.0393701
144
1.0
145
0.0
146
0.71
147
1.0
 71
     0
 72
     0
 73
     0
 74
     0
 75
     0
 76
     0
 77
     3
 78
     8
170
     0
171
     2
172
     1
173
     0
174
     0
175
     0
176
   256
177
   256
178
     2
  0
DIMSTYLE
  2
AM_JIS$SF
 70
     0
  3

  4
"
  5
OPEN
  6

  7

 40
1.0
 41
2.5
 42
1.0
 43
7.0
 44
1.0
 45
0.0
 46
0.0
 47
0.1
 48
0.1
140
3.5
141
0.0
142
0.0
143
0.0393701
144
1.0
145
0.0
146
0.71
147
1.5
 71
     0
 72
     0
 73
     0
 74
     0
 75
     1
 76
     1
 77
     3
 78
     8
170
     0
171
     2
172
     1
173
     0
174
     0
175
     0
176
   256
177
   256
178
     2
  0
DIMSTYLE
  2
AM_JIS$SH
 70
     0
  3

  4
"
  5

  6
GENAXEH
  7
OPEN
 40
1.0
 41
2.5
 42
1.0
 43
7.0
 44
1.0
 45
0.0
 46
0.0
 47
0.1
 48
0.1
140
3.5
141
0.0
142
0.0
143
0.0393701
144
2.0
145
0.0
146
0.71
147
1.5
 71
     0
 72
     0
 73
     0
 74
     0
 75
     1
 76
     1
 77
     3
 78
     8
170
     0
171
     2
172
     1
173
     1
174
     0
175
     0
176
   256
177
   256
178
     2
  0
DIMSTYLE
  2
AM_ISO
 70
     0
  3

  4
"
  5

  6

  7

 40
1.0
 41
2.5
 42
1.0
 43
10.0
 44
1.0
 45
0.0
 46
0.0
 47
0.1
 48
0.1
140
3.5
141
0.0
142
0.0
143
0.0393701
144
1.0
145
0.0
146
0.71
147
1.5
 71
     0
 72
     0
 73
     0
 74
     0
 75
     0
 76
     0
 77
     1
 78
     8
170
     0
171
     2
172
     1
173
     0
174
     0
175
     0
176
   256
177
   256
178
     2
  0
DIMSTYLE
  2
AM_ISO$3
 70
     0
  3

  4
"
  5

  6

  7

 40
1.0
 41
2.5
 42
1.0
 43
10.0
 44
1.0
 45
0.0
 46
0.0
 47
0.1
 48
0.1
140
3.5
141
0.0
142
0.0
143
0.0393701
144
1.0
145
0.0
146
0.71
147
1.5
 71
     0
 72
     0
 73
     0
 74
     1
 75
     0
 76
     0
 77
     1
 78
     8
170
     0
171
     2
172
     0
173
     0
174
     0
175
     0
176
   256
177
   256
178
     2
  0
DIMSTYLE
  2
AM_ISO$4
 70
     0
  3

  4
"
  5

  6

  7

 40
1.0
 41
2.5
 42
1.0
 43
10.0
 44
1.0
 45
0.0
 46
0.0
 47
0.1
 48
0.1
140
3.5
141
0.0
142
0.0
143
0.0393701
144
1.0
145
0.0
146
0.71
147
1.5
 71
     0
 72
     0
 73
     0
 74
     1
 75
     0
 76
     0
 77
     1
 78
     8
170
     0
171
     2
172
     0
173
     0
174
     0
175
     0
176
   256
177
   256
178
     2
  0
DIMSTYLE
  2
AM_ISO$6
 70
     0
  3

  4
"
  5

  6

  7

 40
1.0
 41
2.5
 42
1.0
 43
10.0
 44
1.0
 45
0.0
 46
0.0
 47
0.1
 48
0.1
140
3.5
141
0.0
142
0.0
143
0.0393701
144
1.0
145
0.0
146
0.71
147
1.5
 71
     0
 72
     0
 73
     0
 74
     0
 75
     0
 76
     0
 77
     0
 78
     8
170
     0
171
     2
172
     1
173
     0
174
     0
175
     0
176
   256
177
   256
178
     2
  0
DIMSTYLE
  2
AM_ISO$7
 70
     0
  3

  4
"
  5

  6

  7

 40
1.0
 41
2.5
 42
1.0
 43
10.0
 44
1.0
 45
0.0
 46
0.0
 47
0.1
 48
0.1
140
5.0
141
0.0
142
0.0
143
0.0393701
144
1.0
145
0.0
146
0.71
147
1.5
 71
     0
 72
     0
 73
     0
 74
     0
 75
     0
 76
     0
 77
     1
 78
     8
170
     0
171
     2
172
     1
173
     0
174
     0
175
     0
176
   256
177
   256
178
     2
  0
DIMSTYLE
  2
AM_ISO$SF
 70
     0
  3

  4
"
  5

  6

  7

 40
1.0
 41
2.5
 42
1.0
 43
10.0
 44
1.0
 45
0.0
 46
0.0
 47
0.1
 48
0.1
140
3.5
141
0.0
142
0.0
143
0.0393701
144
1.0
145
0.0
146
0.71
147
1.5
 71
     0
 72
     0
 73
     0
 74
     0
 75
     1
 76
     1
 77
     1
 78
     8
170
     0
171
     2
172
     1
173
     0
174
     0
175
     0
176
   256
177
   256
178
     2
  0
DIMSTYLE
  2
AM_ISO$SH
 70
     0
  3

  4
"
  5

  6
GENAXEH
  7

 40
1.0
 41
2.5
 42
1.0
 43
10.0
 44
1.0
 45
0.0
 46
0.0
 47
0.1
 48
0.1
140
3.5
141
0.0
142
0.0
143
0.0393701
144
2.0
145
0.0
146
0.71
147
1.5
 71
     0
 72
     0
 73
     0
 74
     0
 75
     1
 76
     1
 77
     1
 78
     8
170
     0
171
     2
172
     1
173
     1
174
     0
175
     0
176
   256
177
   256
178
     2
  0
DIMSTYLE
  2
AM_JIS$2
 70
     0
  3

  4
"
  5
OPEN
  6

  7

 40
1.0
 41
2.5
 42
1.0
 43
7.0
 44
1.0
 45
0.0
 46
0.0
 47
0.1
 48
0.1
140
3.0
141
0.0
142
0.0
143
0.0393701
144
1.0
145
0.0
146
0.71
147
1.0
 71
     0
 72
     0
 73
     0
 74
     0
 75
     0
 76
     0
 77
     3
 78
     8
170
     0
171
     2
172
     1
173
     0
174
     0
175
     0
176
   256
177
   256
178
     2
  0
DIMSTYLE
  2
AM_JIS$0
 70
     0
  3

  4
"
  5
OPEN
  6

  7

 40
1.0
 41
2.5
 42
1.0
 43
7.0
 44
1.0
 45
0.0
 46
0.0
 47
0.1
 48
0.1
140
3.0
141
0.0
142
0.0
143
0.0393701
144
1.0
145
0.0
146
0.71
147
1.0
 71
     0
 72
     0
 73
     0
 74
     0
 75
     0
 76
     0
 77
     3
 78
     8
170
     0
171
     2
172
     1
173
     0
174
     0
175
     0
176
   256
177
   256
178
     2
  0
DIMSTYLE
  2
AM_ANSI
 70
     0
  3

  4
mm
  5

  6

  7

 40
1.0
 41
0.12
 42
0.05
 43
0.5
 44
0.1
 45
0.0
 46
0.0
 47
0.1
 48
0.1
140
0.12
141
0.0
142
0.0
143
25.4
144
1.0
145
0.0
146
0.71
147
0.06
 71
     0
 72
     0
 73
     1
 74
     1
 75
     0
 76
     0
 77
     0
 78
     7
170
     0
171
     2
172
     0
173
     0
174
     0
175
     0
176
   256
177
   256
178
     2
  0
DIMSTYLE
  2
AM_ANSI$3
 70
     0
  3

  4
mm
  5

  6

  7

 40
1.0
 41
0.12
 42
0.05
 43
0.5
 44
0.1
 45
0.0
 46
0.0
 47
0.1
 48
0.1
140
0.12
141
0.0
142
0.0
143
25.4
144
1.0
145
0.0
146
0.71
147
0.06
 71
     0
 72
     0
 73
     1
 74
     1
 75
     0
 76
     0
 77
     0
 78
     7
170
     0
171
     2
172
     0
173
     0
174
     0
175
     0
176
   256
177
   256
178
     2
  0
DIMSTYLE
  2
AM_ANSI$4
 70
     0
  3

  4
mm
  5

  6

  7

 40
1.0
 41
0.12
 42
0.05
 43
0.5
 44
0.1
 45
0.0
 46
0.0
 47
0.1
 48
0.1
140
0.12
141
0.0
142
0.0
143
25.4
144
1.0
145
0.0
146
0.71
147
0.06
 71
     0
 72
     0
 73
     1
 74
     1
 75
     0
 76
     0
 77
     0
 78
     7
170
     0
171
     2
172
     0
173
     0
174
     0
175
     0
176
   256
177
   256
178
     2
  0
DIMSTYLE
  2
AM_ANSI$7
 70
     0
  3

  4
mm
  5

  6

  7

 40
1.0
 41
0.12
 42
0.05
 43
0.5
 44
0.1
 45
0.0
 46
0.0
 47
0.1
 48
0.1
140
0.12
141
0.0
142
0.0
143
25.4
144
1.0
145
0.0
146
0.71
147
0.06
 71
     0
 72
     0
 73
     1
 74
     1
 75
     0
 76
     0
 77
     0
 78
     7
170
     0
171
     2
172
     0
173
     0
174
     0
175
     0
176
   256
177
   256
178
     2
  0
DIMSTYLE
  2
AM_ANSI$SF
 70
     0
  3

  4
mm
  5

  6

  7

 40
1.0
 41
0.12
 42
0.05
 43
0.5
 44
0.1
 45
0.0
 46
0.0
 47
0.1
 48
0.1
140
0.12
141
0.0
142
0.0
143
25.4
144
1.0
145
0.0
146
0.71
147
0.06
 71
     0
 72
     0
 73
     1
 74
     1
 75
     1
 76
     1
 77
     0
 78
     7
170
     0
171
     2
172
     0
173
     0
174
     0
175
     0
176
   256
177
   256
178
     2
  0
DIMSTYLE
  2
AM_ANSI$SH
 70
     0
  3

  4
mm
  5

  6
GENAXEH
  7

 40
1.0
 41
0.12
 42
0.05
 43
0.5
 44
0.1
 45
0.0
 46
0.0
 47
0.1
 48
0.1
140
0.12
141
0.0
142
0.0
143
25.4
144
1.0
145
0.0
146
0.71
147
0.06
 71
     0
 72
     0
 73
     1
 74
     1
 75
     1
 76
     1
 77
     0
 78
     7
170
     0
171
     2
172
     0
173
     1
174
     0
175
     0
176
   256
177
   256
178
     2
  0
ENDTAB
  0
ENDSEC
  0
SECTION
  2
BLOCKS
  0
BLOCK
  8
0
  2
$MODEL_SPACE
 70
     0
 10
0.0
 20
0.0
 30
0.0
  3
$MODEL_SPACE
  1

  0
ENDBLK
  5
1C
  8
0
  0
BLOCK
 67
     1
  8
0
  2
$PAPER_SPACE
 70
     0
 10
0.0
 20
0.0
 30
0.0
  3
$PAPER_SPACE
  1

  0
ENDBLK
  5
19
 67
     1
  8
0
  0
BLOCK
  8
0
  2
_OPEN30
 70
     0
 10
0.0
 20
0.0
 30
0.0
  3
_OPEN30
  1

  0
LINE
  5
2EF
  8
0
  6
BYBLOCK
 62
     0
 10
-1.0
 20
0.26794919
 30
0.0
 11
0.0
 21
0.0
 31
0.0
  0
LINE
  5
2F0
  8
0
  6
BYBLOCK
 62
     0
 10
0.0
 20
0.0
 30
0.0
 11
-1.0
 21
-0.26794919
 31
0.0
  0
LINE
  5
2F1
  8
0
  6
BYBLOCK
 62
     0
 10
0.0
 20
0.0
 30
0.0
 11
-1.0
 21
0.0
 31
0.0
  0
ENDBLK
  5
2F3
  8
0
  0
BLOCK
  8
0
  2
GENAXEH
 70
     0
 10
0.0
 20
0.0
 30
0.0
  3
GENAXEH
  1

  0
LINE
  5
2F5
  8
0
 10
-1.0
 20
0.0
 30
0.0
 11
1.0
 21
0.0
 31
0.0
  0
ENDBLK
  5
2F7
  8
0
  0
BLOCK
  8
0
  2
_OPEN
 70
     0
 10
0.0
 20
0.0
 30
0.0
  3
_OPEN
  1

  0
LINE
  5
597
  8
0
  6
BYBLOCK
 62
     0
 10
-1.0
 20
0.1666666666666667
 30
0.0
 11
0.0
 21
0.0
 31
0.0
  0
LINE
  5
598
  8
0
  6
BYBLOCK
 62
     0
 10
-1.0
 20
-0.1666666666666667
 30
0.0
 11
0.0
 21
0.0
 31
0.0
  0
LINE
  5
599
  8
0
  6
BYBLOCK
 62
     0
 10
0.0
 20
0.0
 30
0.0
 11
-1.0
 21
0.0
 31
0.0
  0
ENDBLK
  5
59B
  8
0
  0
BLOCK
  8
0
  2
_TAGCIRCLE
 70
     2
 10
0.0
 20
0.0
 30
0.0
  3
_TAGCIRCLE
  1

  0
CIRCLE
  5
1151
  8
0
  6
BYBLOCK
 62
     0
 10
0.0
 20
0.0
 30
0.0
 40
4.0
  0
ATTDEF
  5
1152
  8
0
 62
     0
 10
-7.1
 20
-1.5
 30
0.0
 40
3.0
  1
タグ番号
 72
     1
 11
0.0
 21
-1.5
 31
0.0
  3
タグ番号を入力
  2
タグ番号
 70
     0
  0
ENDBLK
  5
1154
  8
0
  0
BLOCK
  8
0
  2
_ACMFILLED15
 70
     0
 10
0.0
 20
0.0
 30
0.0
  3
_ACMFILLED15
  1
Acad:XRef
  0
TRACE
  5
793F
  8
AM_0
 62
     0
 10
-1.0
 20
0.1316524975873958
 30
0.0
 11
-1.0
 21
-0.1316524975873958
 31
0.0
 12
0.0
 22
0.0
 32
0.0
 13
0.0
 23
0.0
 33
0.0
  0
ENDBLK
  5
793D
  8
0
  0
BLOCK
  8
0
  2
_ACMOPEN30
 70
     0
 10
0.0
 20
0.0
 30
0.0
  3
_ACMOPEN30
  1
Acad:XRef
  0
LINE
  5
7949
  8
AM_0
 62
     0
 10
-1.0
 20
0.0
 30
0.0
 11
0.0
 21
0.0
 31
0.0
  0
LINE
  5
794A
  8
AM_0
 62
     0
 10
-1.0
 20
-0.2679491924311227
 30
0.0
 11
0.0
 21
0.0
 31
0.0
  0
LINE
  5
794B
  8
AM_0
 62
     0
 10
-1.0
 20
0.2679491924311227
 30
0.0
 11
0.0
 21
0.0
 31
0.0
  0
ENDBLK
  5
7948
  8
0
  0
BLOCK
  8
0
  2
_ACMFILLEDHALF
 70
     0
 10
0.0
 20
0.0
 30
0.0
  3
_ACMFILLEDHALF
  1

  0
TRACE
  5
7954
  8
0
 62
     0
 10
-0.8
 20
0.0
 30
0.0
 11
-1.0
 21
0.166666666
 31
0.0
 12
0.0
 22
0.0
 32
0.0
 13
0.0
 23
0.0
 33
0.0
  0
LINE
  5
7955
  8
0
 62
     0
 10
-1.0
 20
0.0
 30
0.0
 11
-0.8
 21
0.0
 31
0.0
  0
ENDBLK
  5
7956
  8
0
  0
BLOCK
  8
0
  2
_ACMOPEN15
 70
     0
 10
0.0
 20
0.0
 30
0.0
  3
_ACMOPEN15
  1
Acad:XRef
  0
LINE
  5
7963
  8
AM_0
 62
     0
 10
-1.0
 20
0.0
 30
0.0
 11
0.0
 21
0.0
 31
0.0
  0
LINE
  5
7964
  8
AM_0
 62
     0
 10
-1.0
 20
-0.1316524975873958
 30
0.0
 11
0.0
 21
0.0
 31
0.0
  0
LINE
  5
7965
  8
AM_0
 62
     0
 10
-1.0
 20
0.1316524975873958
 30
0.0
 11
0.0
 21
0.0
 31
0.0
  0
ENDBLK
  5
7962
  8
0
  0
BLOCK
  8
0
  2
*X9
 70
     1
 10
0.0
 20
0.0
 30
0.0
  3
*X9
  1
Acad:XRef
  0
TEXT
  5
9E5C
  8
0
 62
     7
 10
69.35712250602127
 20
206.6384413458446
 30
0.0
 40
1.9
  1
凍結
  0
TEXT
  5
9E5D
  8
0
 62
     7
 10
69.34302232049252
 20
203.3143226074401
 30
0.0
 40
1.9
  1
予防
  0
ENDBLK
  5
9E92
  8
0
  0
BLOCK
  8
0
  2
*X10
 70
     1
 10
0.0
 20
0.0
 30
0.0
  3
*X10
  1
Acad:XRef
  0
TEXT
  5
9E7D
  8
0
 62
     7
 10
69.35712250602127
 20
226.6384413458447
 30
0.0
 40
1.9
  1
凍結
  0
TEXT
  5
9E7E
  8
0
 62
     7
 10
69.34302232049252
 20
223.3143226074403
 30
0.0
 40
1.9
  1
予防
  0
ENDBLK
  5
9E94
  8
0
  0
ENDSEC
  0
SECTION
  2
ENTITIES
  0
TEXT
  5
180F
  8
10
 10
-1.500002627034519
 20
0.000000316319074
 30
0.0
 40
10.0
  1
2024.02.01 EV3RW 2台連動+1台単独 露出型
 11
-1.500002627034519
 21
0.000000316319074
 31
0.0
 73
     1
  0
LINE
  5
4623
  8
0
 10
25.52185159276132
 20
289.8911315128205
 30
0.0
 11
125.5218515927613
 21
289.8911315128203
 31
0.0
  0
LINE
  5
4624
  8
0
 10
25.52185159276132
 20
169.8911315128204
 30
0.0
 11
125.5218515927613
 21
169.8911315128204
 31
0.0
  0
ARC
  5
4625
  8
0
 10
25.52185159276132
 20
281.8911315128205
 30
0.0
 40
8.0
 50
90.0
 51
180.0
  0
LINE
  5
4626
  8
0
 10
21.279210905642
 20
286.1337721999396
 30
0.0
 11
29.52185159276132
 21
277.8911315128205
 31
0.0
  0
LINE
  5
4627
  8
0
 10
31.52185159276132
 20
181.8911315128203
 30
0.0
 11
119.5218515927613
 21
181.8911315128206
 31
0.0
  0
LINE
  5
4628
  8
0
 10
31.52185159276132
 20
277.8911315128205
 30
0.0
 11
119.5218515927613
 21
277.8911315128204
 31
0.0
  0
LINE
  5
462B
  8
0
 10
29.52185159276132
 20
275.8911315128205
 30
0.0
 11
29.52185159276132
 21
183.8911315128204
 31
0.0
  0
LINE
  5
462D
  8
0
 10
17.52185159276132
 20
281.8911315128205
 30
0.0
 11
17.52185159276132
 21
177.8911315128204
 31
0.0
  0
LINE
  5
462E
  8
0
 10
21.27921090564223
 20
173.6484908257011
 30
0.0
 11
29.52185159276132
 21
181.8911315128204
 31
0.0
  0
ARC
  5
462F
  8
0
 10
25.52185159276132
 20
177.8911315128204
 30
0.0
 40
8.0
 50
180.0
 51
270.0
  0
ARC
  5
4633
  8
0
 10
125.5218515927613
 20
281.8911315128203
 30
0.0
 40
8.0
 50
0.0
 51
90.0
  0
LINE
  5
4634
  8
0
 10
129.7644922798806
 20
286.1337721999396
 30
0.0
 11
121.5218515927613
 21
277.8911315128203
 31
0.0
  0
LINE
  5
4636
  8
0
 10
121.5218515927613
 20
275.8911315128204
 30
0.0
 11
121.5218515927613
 21
183.8911315128206
 31
0.0
  0
LINE
  5
4637
  8
0
 10
133.5218515927613
 20
281.8911315128203
 30
0.0
 11
133.5218515927613
 21
177.8911315128204
 31
0.0
  0
LINE
  5
4638
  8
0
 10
121.5218515927613
 20
181.8911315128205
 30
0.0
 11
129.7644922798806
 21
173.6484908257009
 31
0.0
  0
ARC
  5
4639
  8
0
 10
125.5218515927613
 20
177.8911315128204
 30
0.0
 40
8.0
 50
270.0
 51
0.0
  0
LINE
  5
6E2D
  8
0
 10
25.52185159276132
 20
290.5544315128204
 30
0.0
 11
125.5218515927613
 21
290.5544315128202
 31
0.0
  0
ARC
  5
6E2E
  8
0
 10
25.52185159276132
 20
281.8911315128204
 30
0.0
 40
8.6633
 50
90.0
 51
180.0
  0
LINE
  5
6E2F
  8
0
 10
16.85855159276139
 20
281.8911315128204
 30
0.0
 11
16.85855159276139
 21
177.8911315128204
 31
0.0
  0
ARC
  5
6E30
  8
0
 10
25.52185159276132
 20
177.8911315128204
 30
0.0
 40
8.6633
 50
180.0
 51
270.0
  0
LINE
  5
6E31
  8
0
 10
25.52185159276132
 20
169.2278315128204
 30
0.0
 11
125.5218515927613
 21
169.2278315128204
 31
0.0
  0
ARC
  5
6E32
  8
0
 10
125.5218515927613
 20
177.8911315128204
 30
0.0
 40
8.6633
 50
270.0
 51
0.0
  0
LINE
  5
6E33
  8
0
 10
134.1851515927613
 20
281.8911315128202
 30
0.0
 11
134.1851515927613
 21
177.8911315128204
 31
0.0
  0
ARC
  5
6E34
  8
0
 10
125.5218515927613
 20
281.8911315128202
 30
0.0
 40
8.6633
 50
0.0
 51
90.0
  0
LINE
  5
784B
  8
0
 10
178.9776193488476
 20
280.4759169370503
 30
0.0
 11
180.2735054031282
 21
287.8252519569877
 31
0.0
  0
LINE
  5
784C
  8
0
 10
184.0218519392138
 20
169.8911315128206
 30
0.0
 11
184.0218519392138
 21
289.8911315128206
 31
0.0
  0
LINE
  5
784D
  8
0
 10
178.5218519392138
 20
184.5157914185982
 30
0.0
 11
178.5218519392138
 21
275.2664716070425
 31
0.0
  0
LINE
  5
784E
  8
0
 10
178.9776193488476
 20
179.3063460885903
 30
0.0
 11
180.2735054031281
 21
171.9570110686534
 31
0.0
  0
ARC
  5
784F
  8
0
 10
182.7355247856586
 20
172.3911315128207
 30
0.0
 40
2.5
 50
190.0000000000002
 51
270.0
  0
LINE
  5
7850
  8
0
 10
184.0218519392138
 20
169.8911315128207
 30
0.0
 11
182.7355247856585
 21
169.8911315128207
 31
0.0
  0
ARC
  5
7851
  8
0
 10
208.5218519392138
 20
184.5157914185982
 30
0.0
 40
30.0
 50
180.0
 51
190.0000000000002
  0
ARC
  5
7852
  8
0
 10
208.5218519392138
 20
275.2664716070425
 30
0.0
 40
30.0
 50
169.9999999999998
 51
180.0
  0
ARC
  5
7853
  8
0
 10
182.7355247856588
 20
287.3911315128204
 30
0.0
 40
2.5
 50
90.0
 51
169.9999999999998
  0
LINE
  5
7854
  8
0
 10
184.0218519392072
 20
289.8911315128206
 30
0.0
 11
182.7355247856519
 21
289.8911315128206
 31
0.0
  0
ARC
  5
7855
  8
0
 10
175.8218519392133
 20
259.6911315128206
 30
0.0
 40
1.0
 50
90.0
 51
180.0
  0
LINE
  5
7856
  8
0
 10
175.8218519392133
 20
260.6911315128206
 30
0.0
 11
178.5218519392133
 21
260.6911315128206
 31
0.0
  0
LINE
  5
7857
  8
0
 10
175.8218519392133
 20
253.6911315128206
 30
0.0
 11
178.5218519392133
 21
253.6911315128206
 31
0.0
  0
LINE
  5
7858
  8
0
 10
174.8218519392133
 20
259.6911315128206
 30
0.0
 11
174.8218519392133
 21
254.6911315128206
 31
0.0
  0
ARC
  5
7859
  8
0
 10
175.8218519392133
 20
254.6911315128206
 30
0.0
 40
1.0
 50
180.0
 51
270.0
  0
LINE
  5
785A
  8
0
 10
125.5218523378194
 20
144.5475006768111
 30
0.0
 11
25.52185084770332
 21
144.5475006768111
 31
0.0
  0
LINE
  5
785B
  8
0
 10
125.5218523378194
 20
140.5475008360672
 30
0.0
 11
25.52185084770332
 21
140.5475008360672
 31
0.0
  0
LINE
  5
785C
  8
0
 10
17.52185326169143
 20
140.5475008360672
 30
0.0
 11
17.52185326169143
 21
144.5475006768111
 31
0.0
  0
LINE
  5
785D
  8
0
 10
25.52185084770332
 20
144.5475006768111
 30
0.0
 11
17.52185326169143
 21
144.5475006768111
 31
0.0
  0
LINE
  5
785E
  8
0
 10
25.52185084770332
 20
140.5475008360672
 30
0.0
 11
17.52185326169143
 21
140.5475008360672
 31
0.0
  0
LINE
  5
785F
  8
0
 10
133.5218499238313
 20
140.5475008360672
 30
0.0
 11
133.5218499238313
 21
144.5475006768111
 31
0.0
  0
LINE
  5
7860
  8
0
 10
133.5218499238313
 20
144.5475006768111
 30
0.0
 11
125.5218523378194
 21
144.5475006768111
 31
0.0
  0
LINE
  5
7861
  8
0
 10
133.5218499238313
 20
140.5475008360672
 30
0.0
 11
125.5218523378194
 21
140.5475008360672
 31
0.0
  0
LINE
  5
7862
  8
0
 10
18.62185325573097
 20
144.5475006768111
 30
0.0
 11
18.62185325573097
 21
145.0475006768082
 31
0.0
  0
LINE
  5
7863
  8
0
 10
132.4218499297917
 20
144.5475006768111
 30
0.0
 11
132.4218499297917
 21
145.0475006768082
 31
0.0
  0
LINE
  5
7864
  8
0
 10
39.02185212920318
 20
150.5475006125498
 30
0.0
 11
112.0218510563195
 21
150.5475006125498
 31
0.0
  0
LINE
  5
7865
  8
0
 10
52.96668179090585
 20
153.747133347914
 30
0.0
 11
51.96668179090608
 21
153.747133347914
 31
0.0
  0
LINE
  5
7866
  8
0
 10
53.96668179090608
 20
154.247133347914
 30
0.0
 11
52.96668179090608
 21
154.247133347914
 31
0.0
  0
LINE
  5
7867
  8
0
 10
51.96668179090608
 20
154.247133347914
 30
0.0
 11
50.96668179090608
 21
154.247133347914
 31
0.0
  0
LINE
  5
7868
  8
0
 10
51.96668179090608
 20
154.247133347914
 30
0.0
 11
51.96668179090608
 21
153.747133347914
 31
0.0
  0
LINE
  5
7869
  8
0
 10
54.96668179090608
 20
154.247133347914
 30
0.0
 11
54.96668179090608
 21
153.747133347914
 31
0.0
  0
LINE
  5
786A
  8
0
 10
52.96668179090608
 20
154.247133347914
 30
0.0
 11
52.96668179090585
 21
153.747133347914
 31
0.0
  0
LINE
  5
786B
  8
0
 10
53.96668179090608
 20
154.247133347914
 30
0.0
 11
53.96668179090608
 21
153.747133347914
 31
0.0
  0
LINE
  5
786C
  8
0
 10
54.96668179090608
 20
153.747133347914
 30
0.0
 11
53.96668179090608
 21
153.747133347914
 31
0.0
  0
LINE
  5
786D
  8
0
 10
56.96668179090602
 20
150.5475006125498
 30
0.0
 11
56.9666817909058
 21
153.247133347914
 31
0.0
  0
ARC
  5
786E
  8
0
 10
55.96668179090585
 20
153.247133347914
 30
0.0
 40
1.0
 50
0.0
 51
90.0
  0
LINE
  5
786F
  8
0
 10
55.96668179090585
 20
154.247133347914
 30
0.0
 11
54.96668179090608
 21
154.247133347914
 31
0.0
  0
LINE
  5
7870
  8
0
 10
49.96668179090608
 20
150.5475006125498
 30
0.0
 11
49.96668179090608
 21
153.247133347914
 31
0.0
  0
ARC
  5
7871
  8
0
 10
50.96668179090608
 20
153.247133347914
 30
0.0
 40
1.0
 50
90.0
 51
180.0
  0
LINE
  5
7872
  8
0
 10
133.5218515927611
 20
145.0475006768082
 30
0.0
 11
17.52185159276092
 21
145.0475006768082
 31
0.0
  0
ARC
  5
7873
  8
0
 10
118.8971916869837
 20
120.5475006768082
 30
0.0
 40
30.0
 50
80.00000000000146
 51
90.0
  0
LINE
  5
7874
  8
0
 10
118.8971916869837
 20
150.5475006768082
 30
0.0
 11
32.14651149853904
 21
150.5475006768082
 31
0.0
  0
ARC
  5
7875
  8
0
 10
131.0218515927611
 20
146.3338278303634
 30
0.0
 40
2.5
 50
0.0
 51
80.00000000000146
  0
LINE
  5
7876
  8
0
 10
133.5218515927611
 20
145.0475006768082
 30
0.0
 11
133.5218515927611
 21
146.3338278303634
 31
0.0
  0
LINE
  5
7877
  8
0
 10
124.1066370169915
 20
150.0917332671744
 30
0.0
 11
131.4559720369284
 21
148.7958472128939
 31
0.0
  0
ARC
  5
7878
  8
0
 10
32.14651149853904
 20
120.5475006768082
 30
0.0
 40
30.0
 50
90.0
 51
99.99999999999855
  0
ARC
  5
7879
  8
0
 10
20.02185159276115
 20
146.3338278303634
 30
0.0
 40
2.5
 50
99.99999999999855
 51
180.0
  0
LINE
  5
787A
  8
0
 10
26.9370661685312
 20
150.0917332671744
 30
0.0
 11
19.58773114859383
 21
148.7958472128938
 31
0.0
  0
LINE
  5
787B
  8
0
 10
17.52185159276092
 20
145.0475006768148
 30
0.0
 11
17.52185159276092
 21
146.33382783037
 31
0.0
  0
LINE
  5
787C
  8
0
 10
188.5218517156959
 20
290.0161294937141
 30
0.0
 11
184.5218518749521
 21
290.0161294937141
 31
0.0
  0
LINE
  5
787D
  8
0
 10
184.5218518749521
 20
290.0161294937141
 30
0.0
 11
184.5218518749521
 21
282.0161319077022
 31
0.0
  0
LINE
  5
787E
  8
0
 10
188.5218517156959
 20
290.0161294937141
 30
0.0
 11
188.5218517156959
 21
282.0161319077022
 31
0.0
  0
LINE
  5
787F
  8
0
 10
184.5218518749521
 20
282.0161319077022
 30
0.0
 11
184.5218518749521
 21
178.016129761935
 31
0.0
  0
LINE
  5
7880
  8
0
 10
188.5218517156959
 20
282.0161319077022
 30
0.0
 11
188.5218517156959
 21
178.016129761935
 31
0.0
  0
LINE
  5
7881
  8
0
 10
188.5218517156959
 20
170.0161321759231
 30
0.0
 11
184.5218518749521
 21
170.0161321759231
 31
0.0
  0
LINE
  5
7882
  8
0
 10
184.5218518749521
 20
178.016129761935
 30
0.0
 11
184.5218518749521
 21
170.0161321759231
 31
0.0
  0
LINE
  5
7883
  8
0
 10
188.5218517156959
 20
178.016129761935
 30
0.0
 11
188.5218517156959
 21
170.0161321759231
 31
0.0
  0
LINE
  5
7884
  8
0
 10
184.5218518749521
 20
171.1161321699626
 30
0.0
 11
184.0218519392138
 21
171.1161321699627
 31
0.0
  0
LINE
  5
7885
  8
0
 10
184.5218518749521
 20
288.9161294996745
 30
0.0
 11
184.0218519392138
 21
288.9161294996745
 31
0.0
  0
LINE
  5
7886
  8
0
 10
188.5218517156959
 20
290.0161308348185
 30
0.0
 11
188.5218517156959
 21
170.0161308348187
 31
0.0
  0
LINE
  5
7887
  8
0
 10
226.5218517156961
 20
290.6794233020909
 30
0.0
 11
226.5218517156958
 21
169.3528383675463
 31
0.0
  0
LINE
  5
7888
  8
0
 10
188.5218517156959
 20
170.0161308348187
 30
0.0
 11
226.5218517156958
 21
169.3528383675463
 31
0.0
  0
LINE
  5
7889
  8
0
 10
188.5218517156959
 20
290.0161308348185
 30
0.0
 11
226.5218517156961
 21
290.6794233020909
 31
0.0
  0
LINE
  5
788A
  8
0
 10
133.5218515927615
 20
140.5475008360672
 30
0.0
 11
134.1851440600335
 21
102.5475008360673
 31
0.0
  0
LINE
  5
788B
  8
0
 10
17.52185159276127
 20
140.5475008360672
 30
0.0
 11
16.85855912548885
 21
102.5475008360673
 31
0.0
  0
ARC
  5
788C
  8
0
 10
70.0218515927611
 20
106.5475008360673
 30
0.0
 40
4.0
 50
0.0
 51
90.0
  0
ARC
  5
788D
  8
0
 10
70.0218515927611
 20
106.5475008360673
 30
0.0
 40
3.0
 50
0.0
 51
180.0
  0
LINE
  5
788E
  8
0
 10
16.85855912548885
 20
102.5475008360673
 30
0.0
 11
134.1851440600335
 21
102.5475008360673
 31
0.0
  0
LINE
  5
788F
  8
0
 10
66.0218515927611
 20
102.5475008360673
 30
0.0
 11
66.0218515927611
 21
106.5475008360673
 31
0.0
  0
LINE
  5
7890
  8
0
 10
67.0218515927611
 20
102.5475008360673
 30
0.0
 11
67.0218515927611
 21
106.5475008360673
 31
0.0
  0
LINE
  5
7891
  8
0
 10
55.52185159276115
 20
102.5475008360673
 30
0.0
 11
55.52185159276115
 21
106.5475008360673
 31
0.0
  0
LINE
  5
7892
  8
0
 10
56.5218515927611
 20
102.5475008360673
 30
0.0
 11
56.5218515927611
 21
106.5475008360673
 31
0.0
  0
LINE
  5
7893
  8
0
 10
63.5218515927611
 20
106.5475008360673
 30
0.0
 11
63.5218515927611
 21
102.5475008360673
 31
0.0
  0
LINE
  5
7894
  8
0
 10
62.5218515927611
 20
106.5475008360673
 30
0.0
 11
62.5218515927611
 21
102.5475008360673
 31
0.0
  0
ARC
  5
7895
  8
0
 10
59.5218515927611
 20
106.5475008360673
 30
0.0
 40
4.0
 50
0.0
 51
48.59037789073133
  0
ARC
  5
7896
  8
0
 10
59.5218515927611
 20
106.5475008360673
 30
0.0
 40
3.0
 50
0.0
 51
180.0
  0
LINE
  5
7897
  8
0
 10
62.16760290382581
 20
109.5475008360673
 30
0.0
 11
67.37610028169661
 21
109.5475008360673
 31
0.0
  0
ARC
  5
7898
  8
0
 10
70.0218515927611
 20
106.5475008360673
 30
0.0
 40
4.0
 50
131.4096221092687
 51
180.0
  0
ARC
  5
7899
  8
0
 10
59.5218515927611
 20
106.5475008360673
 30
0.0
 40
4.0
 50
90.0
 51
180.0
  0
LINE
  5
789A
  8
0
 10
59.5218515927611
 20
110.5475008360673
 30
0.0
 11
70.0218515927611
 21
110.5475008360673
 31
0.0
  0
LINE
  5
789B
  8
0
 10
94.5218515927611
 20
106.5475008360673
 30
0.0
 11
94.5218515927611
 21
102.5475008360673
 31
0.0
  0
LINE
  5
789C
  8
0
 10
95.5218515927611
 20
106.5475008360673
 30
0.0
 11
95.5218515927611
 21
102.5475008360673
 31
0.0
  0
LINE
  5
789D
  8
0
 10
88.5218515927611
 20
102.5475008360673
 30
0.0
 11
88.5218515927611
 21
106.5475008360673
 31
0.0
  0
LINE
  5
789E
  8
0
 10
87.5218515927611
 20
102.5475008360673
 30
0.0
 11
87.5218515927611
 21
106.5475008360673
 31
0.0
  0
LINE
  5
789F
  8
0
 10
74.0218515927611
 20
106.5475008360673
 30
0.0
 11
74.0218515927611
 21
102.5475008360673
 31
0.0
  0
LINE
  5
78A0
  8
0
 10
73.0218515927611
 20
106.5475008360673
 30
0.0
 11
73.0218515927611
 21
102.5475008360673
 31
0.0
  0
LINE
  5
78A1
  8
0
 10
77.0218515927611
 20
102.5475008360673
 30
0.0
 11
77.0218515927611
 21
106.5475008360673
 31
0.0
  0
LINE
  5
78A2
  8
0
 10
78.0218515927611
 20
102.5475008360673
 30
0.0
 11
78.0218515927611
 21
106.5475008360673
 31
0.0
  0
LINE
  5
78A3
  8
0
 10
85.0218515927611
 20
106.5475008360673
 30
0.0
 11
85.0218515927611
 21
102.5475008360673
 31
0.0
  0
LINE
  5
78A4
  8
0
 10
84.0218515927611
 20
106.5475008360673
 30
0.0
 11
84.0218515927611
 21
102.5475008360673
 31
0.0
  0
LINE
  5
78A5
  8
0
 10
81.0218515927611
 20
110.5475008360673
 30
0.0
 11
91.5218515927611
 21
110.5475008360673
 31
0.0
  0
ARC
  5
78A6
  8
0
 10
91.5218515927611
 20
106.5475008360673
 30
0.0
 40
4.0
 50
131.4096221092687
 51
180.0
  0
LINE
  5
78A7
  8
0
 10
83.66760290382558
 20
109.5475008360673
 30
0.0
 11
88.87610028169661
 21
109.5475008360673
 31
0.0
  0
ARC
  5
78A8
  8
0
 10
81.0218515927611
 20
106.5475008360673
 30
0.0
 40
4.0
 50
0.0
 51
48.59037789073133
  0
ARC
  5
78A9
  8
0
 10
81.0218515927611
 20
106.5475008360673
 30
0.0
 40
3.0
 50
0.0
 51
180.0
  0
ARC
  5
78AA
  8
0
 10
81.0218515927611
 20
106.5475008360673
 30
0.0
 40
4.0
 50
90.0
 51
180.0
  0
ARC
  5
78AB
  8
0
 10
91.5218515927611
 20
106.5475008360673
 30
0.0
 40
3.0
 50
0.0
 51
180.0
  0
ARC
  5
78AC
  8
0
 10
91.5218515927611
 20
106.5475008360673
 30
0.0
 40
4.0
 50
0.0
 51
90.0
  0
LINE
  5
78AD
  8
0
 10
17.52185159276127
 20
140.5475008360672
 30
0.0
 11
133.5218515927615
 21
140.5475008360672
 31
0.0
  0
LINE
  5
78AE
  8
7
 10
12.72785159276123
 20
229.8911315128204
 30
0.0
 11
138.3158515927612
 21
229.8911315128202
 31
0.0
1001
GENIUS_GENOBJ-N-CEN_13
1002
{
1000
OWNER
1000
GEN
1002
}
1001
GENIUS_GENODEF_13
1002
{
1000
HIER
1070
     0
1002
}
1002
{
1000
MANEDIT
1070
     0
1002
}
1002
{
1000
NOSEL
1070
     0
1002
}
1002
{
1000
BEHIND
1070
     0
1002
}
1002
{
1000
OTHER
1070
     0
1002
}
1002
{
1000
REACTOR
1002
}
1001
GENIUS_GENCEN_19
1002
{
1040
2.794
1002
}
  0
LINE
  5
78AF
  8
7
 10
75.52185159276132
 20
294.6851315128205
 30
0.0
 11
75.52185159276132
 21
165.0971315128203
 31
0.0
1001
GENIUS_GENOBJ-N-CEN_13
1002
{
1000
OWNER
1000
GEN
1002
}
1001
GENIUS_GENODEF_13
1002
{
1000
HIER
1070
     0
1002
}
1002
{
1000
MANEDIT
1070
     0
1002
}
1002
{
1000
NOSEL
1070
     0
1002
}
1002
{
1000
BEHIND
1070
     0
1002
}
1002
{
1000
OTHER
1070
     0
1002
}
1002
{
1000
REACTOR
1002
}
1001
GENIUS_GENCEN_19
1002
{
1040
2.794
1002
}
  0
LINE
  5
78B0
  8
7
 10
75.52185159276132
 20
153.3415006768082
 30
0.0
 11
75.52185159276132
 21
99.7535008360673
 31
0.0
1001
GENIUS_GENOBJ-N-CEN_13
1002
{
1000
OWNER
1000
GEN
1002
}
1001
GENIUS_GENODEF_13
1002
{
1000
HIER
1070
     0
1002
}
1002
{
1000
MANEDIT
1070
     0
1002
}
1002
{
1000
NOSEL
1070
     0
1002
}
1002
{
1000
BEHIND
1070
     0
1002
}
1002
{
1000
OTHER
1070
     0
1002
}
1002
{
1000
REACTOR
1002
}
1001
GENIUS_GENCEN_19
1002
{
1040
2.794
1002
}
  0
LINE
  5
78B1
  8
7
 10
175.7278519392138
 20
229.8911315128199
 30
0.0
 11
229.315851715696
 21
229.8911315128198
 31
0.0
1001
GENIUS_GENODEF_13
1002
{
1000
HIER
1070
     0
1002
}
1002
{
1000
MANEDIT
1070
     0
1002
}
1002
{
1000
NOSEL
1070
     0
1002
}
1002
{
1000
BEHIND
1070
     0
1002
}
1002
{
1000
OTHER
1070
     0
1002
}
1002
{
1000
REACTOR
1002
}
1001
GENIUS_GENOBJ-N-CEN_13
1002
{
1000
OWNER
1000
GEN
1002
}
1001
GENIUS_GENCEN_19
1002
{
1040
2.794
1002
}
  0
LINE
  5
8267
  8
0
 10
38.27185159276129
 20
264.9911315128203
 30
0.0
 11
112.7718515927613
 21
264.9911315128203
 31
0.0
  0
LINE
  5
8268
  8
0
 10
38.27185159276129
 20
194.7911315128203
 30
0.0
 11
112.7718515927613
 21
194.7911315128203
 31
0.0
  0
LINE
  5
8269
  8
0
 10
38.27185159276129
 20
264.9911315128203
 30
0.0
 11
38.27185159276129
 21
194.7911315128203
 31
0.0
  0
LINE
  5
826A
  8
0
 10
112.7718515927613
 20
264.9911315128203
 30
0.0
 11
112.7718515927613
 21
194.7911315128203
 31
0.0
  0
LINE
  5
826B
  8
0
 10
112.0218510563195
 20
195.3911323770876
 30
0.0
 11
112.0218510563195
 21
264.3911306485529
 31
0.0
  0
LINE
  5
826C
  8
0
 10
39.0218521292031
 20
195.3911323770876
 30
0.0
 11
112.0218510563195
 21
195.3911323770876
 31
0.0
  0
LINE
  5
826D
  8
0
 10
39.0218521292031
 20
264.3911306485529
 30
0.0
 11
39.0218521292031
 21
195.3911323770876
 31
0.0
  0
LINE
  5
826E
  8
0
 10
112.0218510563195
 20
264.3911306485529
 30
0.0
 11
39.0218521292031
 21
264.3911306485529
 31
0.0
  0
LINE
  5
826F
  8
0
 10
40.52185144374968
 20
196.8911316916342
 30
0.0
 11
110.5218517417729
 21
196.8911316916342
 31
0.0
  0
LINE
  5
8270
  8
0
 10
110.5218517417729
 20
196.8911316916342
 30
0.0
 11
110.5218517417729
 21
262.8911313340063
 31
0.0
  0
LINE
  5
8271
  8
0
 10
110.5218517417729
 20
262.8911313340063
 30
0.0
 11
65.52185181627871
 21
262.8911313340063
 31
0.0
  0
LINE
  5
8272
  8
0
 10
40.52185144374968
 20
250.8911312296982
 30
0.0
 11
65.52185181627871
 21
250.8911312296982
 31
0.0
  0
LINE
  5
8273
  8
0
 10
40.52185144374968
 20
250.8911312296982
 30
0.0
 11
40.52185144374968
 21
196.8911316916342
 31
0.0
  0
LINE
  5
8274
  8
0
 10
47.32185106824042
 20
253.191131047904
 30
0.0
 11
57.321850844723
 21
253.191131047904
 31
0.0
  0
LINE
  5
8275
  8
0
 10
57.321850844723
 20
253.191131047904
 30
0.0
 11
57.321850844723
 21
261.1911323592062
 31
0.0
  0
LINE
  5
8276
  8
0
 10
57.321850844723
 20
261.1911323592062
 30
0.0
 11
47.32185106824042
 21
261.1911323592062
 31
0.0
  0
LINE
  5
8277
  8
0
 10
47.32185106824042
 20
261.1911323592062
 30
0.0
 11
47.32185106824042
 21
253.191131047904
 31
0.0
  0
LINE
  5
8278
  8
0
 10
65.52185181627871
 20
250.8911312296982
 30
0.0
 11
65.52185181627871
 21
262.8911313340063
 31
0.0
  0
LINE
  5
8279
  8
0
 10
112.5218520695985
 20
194.8911313638087
 30
0.0
 11
112.5218520695985
 21
264.8911316618319
 31
0.0
  0
LINE
  5
827A
  8
0
 10
38.52185111592414
 20
194.8911313638087
 30
0.0
 11
112.5218520695985
 21
194.8911313638087
 31
0.0
  0
LINE
  5
827B
  8
0
 10
38.52185111592414
 20
264.8911316618319
 30
0.0
 11
38.52185111592414
 21
194.8911313638087
 31
0.0
  0
LINE
  5
827C
  8
0
 10
112.5218520695985
 20
264.8911316618319
 30
0.0
 11
38.52185111592414
 21
264.8911316618319
 31
0.0
  0
ARC
  5
827D
  8
0
 10
48.72185095648169
 20
259.691131047904
 30
0.0
 40
1.0
 50
90.0
 51
180.0
  0
ARC
  5
827E
  8
0
 10
53.72185095648169
 20
259.691131047904
 30
0.0
 40
1.0
 50
0.0
 51
90.0
  0
LINE
  5
827F
  8
0
 10
48.72185095648169
 20
260.691131047904
 30
0.0
 11
53.72185095648169
 21
260.691131047904
 31
0.0
  0
LINE
  5
8280
  8
0
 10
53.72185095648169
 20
253.6911310479042
 30
0.0
 11
48.72185095648169
 21
253.691131047904
 31
0.0
  0
ARC
  5
8281
  8
0
 10
48.72185095648169
 20
254.691131047904
 30
0.0
 40
1.0
 50
180.0
 51
270.0000000000016
  0
ARC
  5
8282
  8
0
 10
53.72185095648169
 20
254.6911310479042
 30
0.0
 40
1.0
 50
270.0
 51
0.0
  0
LINE
  5
8283
  8
0
 10
52.72185095648169
 20
253.6911310479042
 30
0.0
 11
52.72185095648169
 21
260.691131047904
 31
0.0
  0
LINE
  5
8284
  8
0
 10
51.72185095648169
 20
253.691131047904
 30
0.0
 11
51.72185095648169
 21
260.691131047904
 31
0.0
  0
LINE
  5
8285
  8
0
 10
50.72185095648169
 20
253.6911310479039
 30
0.0
 11
50.72185095648169
 21
260.691131047904
 31
0.0
  0
LINE
  5
8286
  8
0
 10
49.72185095648169
 20
253.6911310479039
 30
0.0
 11
49.72185095648169
 21
260.691131047904
 31
0.0
  0
LINE
  5
8287
  8
0
 10
47.72185095648169
 20
254.691131047904
 30
0.0
 11
47.72185095648169
 21
259.691131047904
 31
0.0
  0
LINE
  5
8288
  8
0
 10
54.72185095648169
 20
259.691131047904
 30
0.0
 11
54.72185095648169
 21
254.6911310479042
 31
0.0
  0
LINE
  5
8289
  8
0
 10
65.77185181627871
 20
262.6411315128204
 30
0.0
 11
110.2718515927613
 21
262.6411315128203
 31
0.0
  0
LINE
  5
828A
  8
0
 10
110.2718515927613
 20
262.6411315128203
 30
0.0
 11
110.2718515927613
 21
197.1411315128202
 31
0.0
  0
LINE
  5
828B
  8
0
 10
40.77185159276129
 20
197.1411315128204
 30
0.0
 11
40.77185159276129
 21
250.6411312296982
 31
0.0
  0
LINE
  5
828C
  8
0
 10
110.2718515927613
 20
197.1411315128202
 30
0.0
 11
40.77185159276129
 21
197.1411315128204
 31
0.0
  0
LINE
  5
828D
  8
0
  6
CONTINUOUS
 10
65.77185181627871
 20
250.6411312296982
 30
0.0
 11
65.77185181627871
 21
262.6411315128204
 31
0.0
  0
LINE
  5
828E
  8
0
  6
CONTINUOUS
 10
40.77185159276129
 20
250.6411312296982
 30
0.0
 11
65.77185181627871
 21
250.6411312296982
 31
0.0
  0
INSERT
  5
828F
  8
0
 62
     7
  2
*X9
 10
0.0
 20
0.0
 30
0.0
  0
TEXT
  5
8290
  8
0
 62
     7
 10
69.358297521482
 20
212.9769694843727
 30
0.0
 40
1.9
  1
給湯
  0
TEXT
  5
8291
  8
0
 62
     7
 10
89.34300187105448
 20
207.9715273075019
 30
0.0
 40
4.0
  1
PUSH
 41
1.2
  0
TEXT
  5
8292
  8
0
 62
     7
 10
49.75042238505314
 20
246.2980269982874
 30
0.0
 40
2.0
  1
電源
  0
LINE
  5
8294
  8
0
 10
41.77185159276129
 20
217.1012396201255
 30
0.0
 11
41.77185159276129
 21
219.6387396201261
 31
0.0
  0
LINE
  5
8295
  8
0
 10
43.87435159276126
 20
217.1012396201255
 30
0.0
 11
43.87435159276126
 21
219.6387396201261
 31
0.0
  0
LINE
  5
8296
  8
0
 10
44.09185159276146
 20
217.1012396201255
 30
0.0
 11
44.09185159276146
 21
219.6387396201261
 31
0.0
  0
LINE
  5
8297
  8
0
 10
41.77185159276129
 20
217.1012396201255
 30
0.0
 11
42.56935159276142
 21
217.1012396201255
 31
0.0
  0
LINE
  5
8298
  8
0
 10
41.77185159276129
 20
219.6387396201261
 30
0.0
 11
42.56935159276142
 21
219.6387396201261
 31
0.0
  0
LINE
  5
8299
  8
0
 10
42.56935159276142
 20
219.6387396201261
 30
0.0
 11
42.56935159276142
 21
218.768739620126
 31
0.0
  0
LINE
  5
829A
  8
0
 10
43.07685159276113
 20
219.6387396201261
 30
0.0
 11
43.07685159276113
 21
218.768739620126
 31
0.0
  0
LINE
  5
829B
  8
0
 10
42.56935159276142
 20
217.1012396201255
 30
0.0
 11
42.56935159276142
 21
217.9712396201254
 31
0.0
  0
LINE
  5
829C
  8
0
 10
43.07685159276113
 20
217.1012396201255
 30
0.0
 11
43.07685159276113
 21
217.9712396201254
 31
0.0
  0
LINE
  5
829D
  8
0
 10
43.07685159276113
 20
219.6387396201261
 30
0.0
 11
43.87435159276126
 21
219.6387396201261
 31
0.0
  0
LINE
  5
829E
  8
0
 10
43.07685159276113
 20
217.1012396201255
 30
0.0
 11
43.87435159276126
 21
217.1012396201255
 31
0.0
  0
LINE
  5
829F
  8
0
 10
42.56935159276142
 20
218.768739620126
 30
0.0
 11
43.07685159276113
 21
218.768739620126
 31
0.0
  0
LINE
  5
82A0
  8
0
 10
42.56935159276142
 20
217.9712396201254
 30
0.0
 11
43.07685159276113
 21
217.9712396201254
 31
0.0
  0
LINE
  5
82A1
  8
0
 10
44.88935159276113
 20
217.1012396201255
 30
0.0
 11
44.88935159276113
 21
219.6387396201261
 31
0.0
  0
LINE
  5
82A2
  8
0
 10
45.10685159276133
 20
217.1012396201255
 30
0.0
 11
45.10685159276133
 21
219.6387396201261
 31
0.0
  0
LINE
  5
82A3
  8
0
 10
44.09185159276146
 20
219.6387396201261
 30
0.0
 11
44.88935159276113
 21
219.6387396201261
 31
0.0
  0
LINE
  5
82A4
  8
0
 10
44.09185159276146
 20
217.1012396201255
 30
0.0
 11
44.88935159276113
 21
217.1012396201255
 31
0.0
  0
LINE
  5
82A5
  8
0
 10
47.20935159276129
 20
217.1012396201255
 30
0.0
 11
47.20935159276129
 21
217.6812396201254
 31
0.0
  0
LINE
  5
82A6
  8
0
 10
47.20935159276129
 20
219.0587396201262
 30
0.0
 11
47.20935159276129
 21
219.6387396201261
 31
0.0
  0
LINE
  5
82A7
  8
0
 10
45.10685159276133
 20
217.1012396201255
 30
0.0
 11
45.90435159276146
 21
217.1012396201255
 31
0.0
  0
LINE
  5
82A8
  8
0
 10
45.10685159276133
 20
219.6387396201261
 30
0.0
 11
45.90435159276146
 21
219.6387396201261
 31
0.0
  0
LINE
  5
82A9
  8
0
 10
45.90435159276146
 20
219.6387396201261
 30
0.0
 11
45.90435159276146
 21
218.768739620126
 31
0.0
  0
LINE
  5
82AA
  8
0
 10
46.41185159276117
 20
219.6387396201261
 30
0.0
 11
46.41185159276117
 21
219.0587396201262
 31
0.0
  0
LINE
  5
82AB
  8
0
 10
45.90435159276146
 20
217.1012396201255
 30
0.0
 11
45.90435159276146
 21
217.9712396201254
 31
0.0
  0
LINE
  5
82AC
  8
0
 10
46.41185159276117
 20
217.1012396201255
 30
0.0
 11
46.41185159276117
 21
217.6812396201254
 31
0.0
  0
ARC
  5
82AD
  8
0
 10
46.1218515927612
 20
217.6812396201254
 30
0.0
 40
0.29
 50
0.0
 51
90.0
  0
ARC
  5
82AE
  8
0
 10
46.1218515927612
 20
217.6812396201254
 30
0.0
 40
1.0875
 50
0.0
 51
39.29648023919083
  0
LINE
  5
82AF
  8
0
 10
46.41185159276117
 20
219.6387396201261
 30
0.0
 11
47.20935159276129
 21
219.6387396201261
 31
0.0
  0
LINE
  5
82B0
  8
0
 10
46.41185159276117
 20
217.1012396201255
 30
0.0
 11
47.20935159276129
 21
217.1012396201255
 31
0.0
  0
LINE
  5
82B1
  8
0
 10
45.90435159276146
 20
218.768739620126
 30
0.0
 11
46.1218515927612
 21
218.768739620126
 31
0.0
  0
ARC
  5
82B2
  8
0
 10
46.1218515927612
 20
219.0587396201262
 30
0.0
 40
0.29
 50
270.0
 51
0.0
  0
ARC
  5
82B3
  8
0
 10
46.1218515927612
 20
219.0587396201262
 30
0.0
 40
1.0875
 50
320.7035197608199
 51
0.0
  0
LINE
  5
82B4
  8
0
 10
45.90435159276146
 20
217.9712396201254
 30
0.0
 11
46.1218515927612
 21
217.9712396201254
 31
0.0
  0
LINE
  5
82B5
  8
0
 10
47.42685159276149
 20
217.1012396201255
 30
0.0
 11
47.42685159276149
 21
218.5874896201254
 31
0.0
  0
LINE
  5
82B6
  8
0
 10
49.52935159276146
 20
217.1012396201255
 30
0.0
 11
49.52935159276146
 21
218.5874896201254
 31
0.0
  0
LINE
  5
82B7
  8
0
 10
47.42685159276149
 20
217.1012396201255
 30
0.0
 11
48.22435159276117
 21
217.1012396201255
 31
0.0
  0
LINE
  5
82B8
  8
0
 10
48.22435159276117
 20
217.1012396201255
 30
0.0
 11
48.22435159276117
 21
217.6087396201252
 31
0.0
  0
LINE
  5
82B9
  8
0
 10
48.73185159276133
 20
217.1012396201255
 30
0.0
 11
48.73185159276133
 21
217.6087396201252
 31
0.0
  0
LINE
  5
82BA
  8
0
 10
48.73185159276133
 20
217.1012396201255
 30
0.0
 11
49.52935159276146
 21
217.1012396201255
 31
0.0
  0
LINE
  5
82BB
  8
0
 10
48.22435159276117
 20
217.6087396201252
 30
0.0
 11
48.73185159276133
 21
217.6087396201252
 31
0.0
  0
LINE
  5
82BC
  8
0
 10
48.22435159276117
 20
218.3337396201256
 30
0.0
 11
48.73185159276133
 21
218.3337396201256
 31
0.0
  0
ARC
  5
82BD
  8
0
 10
48.47810159276148
 20
218.5874896201254
 30
0.0
 40
1.05125
 50
0.0
 51
180.0
  0
ARC
  5
82BE
  8
0
 10
48.47810159276148
 20
218.5874896201254
 30
0.0
 40
0.25375
 50
0.0
 51
180.0
  0
LINE
  5
82BF
  8
0
 10
48.22435159276117
 20
218.3337396201256
 30
0.0
 11
48.22435159276117
 21
218.5874896201254
 31
0.0
  0
LINE
  5
82C0
  8
0
 10
48.73185159276133
 20
218.5874896201254
 30
0.0
 11
48.73185159276133
 21
218.3337396201256
 31
0.0
  0
LINE
  5
82C1
  8
0
 10
49.7468515927612
 20
217.1012396201255
 30
0.0
 11
49.7468515927612
 21
219.6387396201261
 31
0.0
  0
LINE
  5
82C2
  8
0
 10
51.84935159276117
 20
217.1012396201255
 30
0.0
 11
51.84935159276117
 21
217.6812396201254
 31
0.0
  0
LINE
  5
82C3
  8
0
 10
49.7468515927612
 20
217.1012396201255
 30
0.0
 11
50.54435159276133
 21
217.1012396201255
 31
0.0
  0
LINE
  5
82C4
  8
0
 10
50.68935159276131
 20
217.8987396201256
 30
0.0
 11
50.83435159276129
 21
217.8987396201256
 31
0.0
  0
LINE
  5
82C5
  8
0
 10
50.68935159276131
 20
218.478739620126
 30
0.0
 11
50.83435159276129
 21
218.478739620126
 31
0.0
  0
LINE
  5
82C6
  8
0
 10
50.54435159276133
 20
217.1012396201255
 30
0.0
 11
50.54435159276133
 21
218.9137396201257
 31
0.0
  0
LINE
  5
82C7
  8
0
 10
51.05185159276149
 20
217.1012396201255
 30
0.0
 11
51.05185159276149
 21
217.6812396201254
 31
0.0
  0
ARC
  5
82C8
  8
0
 10
50.83435159276129
 20
217.6812396201254
 30
0.0
 40
0.2175
 50
0.0
 51
90.0
  0
ARC
  5
82C9
  8
0
 10
50.83435159276129
 20
217.6812396201254
 30
0.0
 40
1.015
 50
0.0
 51
30.66296328368225
  0
LINE
  5
82CA
  8
0
 10
49.7468515927612
 20
219.6387396201261
 30
0.0
 11
50.90685159276106
 21
219.6387396201261
 31
0.0
  0
LINE
  5
82CB
  8
0
 10
50.54435159276133
 20
218.9137396201257
 30
0.0
 11
50.83435159276129
 21
218.9137396201257
 31
0.0
  0
LINE
  5
82CC
  8
0
 10
51.05185159276149
 20
217.1012396201255
 30
0.0
 11
51.84935159276117
 21
217.1012396201255
 31
0.0
  0
ARC
  5
82CD
  8
0
 10
50.83435159276129
 20
218.6962396201258
 30
0.0
 40
0.2175
 50
270.0
 51
90.0
  0
ARC
  5
82CE
  8
0
 10
50.90685159276106
 20
218.6962396201258
 30
0.0
 40
0.9425
 50
328.1493895340805
 51
90.0
  0
LINE
  5
82CF
  8
0
 10
50.68935159276131
 20
218.478739620126
 30
0.0
 11
50.68935159276131
 21
217.8987396201256
 31
0.0
  0
LINE
  5
82D0
  8
0
 10
52.06685159276137
 20
217.1012396201255
 30
0.0
 11
52.06685159276137
 21
219.6387396201261
 31
0.0
  0
LINE
  5
82D1
  8
0
 10
52.86435159276149
 20
217.1012396201255
 30
0.0
 11
52.86435159276149
 21
219.6387396201261
 31
0.0
  0
LINE
  5
82D2
  8
0
 10
55.76435159276113
 20
217.1374896201256
 30
0.0
 11
55.76435159276113
 21
218.5874896201254
 31
0.0
  0
LINE
  5
82D3
  8
0
 10
52.06685159276137
 20
219.6387396201261
 30
0.0
 11
52.86435159276149
 21
219.6387396201261
 31
0.0
  0
LINE
  5
82D4
  8
0
 10
52.06685159276137
 20
217.1012396201255
 30
0.0
 11
52.86435159276149
 21
217.1012396201255
 31
0.0
  0
ARC
  5
82D5
  8
0
 10
55.03935159276122
 20
218.3699896201257
 30
0.0
 40
1.305
 50
84.27518954777628
 51
281.4211862750086
  0
ARC
  5
82D6
  8
0
 10
55.03935159276122
 20
218.3699896201257
 30
0.0
 40
0.5075000000000001
 50
84.27518954777645
 51
270.0
  0
CIRCLE
  5
82D7
  8
0
 10
57.28685159276117
 20
218.3699896201257
 30
0.0
 40
1.305
  0
CIRCLE
  5
82D8
  8
0
 10
57.28685159276117
 20
218.3699896201257
 30
0.0
 40
0.5075000000000001
  0
LINE
  5
82D9
  8
0
 10
55.03935159276122
 20
217.862489620126
 30
0.0
 11
55.03935159276122
 21
218.5874896201254
 31
0.0
  0
LINE
  5
82DA
  8
0
 10
55.03935159276122
 20
218.5874896201254
 30
0.0
 11
55.76435159276113
 21
218.5874896201254
 31
0.0
  0
LINE
  5
82DB
  8
0
 10
55.29776743434556
 20
217.0908312042844
 30
0.0
 11
55.76435159276113
 21
217.1374896201256
 31
0.0
  0
LINE
  5
82DC
  8
0
 10
55.16952615635225
 20
219.6684808919462
 30
0.0
 11
55.76435159276113
 21
219.6387396201261
 31
0.0
  0
LINE
  5
82DD
  8
0
 10
55.76435159276113
 20
219.6387396201261
 30
0.0
 11
55.76435159276113
 21
218.8412396201255
 31
0.0
  0
LINE
  5
82DE
  8
0
 10
55.76435159276113
 20
218.8412396201255
 30
0.0
 11
55.08997503415773
 21
218.8749584480564
 31
0.0
  0
LINE
  5
82DF
  8
0
 10
58.8093515927612
 20
217.1012396201255
 30
0.0
 11
58.8093515927612
 21
219.6387396201261
 31
0.0
  0
LINE
  5
82E0
  8
0
 10
60.91185159276117
 20
217.1012396201255
 30
0.0
 11
60.91185159276117
 21
217.6812396201254
 31
0.0
  0
LINE
  5
82E1
  8
0
 10
60.91185159276117
 20
219.0587396201262
 30
0.0
 11
60.91185159276117
 21
219.6387396201261
 31
0.0
  0
LINE
  5
82E2
  8
0
 10
58.8093515927612
 20
217.1012396201255
 30
0.0
 11
59.60685159276133
 21
217.1012396201255
 31
0.0
  0
LINE
  5
82E3
  8
0
 10
58.8093515927612
 20
219.6387396201261
 30
0.0
 11
59.60685159276133
 21
219.6387396201261
 31
0.0
  0
LINE
  5
82E4
  8
0
 10
59.60685159276133
 20
219.6387396201261
 30
0.0
 11
59.60685159276133
 21
218.768739620126
 31
0.0
  0
LINE
  5
82E5
  8
0
 10
60.11435159276149
 20
219.6387396201261
 30
0.0
 11
60.11435159276149
 21
219.0587396201262
 31
0.0
  0
LINE
  5
82E6
  8
0
 10
59.60685159276133
 20
217.1012396201255
 30
0.0
 11
59.60685159276133
 21
217.9712396201254
 31
0.0
  0
LINE
  5
82E7
  8
0
 10
60.11435159276149
 20
217.1012396201255
 30
0.0
 11
60.11435159276149
 21
217.6812396201254
 31
0.0
  0
ARC
  5
82E8
  8
0
 10
59.82435159276108
 20
217.6812396201254
 30
0.0
 40
0.29
 50
0.0
 51
90.0
  0
ARC
  5
82E9
  8
0
 10
59.82435159276108
 20
217.6812396201254
 30
0.0
 40
1.0875
 50
0.0
 51
39.29648023919083
  0
LINE
  5
82EA
  8
0
 10
60.11435159276149
 20
219.6387396201261
 30
0.0
 11
60.91185159276117
 21
219.6387396201261
 31
0.0
  0
LINE
  5
82EB
  8
0
 10
60.11435159276149
 20
217.1012396201255
 30
0.0
 11
60.91185159276117
 21
217.1012396201255
 31
0.0
  0
LINE
  5
82EC
  8
0
 10
59.60685159276133
 20
218.768739620126
 30
0.0
 11
59.82435159276108
 21
218.768739620126
 31
0.0
  0
ARC
  5
82ED
  8
0
 10
59.82435159276108
 20
219.0587396201262
 30
0.0
 40
0.29
 50
270.0
 51
0.0
  0
ARC
  5
82EE
  8
0
 10
59.82435159276108
 20
219.0587396201262
 30
0.0
 40
1.0875
 50
320.7035197608199
 51
0.0
  0
LINE
  5
82EF
  8
0
 10
59.60685159276133
 20
217.9712396201254
 30
0.0
 11
59.82435159276108
 21
217.9712396201254
 31
0.0
  0
LINE
  5
82F0
  8
0
 10
61.12935159276137
 20
217.1012396201255
 30
0.0
 11
61.12935159276137
 21
219.6387396201261
 31
0.0
  0
LINE
  5
82F1
  8
0
 10
61.92685159276149
 20
217.1012396201255
 30
0.0
 11
61.92685159276149
 21
219.6387396201261
 31
0.0
  0
LINE
  5
82F2
  8
0
 10
61.12935159276137
 20
219.6387396201261
 30
0.0
 11
61.92685159276149
 21
219.6387396201261
 31
0.0
  0
LINE
  5
82F3
  8
0
 10
61.12935159276137
 20
217.1012396201255
 30
0.0
 11
61.92685159276149
 21
217.1012396201255
 31
0.0
  0
LINE
  5
82F4
  8
0
 10
62.14435159276124
 20
217.1012396201255
 30
0.0
 11
62.14435159276124
 21
218.5874896201254
 31
0.0
  0
LINE
  5
82F5
  8
0
 10
64.2468515927612
 20
217.1012396201255
 30
0.0
 11
64.2468515927612
 21
218.5874896201254
 31
0.0
  0
LINE
  5
82F6
  8
0
 10
62.14435159276124
 20
217.1012396201255
 30
0.0
 11
62.94185159276137
 21
217.1012396201255
 31
0.0
  0
LINE
  5
82F7
  8
0
 10
62.94185159276137
 20
217.1012396201255
 30
0.0
 11
62.94185159276137
 21
218.5874896201254
 31
0.0
  0
LINE
  5
82F8
  8
0
 10
63.44935159276108
 20
217.1012396201255
 30
0.0
 11
63.44935159276108
 21
218.5874896201254
 31
0.0
  0
LINE
  5
82F9
  8
0
 10
63.44935159276108
 20
217.1012396201255
 30
0.0
 11
64.2468515927612
 21
217.1012396201255
 31
0.0
  0
ARC
  5
82FA
  8
0
 10
63.19560159276122
 20
218.5874896201254
 30
0.0
 40
1.05125
 50
0.0
 51
180.0
  0
ARC
  5
82FB
  8
0
 10
63.19560159276122
 20
218.5874896201254
 30
0.0
 40
0.25375
 50
0.0
 51
180.0
  0
CIRCLE
  5
82FC
  8
0
 10
95.52185159276135
 20
209.8911315128204
 30
0.0
 40
8.25
  0
LINE
  5
82FD
  8
0
 10
68.2718515927609
 20
203.8911315128198
 30
0.0
 11
68.2718515927609
 21
215.8911315128203
 31
0.0
  0
ARC
  5
82FE
  8
0
 10
70.2718515927609
 20
203.8911315128198
 30
0.0
 40
2.0
 50
180.0
 51
270.0
1001
GENIUS_GENOBJ-N-FIL_13
1002
{
1000
OWNER
1000
GEN
1002
}
1001
GENIUS_GENODEF_13
1002
{
1000
HIER
1070
     0
1002
}
1002
{
1000
MANEDIT
1070
     0
1002
}
1002
{
1000
NOSEL
1070
     0
1002
}
1002
{
1000
BEHIND
1070
     0
1002
}
1002
{
1000
OTHER
1070
     0
1002
}
1002
{
1000
REACTOR
1002
}
  0
LINE
  5
82FF
  8
0
 10
86.27185159275999
 20
203.8911315128198
 30
0.0
 11
86.27185159275999
 21
215.8911315128194
 31
0.0
  0
ARC
  5
8300
  8
0
 10
84.27185159275999
 20
215.8911315128194
 30
0.0
 40
2.0
 50
0.0
 51
90.0
1001
GENIUS_GENODEF_13
1002
{
1000
HIER
1070
     0
1002
}
1002
{
1000
MANEDIT
1070
     0
1002
}
1002
{
1000
NOSEL
1070
     0
1002
}
1002
{
1000
BEHIND
1070
     0
1002
}
1002
{
1000
OTHER
1070
     0
1002
}
1002
{
1000
REACTOR
1002
}
1001
GENIUS_GENOBJ-N-FIL_13
1002
{
1000
OWNER
1000
GEN
1002
}
  0
LINE
  5
8301
  8
0
 10
86.27185159275999
 20
209.3911315128198
 30
0.0
 11
86.24963133424697
 21
209.3911315128198
 31
0.0
  0
LINE
  5
8302
  8
0
 10
84.8218515927604
 20
209.5411315128197
 30
0.0
 11
69.72185159276049
 21
209.5411315128197
 31
0.0
  0
LINE
  5
8303
  8
0
 10
86.27185159275999
 20
210.3911315128198
 30
0.0
 11
86.24963133424697
 21
210.3911315128198
 31
0.0
  0
LINE
  5
8304
  8
0
 10
84.8218515927604
 20
210.2411315128197
 30
0.0
 11
69.72185159276049
 21
210.2411315128197
 31
0.0
  0
CIRCLE
  5
8305
  8
0
 10
77.47346513217602
 20
213.8911315128203
 30
0.0
 40
2.0
  0
LINE
  5
8306
  8
0
 10
84.27185159275999
 20
217.8911315128194
 30
0.0
 11
70.2718515927609
 21
217.8911315128203
 31
0.0
  0
ARC
  5
8307
  8
0
 10
70.2718515927609
 20
215.8911315128203
 30
0.0
 40
2.0
 50
90.0
 51
180.0
1001
GENIUS_GENOBJ-N-FIL_13
1002
{
1000
OWNER
1000
GEN
1002
}
1001
GENIUS_GENODEF_13
1002
{
1000
HIER
1070
     0
1002
}
1002
{
1000
MANEDIT
1070
     0
1002
}
1002
{
1000
NOSEL
1070
     0
1002
}
1002
{
1000
BEHIND
1070
     0
1002
}
1002
{
1000
OTHER
1070
     0
1002
}
1002
{
1000
REACTOR
1002
}
  0
LINE
  5
8308
  8
0
 10
84.27185159275999
 20
201.8911315128198
 30
0.0
 11
70.2718515927609
 21
201.8911315128198
 31
0.0
  0
ARC
  5
8309
  8
0
 10
84.27185159275999
 20
203.8911315128198
 30
0.0
 40
2.0
 50
270.0
 51
0.0
1001
GENIUS_GENODEF_13
1002
{
1000
HIER
1070
     0
1002
}
1002
{
1000
MANEDIT
1070
     0
1002
}
1002
{
1000
NOSEL
1070
     0
1002
}
1002
{
1000
BEHIND
1070
     0
1002
}
1002
{
1000
OTHER
1070
     0
1002
}
1002
{
1000
REACTOR
1002
}
1001
GENIUS_GENOBJ-N-FIL_13
1002
{
1000
OWNER
1000
GEN
1002
}
  0
TEXT
  5
830A
  8
0
 10
41.6505157857112
 20
220.3458340155884
 30
0.0
 40
1.8
  1
電動水抜操作盤 EV3RW
  0
CIRCLE
  5
833B
  8
0
 10
65.82231355532323
 20
224.3742960381009
 30
0.0
 40
1.125
  0
TEXT
  5
833C
  8
0
 10
65.10231355532324
 20
223.6062960381009
 30
0.0
 40
1.44
  1
Ｒ
 72
     4
 11
65.82231355532323
 21
224.3742960381009
 31
0.0
  0
LINE
  5
8345
  8
0
 10
55.82185095648171
 20
248.2411315128205
 30
0.0
 11
55.82185095648171
 21
246.2411315128205
 31
0.0
  0
LINE
  5
8346
  8
0
 10
48.82185095648171
 20
248.2411315128205
 30
0.0
 11
48.82185095648171
 21
246.2411315128205
 31
0.0
  0
ARC
  5
8347
  8
0
 10
49.82185095648171
 20
248.2411315128205
 30
0.0
 40
1.0
 50
90.0
 51
180.0
  0
ARC
  5
8348
  8
0
 10
49.82185095648171
 20
246.2411315128205
 30
0.0
 40
1.0
 50
180.0
 51
270.0
  0
ARC
  5
8349
  8
0
 10
54.82185095648171
 20
246.2411315128205
 30
0.0
 40
1.0
 50
270.0
 51
0.0
  0
ARC
  5
834A
  8
0
 10
54.82185095648171
 20
248.2411315128205
 30
0.0
 40
1.0
 50
0.0
 51
90.0
  0
LINE
  5
834B
  8
0
 10
49.82185095648171
 20
249.2411315128205
 30
0.0
 11
54.82185095648171
 21
249.2411315128205
 31
0.0
  0
LINE
  5
834C
  8
0
 10
49.82185095648171
 20
245.2411315128205
 30
0.0
 11
54.82185095648171
 21
245.2411315128205
 31
0.0
  0
TEXT
  5
834D
  8
0
 10
42.16043779936884
 20
246.2788556934019
 30
0.0
 40
2.0
  1
OFF
 41
1.5
  0
TEXT
  5
834E
  8
0
 10
57.20728694906056
 20
246.2788556934019
 30
0.0
 40
2.0
  1
ON
 41
1.5
  0
ARC
  5
834F
  8
0
 10
69.72185159276049
 20
209.8911315128198
 30
0.0
 40
0.3500000000000227
 50
90.0
 51
270.0
  0
ARC
  5
8350
  8
0
 10
84.8218515927604
 20
209.8911315128198
 30
0.0
 40
0.3500000000000227
 50
270.0
 51
90.0
  0
LINE
  5
8351
  8
0
 10
56.52185159276129
 20
212.8911315128204
 30
0.0
 11
64.5218515927613
 21
212.8911315128204
 31
0.0
  0
ARC
  5
8352
  8
0
 10
64.5218515927613
 20
210.8911315128204
 30
0.0
 40
2.0
 50
0.0
 51
90.0
  0
ARC
  5
8353
  8
0
 10
56.52185159276129
 20
210.8911315128204
 30
0.0
 40
2.0
 50
90.0
 51
180.0
  0
ARC
  5
8354
  8
0
 10
64.5218515927613
 20
203.8911315128199
 30
0.0
 40
2.0
 50
270.0
 51
0.0
  0
LINE
  5
8355
  8
0
 10
66.5218515927613
 20
203.8911315128199
 30
0.0
 11
66.5218515927613
 21
210.8911315128204
 31
0.0
  0
LINE
  5
8356
  8
0
 10
56.52185159276129
 20
201.8911315128199
 30
0.0
 11
64.5218515927613
 21
201.8911315128199
 31
0.0
  0
ARC
  5
8357
  8
0
 10
56.52185159276129
 20
203.8911315128199
 30
0.0
 40
2.0
 50
180.0
 51
270.0
  0
LINE
  5
8358
  8
0
 10
54.52185159276129
 20
203.8911315128199
 30
0.0
 11
54.52185159276129
 21
210.8911315128204
 31
0.0
  0
TEXT
  5
8359
  8
0
 10
55.65608586510835
 20
203.1068509065065
 30
0.0
 40
1.9
  1
点検
  0
ARC
  5
835A
  8
0
 10
64.27348778648945
 20
204.4584472782429
 30
0.0
 40
0.9999999999999992
 50
233.0491207032604
 51
57.32628399712605
  0
LINE
  5
835B
  8
0
 10
63.67235766901888
 20
203.6592961149017
 30
0.0
 11
58.96522345740428
 21
207.2000531973847
 31
0.0
  0
LINE
  5
835C
  8
0
 10
59.85524330804907
 20
208.4800376268534
 30
0.0
 11
64.81334201355159
 21
205.3002058027163
 31
0.0
  0
ARC
  5
835D
  8
0
 10
57.40559221385203
 20
209.2339455195274
 30
0.0
 40
1.99079584716086
 50
1.683229077248681
 51
160.7903378653517
  0
ARC
  5
835E
  8
0
 10
60.39509753511163
 20
209.3217961513266
 30
0.0
 40
0.9999999999999992
 50
181.6832290772424
 51
237.326283997126
1001
GENIUS_GENODEF_13
1002
{
1000
HIER
1070
     0
1002
}
1002
{
1000
MANEDIT
1070
     0
1002
}
1002
{
1000
NOSEL
1070
     0
1002
}
1002
{
1000
BEHIND
1070
     0
1002
}
1002
{
1000
OTHER
1070
     0
1002
}
1002
{
1000
REACTOR
1002
}
1001
GENIUS_GENOBJ-N-FIL_13
1002
{
1000
OWNER
1000
GEN
1002
}
  0
ARC
  5
835F
  8
0
 10
57.40559221385203
 20
209.2339455195274
 30
0.0
 40
1.99079584716086
 50
219.5850668351122
 51
288.6921756231417
  0
ARC
  5
8360
  8
0
 10
58.36409333993407
 20
206.4009020340432
 30
0.0
 40
0.9999999999999992
 50
53.04912070326038
 51
108.6921756231398
1001
GENIUS_GENOBJ-N-FIL_13
1002
{
1000
OWNER
1000
GEN
1002
}
1001
GENIUS_GENODEF_13
1002
{
1000
HIER
1070
     0
1002
}
1002
{
1000
MANEDIT
1070
     0
1002
}
1002
{
1000
NOSEL
1070
     0
1002
}
1002
{
1000
BEHIND
1070
     0
1002
}
1002
{
1000
OTHER
1070
     0
1002
}
1002
{
1000
REACTOR
1002
}
  0
LINE
  5
8361
  8
0
 10
57.96653673907667
 20
209.3347510790039
 30
0.0
 11
57.58408236238364
 21
208.273158158964
 31
0.0
  0
LINE
  5
8362
  8
0
 10
57.58408236238364
 20
208.273158158964
 30
0.0
 11
55.87132696385376
 21
207.9653643247588
 31
0.0
  0
LINE
  5
8363
  8
0
 10
57.96653673907656
 20
209.3347510790045
 30
0.0
 11
57.23839749018984
 21
210.1967627450289
 31
0.0
  0
LINE
  5
8364
  8
0
 10
57.23839749018984
 20
210.1967627450289
 30
0.0
 11
55.52564209165971
 21
209.8889689108233
 31
0.0
  0
CIRCLE
  5
8365
  8
0
 10
64.27348778648945
 20
204.4584472782429
 30
0.0
 40
0.4999999999999996
  0
LINE
  5
8366
  8
0
 10
42.53436198722645
 20
212.57226651282
 30
0.0
 11
44.87114348722648
 21
212.57226651282
 31
0.0
  0
LINE
  5
8367
  8
0
 10
44.87114348722648
 20
212.57226651282
 30
0.0
 11
44.87114348722648
 21
212.9062504128199
 31
0.0
  0
LINE
  5
8368
  8
0
 10
44.87114348722648
 20
212.9062504128199
 30
0.0
 11
42.53436198722645
 21
212.9062504128199
 31
0.0
  0
LINE
  5
8369
  8
0
 10
42.53436198722645
 20
212.9062504128199
 30
0.0
 11
42.53436198722645
 21
212.57226651282
 31
0.0
  0
LINE
  5
836A
  8
0
 10
45.53873698722643
 20
212.57226651282
 30
0.0
 11
46.53995148722643
 21
212.57226651282
 31
0.0
  0
LINE
  5
836B
  8
0
 10
46.53995148722643
 20
212.57226651282
 30
0.0
 11
46.53995148722643
 21
212.9062504128199
 31
0.0
  0
LINE
  5
836C
  8
0
 10
46.53995148722643
 20
212.9062504128199
 30
0.0
 11
45.53873698722643
 21
212.9062504128199
 31
0.0
  0
LINE
  5
836D
  8
0
 10
45.53873698722643
 20
212.9062504128199
 30
0.0
 11
45.53873698722643
 21
212.57226651282
 31
0.0
  0
LINE
  5
836E
  8
0
 10
47.20750698722645
 20
212.57226651282
 30
0.0
 11
47.54149088722647
 21
212.57226651282
 31
0.0
  0
LINE
  5
836F
  8
0
 10
47.54149088722647
 20
212.57226651282
 30
0.0
 11
47.54149088722647
 21
212.9062504128199
 31
0.0
  0
LINE
  5
8370
  8
0
 10
47.54149088722647
 20
212.9062504128199
 30
0.0
 11
47.20750698722645
 21
212.9062504128199
 31
0.0
  0
LINE
  5
8371
  8
0
 10
47.20750698722645
 20
212.9062504128199
 30
0.0
 11
47.20750698722645
 21
212.57226651282
 31
0.0
  0
LINE
  5
8372
  8
0
 10
47.87507198722645
 20
212.57226651282
 30
0.0
 11
48.20905683722646
 21
212.57226651282
 31
0.0
  0
LINE
  5
8373
  8
0
 10
48.20905683722646
 20
212.57226651282
 30
0.0
 11
48.20905683722646
 21
212.9062504128199
 31
0.0
  0
LINE
  5
8374
  8
0
 10
48.20905683722646
 20
212.9062504128199
 30
0.0
 11
47.87507198722645
 21
212.9062504128199
 31
0.0
  0
LINE
  5
8375
  8
0
 10
47.87507198722645
 20
212.9062504128199
 30
0.0
 11
47.87507198722645
 21
212.57226651282
 31
0.0
  0
LINE
  5
8376
  8
0
 10
48.54273198722646
 20
212.57226651282
 30
0.0
 11
48.87671683722644
 21
212.57226651282
 31
0.0
  0
LINE
  5
8377
  8
0
 10
48.87671683722644
 20
212.57226651282
 30
0.0
 11
48.87671683722644
 21
212.9062504128199
 31
0.0
  0
LINE
  5
8378
  8
0
 10
48.87671683722644
 20
212.9062504128199
 30
0.0
 11
48.54273198722646
 21
212.9062504128199
 31
0.0
  0
LINE
  5
8379
  8
0
 10
48.54273198722646
 20
212.9062504128199
 30
0.0
 11
48.54273198722646
 21
212.57226651282
 31
0.0
  0
LINE
  5
837A
  8
0
 10
49.87748198722645
 20
212.57226651282
 30
0.0
 11
50.21146588722647
 21
212.57226651282
 31
0.0
  0
LINE
  5
837B
  8
0
 10
50.21146588722647
 20
212.57226651282
 30
0.0
 11
50.21146588722647
 21
212.9062504128199
 31
0.0
  0
LINE
  5
837C
  8
0
 10
50.21146588722647
 20
212.9062504128199
 30
0.0
 11
49.87748198722645
 21
212.9062504128199
 31
0.0
  0
LINE
  5
837D
  8
0
 10
49.87748198722645
 20
212.9062504128199
 30
0.0
 11
49.87748198722645
 21
212.57226651282
 31
0.0
  0
LINE
  5
837F
  8
0
 10
51.54707088722645
 20
212.57226651282
 30
0.0
 11
53.21549698722646
 21
212.57226651282
 31
0.0
  0
LINE
  5
8380
  8
0
 10
53.54986848722646
 20
210.56909651282
 30
0.0
 11
53.54986848722646
 21
212.9062504128199
 31
0.0
  0
LINE
  5
8381
  8
0
 10
53.54986848722646
 20
212.9062504128199
 30
0.0
 11
51.21308698722646
 21
212.9062504128199
 31
0.0
  0
LINE
  5
8382
  8
0
 10
51.21308698722646
 20
212.9062504128199
 30
0.0
 11
51.21308698722646
 21
210.56909651282
 31
0.0
  0
LINE
  5
8383
  8
0
 10
42.53436198722645
 20
212.2383415128199
 30
0.0
 11
42.86871733722646
 21
212.2383415128199
 31
0.0
  0
LINE
  5
8384
  8
0
 10
42.86871733722646
 20
212.2383415128199
 30
0.0
 11
42.86871733722646
 21
212.5723263628199
 31
0.0
  0
LINE
  5
8385
  8
0
 10
42.86871733722646
 20
212.5723263628199
 30
0.0
 11
42.53436198722645
 21
212.5723263628199
 31
0.0
  0
LINE
  5
8386
  8
0
 10
42.53436198722645
 20
212.5723263628199
 30
0.0
 11
42.53436198722645
 21
212.2383415128199
 31
0.0
  0
LINE
  5
8387
  8
0
 10
44.53743698722644
 20
212.2383415128199
 30
0.0
 11
44.87142088722644
 21
212.2383415128199
 31
0.0
  0
LINE
  5
8388
  8
0
 10
44.87142088722644
 20
212.2383415128199
 30
0.0
 11
44.87142088722644
 21
212.5723263628199
 31
0.0
  0
LINE
  5
8389
  8
0
 10
44.87142088722644
 20
212.5723263628199
 30
0.0
 11
44.53743698722644
 21
212.5723263628199
 31
0.0
  0
LINE
  5
838A
  8
0
 10
44.53743698722644
 20
212.5723263628199
 30
0.0
 11
44.53743698722644
 21
212.2383415128199
 31
0.0
  0
LINE
  5
838B
  8
0
 10
45.20509698722645
 20
212.2383415128199
 30
0.0
 11
46.20668198722646
 21
212.2383415128199
 31
0.0
  0
LINE
  5
838C
  8
0
 10
46.20668198722646
 20
212.2383415128199
 30
0.0
 11
46.20668198722646
 21
212.5723263628199
 31
0.0
  0
LINE
  5
838D
  8
0
 10
46.20668198722646
 20
212.5723263628199
 30
0.0
 11
45.20509698722645
 21
212.5723263628199
 31
0.0
  0
LINE
  5
838E
  8
0
 10
45.20509698722645
 20
212.5723263628199
 30
0.0
 11
45.20509698722645
 21
212.2383415128199
 31
0.0
  0
LINE
  5
838F
  8
0
 10
46.54032198722646
 20
212.2383415128199
 30
0.0
 11
47.54153648722647
 21
212.2383415128199
 31
0.0
  0
LINE
  5
8390
  8
0
 10
47.54153648722647
 20
212.2383415128199
 30
0.0
 11
47.54153648722647
 21
212.5723263628199
 31
0.0
  0
LINE
  5
8391
  8
0
 10
47.54153648722647
 20
212.5723263628199
 30
0.0
 11
46.54032198722646
 21
212.5723263628199
 31
0.0
  0
LINE
  5
8392
  8
0
 10
46.54032198722646
 20
212.5723263628199
 30
0.0
 11
46.54032198722646
 21
212.2383415128199
 31
0.0
  0
LINE
  5
8393
  8
0
 10
48.20909198722646
 20
212.2383415128199
 30
0.0
 11
48.54307588722645
 21
212.2383415128199
 31
0.0
  0
LINE
  5
8394
  8
0
 10
48.54307588722645
 20
212.2383415128199
 30
0.0
 11
48.54307588722645
 21
212.5723263628199
 31
0.0
  0
LINE
  5
8395
  8
0
 10
48.54307588722645
 20
212.5723263628199
 30
0.0
 11
48.20909198722646
 21
212.5723263628199
 31
0.0
  0
LINE
  5
8396
  8
0
 10
48.20909198722646
 20
212.5723263628199
 30
0.0
 11
48.20909198722646
 21
212.2383415128199
 31
0.0
  0
LINE
  5
8397
  8
0
 10
49.20991698722645
 20
212.2383415128199
 30
0.0
 11
49.54427233722646
 21
212.2383415128199
 31
0.0
  0
LINE
  5
8398
  8
0
 10
49.54427233722646
 20
212.2383415128199
 30
0.0
 11
49.54427233722646
 21
212.5723263628199
 31
0.0
  0
LINE
  5
8399
  8
0
 10
49.54427233722646
 20
212.5723263628199
 30
0.0
 11
49.20991698722645
 21
212.5723263628199
 31
0.0
  0
LINE
  5
839A
  8
0
 10
49.20991698722645
 20
212.5723263628199
 30
0.0
 11
49.20991698722645
 21
212.2383415128199
 31
0.0
  0
LINE
  5
839B
  8
0
 10
49.87748198722645
 20
212.2383415128199
 30
0.0
 11
50.21146588722647
 21
212.2383415128199
 31
0.0
  0
LINE
  5
839C
  8
0
 10
50.21146588722647
 20
212.2383415128199
 30
0.0
 11
50.21146588722647
 21
212.5723263628199
 31
0.0
  0
LINE
  5
839D
  8
0
 10
50.21146588722647
 20
212.5723263628199
 30
0.0
 11
49.87748198722645
 21
212.5723263628199
 31
0.0
  0
LINE
  5
839E
  8
0
 10
49.87748198722645
 20
212.5723263628199
 30
0.0
 11
49.87748198722645
 21
212.2383415128199
 31
0.0
  0
LINE
  5
839F
  8
0
 10
50.54590198722644
 20
212.2383415128199
 30
0.0
 11
50.87988683722645
 21
212.2383415128199
 31
0.0
  0
LINE
  5
83A1
  8
0
 10
50.87988683722645
 20
212.2382968628199
 30
0.0
 11
50.87988683722645
 21
212.5723263628199
 31
0.0
  0
LINE
  5
83A2
  8
0
 10
50.87988683722645
 20
212.5723263628199
 30
0.0
 11
50.54590198722644
 21
212.5723263628199
 31
0.0
  0
LINE
  5
83A3
  8
0
 10
50.54590198722644
 20
212.5723263628199
 30
0.0
 11
50.54590198722644
 21
212.2382968628199
 31
0.0
  0
LINE
  5
83A4
  8
0
 10
42.53436198722645
 20
211.9039415128199
 30
0.0
 11
42.86871733722646
 21
211.9039415128199
 31
0.0
  0
LINE
  5
83A5
  8
0
 10
42.86871733722646
 20
211.9039415128199
 30
0.0
 11
42.86871733722646
 21
212.2382968628199
 31
0.0
  0
LINE
  5
83A6
  8
0
 10
42.86871733722646
 20
212.2382968628199
 30
0.0
 11
42.53436198722645
 21
212.2382968628199
 31
0.0
  0
LINE
  5
83A7
  8
0
 10
42.53436198722645
 20
212.2382968628199
 30
0.0
 11
42.53436198722645
 21
211.9039415128199
 31
0.0
  0
LINE
  5
83A8
  8
0
 10
43.20192698722644
 20
211.9039415128199
 30
0.0
 11
44.20351198722645
 21
211.9039415128199
 31
0.0
  0
LINE
  5
83A9
  8
0
 10
44.20351198722645
 20
211.9039415128199
 30
0.0
 11
44.20351198722645
 21
212.2382968628199
 31
0.0
  0
LINE
  5
83AA
  8
0
 10
44.20351198722645
 20
212.2382968628199
 30
0.0
 11
43.20192698722644
 21
212.2382968628199
 31
0.0
  0
LINE
  5
83AB
  8
0
 10
43.20192698722644
 20
212.2382968628199
 30
0.0
 11
43.20192698722644
 21
211.9039415128199
 31
0.0
  0
LINE
  5
83AC
  8
0
 10
44.53743698722644
 20
211.9039415128199
 30
0.0
 11
44.87142088722644
 21
211.9039415128199
 31
0.0
  0
LINE
  5
83AD
  8
0
 10
44.87142088722644
 20
211.9039415128199
 30
0.0
 11
44.87142088722644
 21
212.2382968628199
 31
0.0
  0
LINE
  5
83AE
  8
0
 10
44.87142088722644
 20
212.2382968628199
 30
0.0
 11
44.53743698722644
 21
212.2382968628199
 31
0.0
  0
LINE
  5
83AF
  8
0
 10
44.53743698722644
 20
212.2382968628199
 30
0.0
 11
44.53743698722644
 21
211.9039415128199
 31
0.0
  0
LINE
  5
83B0
  8
0
 10
45.20509698722645
 20
211.9039415128199
 30
0.0
 11
46.20668198722646
 21
211.9039415128199
 31
0.0
  0
LINE
  5
83B1
  8
0
 10
46.20668198722646
 20
211.9039415128199
 30
0.0
 11
46.20668198722646
 21
212.2382968628199
 31
0.0
  0
LINE
  5
83B2
  8
0
 10
46.20668198722646
 20
212.2382968628199
 30
0.0
 11
45.20509698722645
 21
212.2382968628199
 31
0.0
  0
LINE
  5
83B3
  8
0
 10
45.20509698722645
 20
212.2382968628199
 30
0.0
 11
45.20509698722645
 21
211.9039415128199
 31
0.0
  0
LINE
  5
83B4
  8
0
 10
46.54032198722646
 20
211.9039415128199
 30
0.0
 11
47.20754878722644
 21
211.9039415128199
 31
0.0
  0
LINE
  5
83B5
  8
0
 10
47.20754878722644
 20
211.9039415128199
 30
0.0
 11
47.20754878722644
 21
212.2382968628199
 31
0.0
  0
LINE
  5
83B6
  8
0
 10
47.20754878722644
 20
212.2382968628199
 30
0.0
 11
46.54032198722646
 21
212.2382968628199
 31
0.0
  0
LINE
  5
83B7
  8
0
 10
46.54032198722646
 20
212.2382968628199
 30
0.0
 11
46.54032198722646
 21
211.9039415128199
 31
0.0
  0
LINE
  5
83B8
  8
0
 10
47.54152698722646
 20
211.9039415128199
 30
0.0
 11
47.87588233722647
 21
211.9039415128199
 31
0.0
  0
LINE
  5
83B9
  8
0
 10
47.87588233722647
 20
211.9039415128199
 30
0.0
 11
47.87588233722647
 21
212.2382968628199
 31
0.0
  0
LINE
  5
83BA
  8
0
 10
47.87588233722647
 20
212.2382968628199
 30
0.0
 11
47.54152698722646
 21
212.2382968628199
 31
0.0
  0
LINE
  5
83BB
  8
0
 10
47.54152698722646
 20
212.2382968628199
 30
0.0
 11
47.54152698722646
 21
211.9039415128199
 31
0.0
  0
LINE
  5
83BC
  8
0
 10
48.20909198722646
 20
211.9039415128199
 30
0.0
 11
49.21067698722646
 21
211.9039415128199
 31
0.0
  0
LINE
  5
83BD
  8
0
 10
49.21067698722646
 20
211.9039415128199
 30
0.0
 11
49.21067698722646
 21
212.2382968628199
 31
0.0
  0
LINE
  5
83BE
  8
0
 10
49.21067698722646
 20
212.2382968628199
 30
0.0
 11
48.20909198722646
 21
212.2382968628199
 31
0.0
  0
LINE
  5
83BF
  8
0
 10
48.20909198722646
 20
212.2382968628199
 30
0.0
 11
48.20909198722646
 21
211.9039415128199
 31
0.0
  0
LINE
  5
83C0
  8
0
 10
49.54431698722644
 20
211.9039415128199
 30
0.0
 11
49.87830183722645
 21
211.9039415128199
 31
0.0
  0
LINE
  5
83C1
  8
0
 10
49.87830183722645
 20
211.9039415128199
 30
0.0
 11
49.87830183722645
 21
212.2382968628199
 31
0.0
  0
LINE
  5
83C2
  8
0
 10
49.87830183722645
 20
212.2382968628199
 30
0.0
 11
49.54431698722644
 21
212.2382968628199
 31
0.0
  0
LINE
  5
83C3
  8
0
 10
49.54431698722644
 20
212.2382968628199
 30
0.0
 11
49.54431698722644
 21
211.9039415128199
 31
0.0
  0
LINE
  5
83C4
  8
0
 10
50.54590198722644
 20
211.9039415128199
 30
0.0
 11
50.87988683722645
 21
211.9039415128199
 31
0.0
  0
LINE
  5
83C5
  8
0
 10
50.87988683722645
 20
211.9039415128199
 30
0.0
 11
50.87988683722645
 21
212.2382968628199
 31
0.0
  0
LINE
  5
83C6
  8
0
 10
50.87988683722645
 20
212.2382968628199
 30
0.0
 11
50.54590198722644
 21
212.2382968628199
 31
0.0
  0
LINE
  5
83C7
  8
0
 10
50.54590198722644
 20
212.2382968628199
 30
0.0
 11
50.54590198722644
 21
211.9039415128199
 31
0.0
  0
LINE
  5
83C9
  8
0
 10
52.88223698722643
 20
211.23675651282
 30
0.0
 11
52.88223698722643
 21
212.2382968628199
 31
0.0
  0
LINE
  5
83CA
  8
0
 10
52.88223698722643
 20
212.2382968628199
 30
0.0
 11
51.88065198722646
 21
212.2382968628199
 31
0.0
  0
LINE
  5
83CB
  8
0
 10
51.88065198722646
 20
212.2382968628199
 30
0.0
 11
51.88065198722646
 21
211.23675651282
 31
0.0
  0
LINE
  5
83CC
  8
0
 10
42.53436198722645
 20
211.5706815128199
 30
0.0
 11
42.86871733722646
 21
211.5706815128199
 31
0.0
  0
LINE
  5
83CD
  8
0
 10
42.86871733722646
 20
211.5706815128199
 30
0.0
 11
42.86871733722646
 21
211.90466541282
 31
0.0
  0
LINE
  5
83CE
  8
0
 10
42.86871733722646
 20
211.90466541282
 30
0.0
 11
42.53436198722645
 21
211.90466541282
 31
0.0
  0
LINE
  5
83CF
  8
0
 10
42.53436198722645
 20
211.90466541282
 30
0.0
 11
42.53436198722645
 21
211.5706815128199
 31
0.0
  0
LINE
  5
83D0
  8
0
 10
43.20192698722644
 20
211.5706815128199
 30
0.0
 11
44.20351198722645
 21
211.5706815128199
 31
0.0
  0
LINE
  5
83D1
  8
0
 10
44.20351198722645
 20
211.5706815128199
 30
0.0
 11
44.20351198722645
 21
211.90466541282
 31
0.0
  0
LINE
  5
83D2
  8
0
 10
44.20351198722645
 20
211.90466541282
 30
0.0
 11
43.20192698722644
 21
211.90466541282
 31
0.0
  0
LINE
  5
83D3
  8
0
 10
43.20192698722644
 20
211.90466541282
 30
0.0
 11
43.20192698722644
 21
211.5706815128199
 31
0.0
  0
LINE
  5
83D4
  8
0
 10
44.53743698722644
 20
211.5706815128199
 30
0.0
 11
44.87142088722644
 21
211.5706815128199
 31
0.0
  0
LINE
  5
83D5
  8
0
 10
44.87142088722644
 20
211.5706815128199
 30
0.0
 11
44.87142088722644
 21
211.90466541282
 31
0.0
  0
LINE
  5
83D6
  8
0
 10
44.87142088722644
 20
211.90466541282
 30
0.0
 11
44.53743698722644
 21
211.90466541282
 31
0.0
  0
LINE
  5
83D7
  8
0
 10
44.53743698722644
 20
211.90466541282
 30
0.0
 11
44.53743698722644
 21
211.5706815128199
 31
0.0
  0
LINE
  5
83D8
  8
0
 10
45.20509698722645
 20
211.5706815128199
 30
0.0
 11
45.53908183722646
 21
211.5706815128199
 31
0.0
  0
LINE
  5
83D9
  8
0
 10
45.53908183722646
 20
211.5706815128199
 30
0.0
 11
45.53908183722646
 21
211.90466541282
 31
0.0
  0
LINE
  5
83DA
  8
0
 10
45.53908183722646
 20
211.90466541282
 30
0.0
 11
45.20509698722645
 21
211.90466541282
 31
0.0
  0
LINE
  5
83DB
  8
0
 10
45.20509698722645
 20
211.90466541282
 30
0.0
 11
45.20509698722645
 21
211.5706815128199
 31
0.0
  0
LINE
  5
83DC
  8
0
 10
48.87665698722645
 20
211.5706815128199
 30
0.0
 11
49.21064088722645
 21
211.5706815128199
 31
0.0
  0
LINE
  5
83DD
  8
0
 10
49.21064088722645
 20
211.5706815128199
 30
0.0
 11
49.21064088722645
 21
211.90466541282
 31
0.0
  0
LINE
  5
83DE
  8
0
 10
49.21064088722645
 20
211.90466541282
 30
0.0
 11
48.87665698722645
 21
211.90466541282
 31
0.0
  0
LINE
  5
83DF
  8
0
 10
48.87665698722645
 20
211.90466541282
 30
0.0
 11
48.87665698722645
 21
211.5706815128199
 31
0.0
  0
LINE
  5
83E0
  8
0
 10
49.54431698722644
 20
211.5706815128199
 30
0.0
 11
50.87914298722646
 21
211.5706815128199
 31
0.0
  0
LINE
  5
83E1
  8
0
 10
50.87914298722646
 20
211.5706815128199
 30
0.0
 11
50.87914298722646
 21
211.90466541282
 31
0.0
  0
LINE
  5
83E2
  8
0
 10
50.87914298722646
 20
211.90466541282
 30
0.0
 11
49.54431698722644
 21
211.90466541282
 31
0.0
  0
LINE
  5
83E3
  8
0
 10
49.54431698722644
 20
211.90466541282
 30
0.0
 11
49.54431698722644
 21
211.5706815128199
 31
0.0
  0
LINE
  5
83E4
  8
0
 10
42.53436198722645
 20
211.23675651282
 30
0.0
 11
42.86871733722646
 21
211.23675651282
 31
0.0
  0
LINE
  5
83E5
  8
0
 10
42.86871733722646
 20
211.23675651282
 30
0.0
 11
42.86871733722646
 21
211.5707413628199
 31
0.0
  0
LINE
  5
83E6
  8
0
 10
42.86871733722646
 20
211.5707413628199
 30
0.0
 11
42.53436198722645
 21
211.5707413628199
 31
0.0
  0
LINE
  5
83E7
  8
0
 10
42.53436198722645
 20
211.5707413628199
 30
0.0
 11
42.53436198722645
 21
211.23675651282
 31
0.0
  0
LINE
  5
83E8
  8
0
 10
43.20192698722644
 20
211.23675651282
 30
0.0
 11
44.20351198722645
 21
211.23675651282
 31
0.0
  0
LINE
  5
83E9
  8
0
 10
44.20351198722645
 20
211.23675651282
 30
0.0
 11
44.20351198722645
 21
211.5707413628199
 31
0.0
  0
LINE
  5
83EA
  8
0
 10
44.20351198722645
 20
211.5707413628199
 30
0.0
 11
43.20192698722644
 21
211.5707413628199
 31
0.0
  0
LINE
  5
83EB
  8
0
 10
43.20192698722644
 20
211.5707413628199
 30
0.0
 11
43.20192698722644
 21
211.23675651282
 31
0.0
  0
LINE
  5
83EC
  8
0
 10
44.53743698722644
 20
211.23675651282
 30
0.0
 11
44.87142088722644
 21
211.23675651282
 31
0.0
  0
LINE
  5
83ED
  8
0
 10
44.87142088722644
 20
211.23675651282
 30
0.0
 11
44.87142088722644
 21
211.5707413628199
 31
0.0
  0
LINE
  5
83EE
  8
0
 10
44.87142088722644
 20
211.5707413628199
 30
0.0
 11
44.53743698722644
 21
211.5707413628199
 31
0.0
  0
LINE
  5
83EF
  8
0
 10
44.53743698722644
 20
211.5707413628199
 30
0.0
 11
44.53743698722644
 21
211.23675651282
 31
0.0
  0
LINE
  5
83F0
  8
0
 10
45.53873698722643
 20
211.23675651282
 30
0.0
 11
45.87272183722644
 21
211.23675651282
 31
0.0
  0
LINE
  5
83F1
  8
0
 10
45.87272183722644
 20
211.23675651282
 30
0.0
 11
45.87272183722644
 21
211.5707413628199
 31
0.0
  0
LINE
  5
83F2
  8
0
 10
45.87272183722644
 20
211.5707413628199
 30
0.0
 11
45.53873698722643
 21
211.5707413628199
 31
0.0
  0
LINE
  5
83F3
  8
0
 10
45.53873698722643
 20
211.5707413628199
 30
0.0
 11
45.53873698722643
 21
211.23675651282
 31
0.0
  0
LINE
  5
83F4
  8
0
 10
46.20592198722645
 20
211.23675651282
 30
0.0
 11
47.20750698722645
 21
211.23675651282
 31
0.0
  0
LINE
  5
83F5
  8
0
 10
47.20750698722645
 20
211.23675651282
 30
0.0
 11
47.20750698722645
 21
211.5707413628199
 31
0.0
  0
LINE
  5
83F6
  8
0
 10
47.20750698722645
 20
211.5707413628199
 30
0.0
 11
46.20592198722645
 21
211.5707413628199
 31
0.0
  0
LINE
  5
83F7
  8
0
 10
46.20592198722645
 20
211.5707413628199
 30
0.0
 11
46.20592198722645
 21
211.23675651282
 31
0.0
  0
LINE
  5
83F8
  8
0
 10
47.54152698722646
 20
211.23675651282
 30
0.0
 11
47.87588233722647
 21
211.23675651282
 31
0.0
  0
LINE
  5
83F9
  8
0
 10
47.87588233722647
 20
211.23675651282
 30
0.0
 11
47.87588233722647
 21
211.5707413628199
 31
0.0
  0
LINE
  5
83FA
  8
0
 10
47.87588233722647
 20
211.5707413628199
 30
0.0
 11
47.54152698722646
 21
211.5707413628199
 31
0.0
  0
LINE
  5
83FB
  8
0
 10
47.54152698722646
 20
211.5707413628199
 30
0.0
 11
47.54152698722646
 21
211.23675651282
 31
0.0
  0
LINE
  5
83FC
  8
0
 10
48.20909198722646
 20
211.23675651282
 30
0.0
 11
48.87668928722644
 21
211.23675651282
 31
0.0
  0
LINE
  5
83FD
  8
0
 10
48.87668928722644
 20
211.23675651282
 30
0.0
 11
48.87668928722644
 21
211.5707413628199
 31
0.0
  0
LINE
  5
83FE
  8
0
 10
48.87668928722644
 20
211.5707413628199
 30
0.0
 11
48.20909198722646
 21
211.5707413628199
 31
0.0
  0
LINE
  5
83FF
  8
0
 10
48.20909198722646
 20
211.5707413628199
 30
0.0
 11
48.20909198722646
 21
211.23675651282
 31
0.0
  0
LINE
  5
8400
  8
0
 10
50.21150198722646
 20
211.23675651282
 30
0.0
 11
50.54585733722647
 21
211.23675651282
 31
0.0
  0
LINE
  5
8401
  8
0
 10
50.54585733722647
 20
211.23675651282
 30
0.0
 11
50.54585733722647
 21
211.5707413628199
 31
0.0
  0
LINE
  5
8402
  8
0
 10
50.54585733722647
 20
211.5707413628199
 30
0.0
 11
50.21150198722646
 21
211.5707413628199
 31
0.0
  0
LINE
  5
8403
  8
0
 10
50.21150198722646
 20
211.5707413628199
 30
0.0
 11
50.21150198722646
 21
211.23675651282
 31
0.0
  0
LINE
  5
8404
  8
0
 10
51.88065198722646
 20
211.23675651282
 30
0.0
 11
52.88223698722643
 21
211.23675651282
 31
0.0
  0
LINE
  5
8405
  8
0
 10
42.53436198722645
 20
210.90311651282
 30
0.0
 11
42.86871733722646
 21
210.90311651282
 31
0.0
  0
LINE
  5
8406
  8
0
 10
42.86871733722646
 20
210.90311651282
 30
0.0
 11
42.86871733722646
 21
211.2371013628199
 31
0.0
  0
LINE
  5
8407
  8
0
 10
42.86871733722646
 20
211.2371013628199
 30
0.0
 11
42.53436198722645
 21
211.2371013628199
 31
0.0
  0
LINE
  5
8408
  8
0
 10
42.53436198722645
 20
211.2371013628199
 30
0.0
 11
42.53436198722645
 21
210.90311651282
 31
0.0
  0
LINE
  5
8409
  8
0
 10
44.53743698722644
 20
210.90311651282
 30
0.0
 11
44.87142088722644
 21
210.90311651282
 31
0.0
  0
LINE
  5
840A
  8
0
 10
44.87142088722644
 20
210.90311651282
 30
0.0
 11
44.87142088722644
 21
211.2371013628199
 31
0.0
  0
LINE
  5
840B
  8
0
 10
44.87142088722644
 20
211.2371013628199
 30
0.0
 11
44.53743698722644
 21
211.2371013628199
 31
0.0
  0
LINE
  5
840C
  8
0
 10
44.53743698722644
 20
211.2371013628199
 30
0.0
 11
44.53743698722644
 21
210.90311651282
 31
0.0
  0
LINE
  5
840D
  8
0
 10
46.87348698722644
 20
210.90311651282
 30
0.0
 11
47.54108523722647
 21
210.90311651282
 31
0.0
  0
LINE
  5
840E
  8
0
 10
47.54108523722647
 20
210.90311651282
 30
0.0
 11
47.54108523722647
 21
211.2371013628199
 31
0.0
  0
LINE
  5
840F
  8
0
 10
47.54108523722647
 20
211.2371013628199
 30
0.0
 11
46.87348698722644
 21
211.2371013628199
 31
0.0
  0
LINE
  5
8410
  8
0
 10
46.87348698722644
 20
211.2371013628199
 30
0.0
 11
46.87348698722644
 21
210.90311651282
 31
0.0
  0
LINE
  5
8411
  8
0
 10
47.87507198722645
 20
210.90311651282
 30
0.0
 11
48.20905683722646
 21
210.90311651282
 31
0.0
  0
LINE
  5
8412
  8
0
 10
48.20905683722646
 20
210.90311651282
 30
0.0
 11
48.20905683722646
 21
211.2371013628199
 31
0.0
  0
LINE
  5
8413
  8
0
 10
48.20905683722646
 20
211.2371013628199
 30
0.0
 11
47.87507198722645
 21
211.2371013628199
 31
0.0
  0
LINE
  5
8414
  8
0
 10
47.87507198722645
 20
211.2371013628199
 30
0.0
 11
47.87507198722645
 21
210.90311651282
 31
0.0
  0
LINE
  5
8415
  8
0
 10
48.54273198722646
 20
210.90311651282
 30
0.0
 11
48.87671683722644
 21
210.90311651282
 31
0.0
  0
LINE
  5
8416
  8
0
 10
48.87671683722644
 20
210.90311651282
 30
0.0
 11
48.87671683722644
 21
211.2371013628199
 31
0.0
  0
LINE
  5
8417
  8
0
 10
48.87671683722644
 20
211.2371013628199
 30
0.0
 11
48.54273198722646
 21
211.2371013628199
 31
0.0
  0
LINE
  5
8418
  8
0
 10
48.54273198722646
 20
211.2371013628199
 30
0.0
 11
48.54273198722646
 21
210.90311651282
 31
0.0
  0
LINE
  5
8419
  8
0
 10
49.20991698722645
 20
210.90311651282
 30
0.0
 11
49.54427233722646
 21
210.90311651282
 31
0.0
  0
LINE
  5
841A
  8
0
 10
49.54427233722646
 20
210.90311651282
 30
0.0
 11
49.54427233722646
 21
211.2371013628199
 31
0.0
  0
LINE
  5
841B
  8
0
 10
49.54427233722646
 20
211.2371013628199
 30
0.0
 11
49.20991698722645
 21
211.2371013628199
 31
0.0
  0
LINE
  5
841C
  8
0
 10
49.20991698722645
 20
211.2371013628199
 30
0.0
 11
49.20991698722645
 21
210.90311651282
 31
0.0
  0
LINE
  5
841D
  8
0
 10
51.54707088722645
 20
210.9030804128199
 30
0.0
 11
51.54707088722645
 21
212.57226651282
 31
0.0
  0
LINE
  5
841E
  8
0
 10
53.21549698722646
 20
212.57226651282
 30
0.0
 11
53.21549698722646
 21
210.9030804128199
 31
0.0
  0
LINE
  5
841F
  8
0
 10
42.53436198722645
 20
210.56909651282
 30
0.0
 11
44.87114348722648
 21
210.56909651282
 31
0.0
  0
LINE
  5
8420
  8
0
 10
44.87114348722648
 20
210.56909651282
 30
0.0
 11
44.87114348722648
 21
210.9030804128199
 31
0.0
  0
LINE
  5
8421
  8
0
 10
44.87114348722648
 20
210.9030804128199
 30
0.0
 11
42.53436198722645
 21
210.9030804128199
 31
0.0
  0
LINE
  5
8422
  8
0
 10
42.53436198722645
 20
210.9030804128199
 30
0.0
 11
42.53436198722645
 21
210.56909651282
 31
0.0
  0
LINE
  5
8423
  8
0
 10
45.20509698722645
 20
210.56909651282
 30
0.0
 11
45.53908183722646
 21
210.56909651282
 31
0.0
  0
LINE
  5
8424
  8
0
 10
45.53908183722646
 20
210.56909651282
 30
0.0
 11
45.53908183722646
 21
210.9030804128199
 31
0.0
  0
LINE
  5
8425
  8
0
 10
45.53908183722646
 20
210.9030804128199
 30
0.0
 11
45.20509698722645
 21
210.9030804128199
 31
0.0
  0
LINE
  5
8426
  8
0
 10
45.20509698722645
 20
210.9030804128199
 30
0.0
 11
45.20509698722645
 21
210.56909651282
 31
0.0
  0
LINE
  5
8427
  8
0
 10
45.87266198722645
 20
210.56909651282
 30
0.0
 11
46.20664588722647
 21
210.56909651282
 31
0.0
  0
LINE
  5
8428
  8
0
 10
46.20664588722647
 20
210.56909651282
 30
0.0
 11
46.20664588722647
 21
210.9030804128199
 31
0.0
  0
LINE
  5
8429
  8
0
 10
46.20664588722647
 20
210.9030804128199
 30
0.0
 11
45.87266198722645
 21
210.9030804128199
 31
0.0
  0
LINE
  5
842A
  8
0
 10
45.87266198722645
 20
210.9030804128199
 30
0.0
 11
45.87266198722645
 21
210.56909651282
 31
0.0
  0
LINE
  5
842B
  8
0
 10
46.54032198722646
 20
210.56909651282
 30
0.0
 11
46.87430588722646
 21
210.56909651282
 31
0.0
  0
LINE
  5
842C
  8
0
 10
46.87430588722646
 20
210.56909651282
 30
0.0
 11
46.87430588722646
 21
210.9030804128199
 31
0.0
  0
LINE
  5
842D
  8
0
 10
46.87430588722646
 20
210.9030804128199
 30
0.0
 11
46.54032198722646
 21
210.9030804128199
 31
0.0
  0
LINE
  5
842E
  8
0
 10
46.54032198722646
 20
210.9030804128199
 30
0.0
 11
46.54032198722646
 21
210.56909651282
 31
0.0
  0
LINE
  5
842F
  8
0
 10
47.20750698722645
 20
210.56909651282
 30
0.0
 11
47.54149088722647
 21
210.56909651282
 31
0.0
  0
LINE
  5
8430
  8
0
 10
47.54149088722647
 20
210.56909651282
 30
0.0
 11
47.54149088722647
 21
210.9030804128199
 31
0.0
  0
LINE
  5
8431
  8
0
 10
47.54149088722647
 20
210.9030804128199
 30
0.0
 11
47.20750698722645
 21
210.9030804128199
 31
0.0
  0
LINE
  5
8432
  8
0
 10
47.20750698722645
 20
210.9030804128199
 30
0.0
 11
47.20750698722645
 21
210.56909651282
 31
0.0
  0
LINE
  5
8433
  8
0
 10
47.87507198722645
 20
210.56909651282
 30
0.0
 11
48.20905683722646
 21
210.56909651282
 31
0.0
  0
LINE
  5
8434
  8
0
 10
48.20905683722646
 20
210.56909651282
 30
0.0
 11
48.20905683722646
 21
210.9030804128199
 31
0.0
  0
LINE
  5
8435
  8
0
 10
48.20905683722646
 20
210.9030804128199
 30
0.0
 11
47.87507198722645
 21
210.9030804128199
 31
0.0
  0
LINE
  5
8436
  8
0
 10
47.87507198722645
 20
210.9030804128199
 30
0.0
 11
47.87507198722645
 21
210.56909651282
 31
0.0
  0
LINE
  5
8437
  8
0
 10
48.54273198722646
 20
210.56909651282
 30
0.0
 11
48.87671683722644
 21
210.56909651282
 31
0.0
  0
LINE
  5
8438
  8
0
 10
48.87671683722644
 20
210.56909651282
 30
0.0
 11
48.87671683722644
 21
210.9030804128199
 31
0.0
  0
LINE
  5
8439
  8
0
 10
48.87671683722644
 20
210.9030804128199
 30
0.0
 11
48.54273198722646
 21
210.9030804128199
 31
0.0
  0
LINE
  5
843A
  8
0
 10
48.54273198722646
 20
210.9030804128199
 30
0.0
 11
48.54273198722646
 21
210.56909651282
 31
0.0
  0
LINE
  5
843B
  8
0
 10
49.20991698722645
 20
210.56909651282
 30
0.0
 11
49.54427233722646
 21
210.56909651282
 31
0.0
  0
LINE
  5
843C
  8
0
 10
49.54427233722646
 20
210.56909651282
 30
0.0
 11
49.54427233722646
 21
210.9030804128199
 31
0.0
  0
LINE
  5
843D
  8
0
 10
49.54427233722646
 20
210.9030804128199
 30
0.0
 11
49.20991698722645
 21
210.9030804128199
 31
0.0
  0
LINE
  5
843E
  8
0
 10
49.20991698722645
 20
210.9030804128199
 30
0.0
 11
49.20991698722645
 21
210.56909651282
 31
0.0
  0
LINE
  5
843F
  8
0
 10
49.87748198722645
 20
210.56909651282
 30
0.0
 11
50.21146588722647
 21
210.56909651282
 31
0.0
  0
LINE
  5
8440
  8
0
 10
50.21146588722647
 20
210.56909651282
 30
0.0
 11
50.21146588722647
 21
210.9030804128199
 31
0.0
  0
LINE
  5
8441
  8
0
 10
50.21146588722647
 20
210.9030804128199
 30
0.0
 11
49.87748198722645
 21
210.9030804128199
 31
0.0
  0
LINE
  5
8442
  8
0
 10
49.87748198722645
 20
210.9030804128199
 30
0.0
 11
49.87748198722645
 21
210.56909651282
 31
0.0
  0
LINE
  5
8443
  8
0
 10
50.54590198722644
 20
210.56909651282
 30
0.0
 11
50.87988683722645
 21
210.56909651282
 31
0.0
  0
LINE
  5
8444
  8
0
 10
50.87988683722645
 20
210.56909651282
 30
0.0
 11
50.87988683722645
 21
210.9030804128199
 31
0.0
  0
LINE
  5
8445
  8
0
 10
50.87988683722645
 20
210.9030804128199
 30
0.0
 11
50.54590198722644
 21
210.9030804128199
 31
0.0
  0
LINE
  5
8446
  8
0
 10
50.54590198722644
 20
210.9030804128199
 30
0.0
 11
50.54590198722644
 21
210.56909651282
 31
0.0
  0
LINE
  5
8447
  8
0
 10
51.21308698722646
 20
210.56909651282
 30
0.0
 11
53.54986848722646
 21
210.56909651282
 31
0.0
  0
LINE
  5
8448
  8
0
 10
53.21549698722646
 20
210.9030804128199
 30
0.0
 11
51.54707088722645
 21
210.9030804128199
 31
0.0
  0
LINE
  5
8449
  8
0
 10
45.20509698722645
 20
210.2359315128199
 30
0.0
 11
45.53908183722646
 21
210.2359315128199
 31
0.0
  0
LINE
  5
844A
  8
0
 10
45.53908183722646
 20
210.2359315128199
 30
0.0
 11
45.53908183722646
 21
210.5699154128199
 31
0.0
  0
LINE
  5
844B
  8
0
 10
45.53908183722646
 20
210.5699154128199
 30
0.0
 11
45.20509698722645
 21
210.5699154128199
 31
0.0
  0
LINE
  5
844C
  8
0
 10
45.20509698722645
 20
210.5699154128199
 30
0.0
 11
45.20509698722645
 21
210.2359315128199
 31
0.0
  0
LINE
  5
844D
  8
0
 10
46.54032198722646
 20
210.2359315128199
 30
0.0
 11
46.87430588722646
 21
210.2359315128199
 31
0.0
  0
LINE
  5
844E
  8
0
 10
46.87430588722646
 20
210.2359315128199
 30
0.0
 11
46.87430588722646
 21
210.5699154128199
 31
0.0
  0
LINE
  5
844F
  8
0
 10
46.87430588722646
 20
210.5699154128199
 30
0.0
 11
46.54032198722646
 21
210.5699154128199
 31
0.0
  0
LINE
  5
8450
  8
0
 10
46.54032198722646
 20
210.5699154128199
 30
0.0
 11
46.54032198722646
 21
210.2359315128199
 31
0.0
  0
LINE
  5
8451
  8
0
 10
47.20750698722645
 20
210.2359315128199
 30
0.0
 11
47.54149088722647
 21
210.2359315128199
 31
0.0
  0
LINE
  5
8452
  8
0
 10
47.54149088722647
 20
210.2359315128199
 30
0.0
 11
47.54149088722647
 21
210.5699154128199
 31
0.0
  0
LINE
  5
8453
  8
0
 10
47.54149088722647
 20
210.5699154128199
 30
0.0
 11
47.20750698722645
 21
210.5699154128199
 31
0.0
  0
LINE
  5
8454
  8
0
 10
47.20750698722645
 20
210.5699154128199
 30
0.0
 11
47.20750698722645
 21
210.2359315128199
 31
0.0
  0
LINE
  5
8455
  8
0
 10
49.87748198722645
 20
210.2359315128199
 30
0.0
 11
50.21146588722647
 21
210.2359315128199
 31
0.0
  0
LINE
  5
8456
  8
0
 10
50.21146588722647
 20
210.2359315128199
 30
0.0
 11
50.21146588722647
 21
210.5699154128199
 31
0.0
  0
LINE
  5
8457
  8
0
 10
50.21146588722647
 20
210.5699154128199
 30
0.0
 11
49.87748198722645
 21
210.5699154128199
 31
0.0
  0
LINE
  5
8458
  8
0
 10
49.87748198722645
 20
210.5699154128199
 30
0.0
 11
49.87748198722645
 21
210.2359315128199
 31
0.0
  0
LINE
  5
8459
  8
0
 10
50.54590198722644
 20
210.2359315128199
 30
0.0
 11
50.87988683722645
 21
210.2359315128199
 31
0.0
  0
LINE
  5
845A
  8
0
 10
50.87988683722645
 20
210.2359315128199
 30
0.0
 11
50.87988683722645
 21
210.5699154128199
 31
0.0
  0
LINE
  5
845B
  8
0
 10
50.87988683722645
 20
210.5699154128199
 30
0.0
 11
50.54590198722644
 21
210.5699154128199
 31
0.0
  0
LINE
  5
845C
  8
0
 10
50.54590198722644
 20
210.5699154128199
 30
0.0
 11
50.54590198722644
 21
210.2359315128199
 31
0.0
  0
LINE
  5
845D
  8
0
 10
42.53436198722645
 20
209.9015315128199
 30
0.0
 11
42.86871733722646
 21
209.9015315128199
 31
0.0
  0
LINE
  5
845E
  8
0
 10
42.86871733722646
 20
209.9015315128199
 30
0.0
 11
42.86871733722646
 21
210.2358868628199
 31
0.0
  0
LINE
  5
845F
  8
0
 10
42.86871733722646
 20
210.2358868628199
 30
0.0
 11
42.53436198722645
 21
210.2358868628199
 31
0.0
  0
LINE
  5
8460
  8
0
 10
42.53436198722645
 20
210.2358868628199
 30
0.0
 11
42.53436198722645
 21
209.9015315128199
 31
0.0
  0
LINE
  5
8461
  8
0
 10
44.53743698722644
 20
209.9015315128199
 30
0.0
 11
44.87142088722644
 21
209.9015315128199
 31
0.0
  0
LINE
  5
8462
  8
0
 10
44.87142088722644
 20
209.9015315128199
 30
0.0
 11
44.87142088722644
 21
210.2358868628199
 31
0.0
  0
LINE
  5
8463
  8
0
 10
44.87142088722644
 20
210.2358868628199
 30
0.0
 11
44.53743698722644
 21
210.2358868628199
 31
0.0
  0
LINE
  5
8464
  8
0
 10
44.53743698722644
 20
210.2358868628199
 30
0.0
 11
44.53743698722644
 21
209.9015315128199
 31
0.0
  0
LINE
  5
8465
  8
0
 10
45.20509698722645
 20
209.9015315128199
 30
0.0
 11
46.20668198722646
 21
209.9015315128199
 31
0.0
  0
LINE
  5
8466
  8
0
 10
46.20668198722646
 20
209.9015315128199
 30
0.0
 11
46.20668198722646
 21
210.2358868628199
 31
0.0
  0
LINE
  5
8467
  8
0
 10
46.20668198722646
 20
210.2358868628199
 30
0.0
 11
45.20509698722645
 21
210.2358868628199
 31
0.0
  0
LINE
  5
8468
  8
0
 10
45.20509698722645
 20
210.2358868628199
 30
0.0
 11
45.20509698722645
 21
209.9015315128199
 31
0.0
  0
LINE
  5
8469
  8
0
 10
46.87348698722644
 20
209.9015315128199
 30
0.0
 11
48.54266548722646
 21
209.9015315128199
 31
0.0
  0
LINE
  5
846A
  8
0
 10
48.54266548722646
 20
209.9015315128199
 30
0.0
 11
48.54266548722646
 21
210.2358868628199
 31
0.0
  0
LINE
  5
846B
  8
0
 10
48.54266548722646
 20
210.2358868628199
 30
0.0
 11
46.87348698722644
 21
210.2358868628199
 31
0.0
  0
LINE
  5
846C
  8
0
 10
46.87348698722644
 20
210.2358868628199
 30
0.0
 11
46.87348698722644
 21
209.9015315128199
 31
0.0
  0
LINE
  5
846D
  8
0
 10
49.87748198722645
 20
209.9015315128199
 30
0.0
 11
50.21146588722647
 21
209.9015315128199
 31
0.0
  0
LINE
  5
846E
  8
0
 10
50.21146588722647
 20
209.9015315128199
 30
0.0
 11
50.21146588722647
 21
210.2358868628199
 31
0.0
  0
LINE
  5
846F
  8
0
 10
50.21146588722647
 20
210.2358868628199
 30
0.0
 11
49.87748198722645
 21
210.2358868628199
 31
0.0
  0
LINE
  5
8470
  8
0
 10
49.87748198722645
 20
210.2358868628199
 30
0.0
 11
49.87748198722645
 21
209.9015315128199
 31
0.0
  0
LINE
  5
8471
  8
0
 10
50.54590198722644
 20
209.9015315128199
 30
0.0
 11
51.54711648722645
 21
209.9015315128199
 31
0.0
  0
LINE
  5
8472
  8
0
 10
51.54711648722645
 20
209.9015315128199
 30
0.0
 11
51.54711648722645
 21
210.2358868628199
 31
0.0
  0
LINE
  5
8473
  8
0
 10
51.54711648722645
 20
210.2358868628199
 30
0.0
 11
50.54590198722644
 21
210.2358868628199
 31
0.0
  0
LINE
  5
8474
  8
0
 10
50.54590198722644
 20
210.2358868628199
 30
0.0
 11
50.54590198722644
 21
209.9015315128199
 31
0.0
  0
LINE
  5
8475
  8
0
 10
52.21391198722645
 20
209.9015315128199
 30
0.0
 11
53.21549698722646
 21
209.9015315128199
 31
0.0
  0
LINE
  5
8476
  8
0
 10
53.21549698722646
 20
209.9015315128199
 30
0.0
 11
53.21549698722646
 21
210.2358868628199
 31
0.0
  0
LINE
  5
8477
  8
0
 10
53.21549698722646
 20
210.2358868628199
 30
0.0
 11
52.21391198722645
 21
210.2358868628199
 31
0.0
  0
LINE
  5
8478
  8
0
 10
52.21391198722645
 20
210.2358868628199
 30
0.0
 11
52.21391198722645
 21
209.9015315128199
 31
0.0
  0
LINE
  5
8479
  8
0
 10
42.53436198722645
 20
209.5682715128199
 30
0.0
 11
42.86871733722646
 21
209.5682715128199
 31
0.0
  0
LINE
  5
847A
  8
0
 10
42.86871733722646
 20
209.5682715128199
 30
0.0
 11
42.86871733722646
 21
209.9022563628199
 31
0.0
  0
LINE
  5
847B
  8
0
 10
42.86871733722646
 20
209.9022563628199
 30
0.0
 11
42.53436198722645
 21
209.9022563628199
 31
0.0
  0
LINE
  5
847C
  8
0
 10
42.53436198722645
 20
209.9022563628199
 30
0.0
 11
42.53436198722645
 21
209.5682715128199
 31
0.0
  0
LINE
  5
847D
  8
0
 10
44.20351198722645
 20
209.5682715128199
 30
0.0
 11
44.53749683722646
 21
209.5682715128199
 31
0.0
  0
LINE
  5
847E
  8
0
 10
44.53749683722646
 20
209.5682715128199
 30
0.0
 11
44.53749683722646
 21
209.9022563628199
 31
0.0
  0
LINE
  5
847F
  8
0
 10
44.53749683722646
 20
209.9022563628199
 30
0.0
 11
44.20351198722645
 21
209.9022563628199
 31
0.0
  0
LINE
  5
8480
  8
0
 10
44.20351198722645
 20
209.9022563628199
 30
0.0
 11
44.20351198722645
 21
209.5682715128199
 31
0.0
  0
LINE
  5
8481
  8
0
 10
45.20509698722645
 20
209.5682715128199
 30
0.0
 11
45.53908183722646
 21
209.5682715128199
 31
0.0
  0
LINE
  5
8482
  8
0
 10
45.53908183722646
 20
209.5682715128199
 30
0.0
 11
45.53908183722646
 21
209.9022563628199
 31
0.0
  0
LINE
  5
8483
  8
0
 10
45.53908183722646
 20
209.9022563628199
 30
0.0
 11
45.20509698722645
 21
209.9022563628199
 31
0.0
  0
LINE
  5
8484
  8
0
 10
45.20509698722645
 20
209.9022563628199
 30
0.0
 11
45.20509698722645
 21
209.5682715128199
 31
0.0
  0
LINE
  5
8485
  8
0
 10
45.87266198722645
 20
209.5682715128199
 30
0.0
 11
46.87387648722645
 21
209.5682715128199
 31
0.0
  0
LINE
  5
8486
  8
0
 10
46.87387648722645
 20
209.5682715128199
 30
0.0
 11
46.87387648722645
 21
209.9022563628199
 31
0.0
  0
LINE
  5
8487
  8
0
 10
46.87387648722645
 20
209.9022563628199
 30
0.0
 11
45.87266198722645
 21
209.9022563628199
 31
0.0
  0
LINE
  5
8488
  8
0
 10
45.87266198722645
 20
209.9022563628199
 30
0.0
 11
45.87266198722645
 21
209.5682715128199
 31
0.0
  0
LINE
  5
8489
  8
0
 10
47.54152698722646
 20
209.5682715128199
 30
0.0
 11
47.87588233722647
 21
209.5682715128199
 31
0.0
  0
LINE
  5
848A
  8
0
 10
47.87588233722647
 20
209.5682715128199
 30
0.0
 11
47.87588233722647
 21
209.9022563628199
 31
0.0
  0
LINE
  5
848B
  8
0
 10
47.87588233722647
 20
209.9022563628199
 30
0.0
 11
47.54152698722646
 21
209.9022563628199
 31
0.0
  0
LINE
  5
848C
  8
0
 10
47.54152698722646
 20
209.9022563628199
 30
0.0
 11
47.54152698722646
 21
209.5682715128199
 31
0.0
  0
LINE
  5
848D
  8
0
 10
48.54273198722646
 20
209.5682715128199
 30
0.0
 11
49.20995878722647
 21
209.5682715128199
 31
0.0
  0
LINE
  5
848E
  8
0
 10
49.20995878722647
 20
209.5682715128199
 30
0.0
 11
49.20995878722647
 21
209.9022563628199
 31
0.0
  0
LINE
  5
848F
  8
0
 10
49.20995878722647
 20
209.9022563628199
 30
0.0
 11
48.54273198722646
 21
209.9022563628199
 31
0.0
  0
LINE
  5
8490
  8
0
 10
48.54273198722646
 20
209.9022563628199
 30
0.0
 11
48.54273198722646
 21
209.5682715128199
 31
0.0
  0
LINE
  5
8491
  8
0
 10
49.54431698722644
 20
209.5682715128199
 30
0.0
 11
50.54590198722644
 21
209.5682715128199
 31
0.0
  0
LINE
  5
8492
  8
0
 10
50.54590198722644
 20
209.5682715128199
 30
0.0
 11
50.54590198722644
 21
209.9022563628199
 31
0.0
  0
LINE
  5
8493
  8
0
 10
50.54590198722644
 20
209.9022563628199
 30
0.0
 11
49.54431698722644
 21
209.9022563628199
 31
0.0
  0
LINE
  5
8494
  8
0
 10
49.54431698722644
 20
209.9022563628199
 30
0.0
 11
49.54431698722644
 21
209.5682715128199
 31
0.0
  0
LINE
  5
8495
  8
0
 10
51.88065198722646
 20
209.5682715128199
 30
0.0
 11
52.88223698722643
 21
209.5682715128199
 31
0.0
  0
LINE
  5
8496
  8
0
 10
52.88223698722643
 20
209.5682715128199
 30
0.0
 11
52.88223698722643
 21
209.9022563628199
 31
0.0
  0
LINE
  5
8497
  8
0
 10
52.88223698722643
 20
209.9022563628199
 30
0.0
 11
51.88065198722646
 21
209.9022563628199
 31
0.0
  0
LINE
  5
8498
  8
0
 10
51.88065198722646
 20
209.9022563628199
 30
0.0
 11
51.88065198722646
 21
209.5682715128199
 31
0.0
  0
LINE
  5
8499
  8
0
 10
43.20192698722644
 20
209.2343465128199
 30
0.0
 11
43.53628328722644
 21
209.2343465128199
 31
0.0
  0
LINE
  5
849A
  8
0
 10
43.53628328722644
 20
209.2343465128199
 30
0.0
 11
43.53628328722644
 21
209.5683304128199
 31
0.0
  0
LINE
  5
849B
  8
0
 10
43.53628328722644
 20
209.5683304128199
 30
0.0
 11
43.20192698722644
 21
209.5683304128199
 31
0.0
  0
LINE
  5
849C
  8
0
 10
43.20192698722644
 20
209.5683304128199
 30
0.0
 11
43.20192698722644
 21
209.2343465128199
 31
0.0
  0
LINE
  5
849D
  8
0
 10
43.86949198722647
 20
209.2343465128199
 30
0.0
 11
45.20468848722643
 21
209.2343465128199
 31
0.0
  0
LINE
  5
849E
  8
0
 10
45.20468848722643
 20
209.2343465128199
 30
0.0
 11
45.20468848722643
 21
209.5683304128199
 31
0.0
  0
LINE
  5
849F
  8
0
 10
45.20468848722643
 20
209.5683304128199
 30
0.0
 11
43.86949198722647
 21
209.5683304128199
 31
0.0
  0
LINE
  5
84A0
  8
0
 10
43.86949198722647
 20
209.5683304128199
 30
0.0
 11
43.86949198722647
 21
209.2343465128199
 31
0.0
  0
LINE
  5
84A1
  8
0
 10
45.53873698722643
 20
209.2343465128199
 30
0.0
 11
46.20596378722647
 21
209.2343465128199
 31
0.0
  0
LINE
  5
84A2
  8
0
 10
46.20596378722647
 20
209.2343465128199
 30
0.0
 11
46.20596378722647
 21
209.5683304128199
 31
0.0
  0
LINE
  5
84A3
  8
0
 10
46.20596378722647
 20
209.5683304128199
 30
0.0
 11
45.53873698722643
 21
209.5683304128199
 31
0.0
  0
LINE
  5
84A4
  8
0
 10
45.53873698722643
 20
209.5683304128199
 30
0.0
 11
45.53873698722643
 21
209.2343465128199
 31
0.0
  0
LINE
  5
84A5
  8
0
 10
46.54032198722646
 20
209.2343465128199
 30
0.0
 11
46.87430588722646
 21
209.2343465128199
 31
0.0
  0
LINE
  5
84A6
  8
0
 10
46.87430588722646
 20
209.2343465128199
 30
0.0
 11
46.87430588722646
 21
209.5683304128199
 31
0.0
  0
LINE
  5
84A7
  8
0
 10
46.87430588722646
 20
209.5683304128199
 30
0.0
 11
46.54032198722646
 21
209.5683304128199
 31
0.0
  0
LINE
  5
84A8
  8
0
 10
46.54032198722646
 20
209.5683304128199
 30
0.0
 11
46.54032198722646
 21
209.2343465128199
 31
0.0
  0
LINE
  5
84A9
  8
0
 10
47.54152698722646
 20
209.2343465128199
 30
0.0
 11
47.87588233722647
 21
209.2343465128199
 31
0.0
  0
LINE
  5
84AA
  8
0
 10
47.87588233722647
 20
209.2343465128199
 30
0.0
 11
47.87588233722647
 21
209.5683304128199
 31
0.0
  0
LINE
  5
84AB
  8
0
 10
47.87588233722647
 20
209.5683304128199
 30
0.0
 11
47.54152698722646
 21
209.5683304128199
 31
0.0
  0
LINE
  5
84AC
  8
0
 10
47.54152698722646
 20
209.5683304128199
 30
0.0
 11
47.54152698722646
 21
209.2343465128199
 31
0.0
  0
LINE
  5
84AD
  8
0
 10
48.54273198722646
 20
209.2343465128199
 30
0.0
 11
48.87671683722644
 21
209.2343465128199
 31
0.0
  0
LINE
  5
84AE
  8
0
 10
48.87671683722644
 20
209.2343465128199
 30
0.0
 11
48.87671683722644
 21
209.5683304128199
 31
0.0
  0
LINE
  5
84AF
  8
0
 10
48.87671683722644
 20
209.5683304128199
 30
0.0
 11
48.54273198722646
 21
209.5683304128199
 31
0.0
  0
LINE
  5
84B0
  8
0
 10
48.54273198722646
 20
209.5683304128199
 30
0.0
 11
48.54273198722646
 21
209.2343465128199
 31
0.0
  0
LINE
  5
84B1
  8
0
 10
49.20991698722645
 20
209.2343465128199
 30
0.0
 11
49.54427233722646
 21
209.2343465128199
 31
0.0
  0
LINE
  5
84B2
  8
0
 10
49.54427233722646
 20
209.2343465128199
 30
0.0
 11
49.54427233722646
 21
209.5683304128199
 31
0.0
  0
LINE
  5
84B3
  8
0
 10
49.54427233722646
 20
209.5683304128199
 30
0.0
 11
49.20991698722645
 21
209.5683304128199
 31
0.0
  0
LINE
  5
84B4
  8
0
 10
49.20991698722645
 20
209.5683304128199
 30
0.0
 11
49.20991698722645
 21
209.2343465128199
 31
0.0
  0
LINE
  5
84B5
  8
0
 10
49.87748198722645
 20
209.2343465128199
 30
0.0
 11
50.21146588722647
 21
209.2343465128199
 31
0.0
  0
LINE
  5
84B6
  8
0
 10
50.21146588722647
 20
209.2343465128199
 30
0.0
 11
50.21146588722647
 21
209.5683304128199
 31
0.0
  0
LINE
  5
84B7
  8
0
 10
50.21146588722647
 20
209.5683304128199
 30
0.0
 11
49.87748198722645
 21
209.5683304128199
 31
0.0
  0
LINE
  5
84B8
  8
0
 10
49.87748198722645
 20
209.5683304128199
 30
0.0
 11
49.87748198722645
 21
209.2343465128199
 31
0.0
  0
LINE
  5
84B9
  8
0
 10
50.54590198722644
 20
209.2343465128199
 30
0.0
 11
51.54711648722645
 21
209.2343465128199
 31
0.0
  0
LINE
  5
84BA
  8
0
 10
51.54711648722645
 20
209.2343465128199
 30
0.0
 11
51.54711648722645
 21
209.5683304128199
 31
0.0
  0
LINE
  5
84BB
  8
0
 10
51.54711648722645
 20
209.5683304128199
 30
0.0
 11
50.54590198722644
 21
209.5683304128199
 31
0.0
  0
LINE
  5
84BC
  8
0
 10
50.54590198722644
 20
209.5683304128199
 30
0.0
 11
50.54590198722644
 21
209.2343465128199
 31
0.0
  0
LINE
  5
84BD
  8
0
 10
51.88065198722646
 20
209.2343465128199
 30
0.0
 11
52.21463683722644
 21
209.2343465128199
 31
0.0
  0
LINE
  5
84BE
  8
0
 10
52.21463683722644
 20
209.2343465128199
 30
0.0
 11
52.21463683722644
 21
209.5683304128199
 31
0.0
  0
LINE
  5
84BF
  8
0
 10
52.21463683722644
 20
209.5683304128199
 30
0.0
 11
51.88065198722646
 21
209.5683304128199
 31
0.0
  0
LINE
  5
84C0
  8
0
 10
51.88065198722646
 20
209.5683304128199
 30
0.0
 11
51.88065198722646
 21
209.2343465128199
 31
0.0
  0
LINE
  5
84C1
  8
0
 10
52.54831198722644
 20
209.2343465128199
 30
0.0
 11
53.21553783722646
 21
209.2343465128199
 31
0.0
  0
LINE
  5
84C2
  8
0
 10
53.21553783722646
 20
209.2343465128199
 30
0.0
 11
53.21553783722646
 21
209.5683304128199
 31
0.0
  0
LINE
  5
84C3
  8
0
 10
53.21553783722646
 20
209.5683304128199
 30
0.0
 11
52.54831198722644
 21
209.5683304128199
 31
0.0
  0
LINE
  5
84C4
  8
0
 10
52.54831198722644
 20
209.5683304128199
 30
0.0
 11
52.54831198722644
 21
209.2343465128199
 31
0.0
  0
LINE
  5
84C5
  8
0
 10
42.53436198722645
 20
208.89994651282
 30
0.0
 11
43.20195928722643
 21
208.89994651282
 31
0.0
  0
LINE
  5
84C6
  8
0
 10
43.20195928722643
 20
208.89994651282
 30
0.0
 11
43.20195928722643
 21
209.23430186282
 31
0.0
  0
LINE
  5
84C7
  8
0
 10
43.20195928722643
 20
209.23430186282
 30
0.0
 11
42.53436198722645
 21
209.23430186282
 31
0.0
  0
LINE
  5
84C8
  8
0
 10
42.53436198722645
 20
209.23430186282
 30
0.0
 11
42.53436198722645
 21
208.89994651282
 31
0.0
  0
LINE
  5
84C9
  8
0
 10
43.53585198722647
 20
208.89994651282
 30
0.0
 11
44.20344928722645
 21
208.89994651282
 31
0.0
  0
LINE
  5
84CA
  8
0
 10
44.20344928722645
 20
208.89994651282
 30
0.0
 11
44.20344928722645
 21
209.23430186282
 31
0.0
  0
LINE
  5
84CB
  8
0
 10
44.20344928722645
 20
209.23430186282
 30
0.0
 11
43.53585198722647
 21
209.23430186282
 31
0.0
  0
LINE
  5
84CC
  8
0
 10
43.53585198722647
 20
209.23430186282
 30
0.0
 11
43.53585198722647
 21
208.89994651282
 31
0.0
  0
LINE
  5
84CD
  8
0
 10
44.87107698722644
 20
208.89994651282
 30
0.0
 11
45.20506088722644
 21
208.89994651282
 31
0.0
  0
LINE
  5
84CE
  8
0
 10
45.20506088722644
 20
208.89994651282
 30
0.0
 11
45.20506088722644
 21
209.23430186282
 31
0.0
  0
LINE
  5
84CF
  8
0
 10
45.20506088722644
 20
209.23430186282
 30
0.0
 11
44.87107698722644
 21
209.23430186282
 31
0.0
  0
LINE
  5
84D0
  8
0
 10
44.87107698722644
 20
209.23430186282
 30
0.0
 11
44.87107698722644
 21
208.89994651282
 31
0.0
  0
LINE
  5
84D1
  8
0
 10
45.87266198722645
 20
208.89994651282
 30
0.0
 11
46.53988783722644
 21
208.89994651282
 31
0.0
  0
LINE
  5
84D2
  8
0
 10
46.53988783722644
 20
208.89994651282
 30
0.0
 11
46.53988783722644
 21
209.23430186282
 31
0.0
  0
LINE
  5
84D3
  8
0
 10
46.53988783722644
 20
209.23430186282
 30
0.0
 11
45.87266198722645
 21
209.23430186282
 31
0.0
  0
LINE
  5
84D4
  8
0
 10
45.87266198722645
 20
209.23430186282
 30
0.0
 11
45.87266198722645
 21
208.89994651282
 31
0.0
  0
LINE
  5
84D5
  8
0
 10
47.20750698722645
 20
208.89994651282
 30
0.0
 11
47.87510428722646
 21
208.89994651282
 31
0.0
  0
LINE
  5
84D6
  8
0
 10
47.87510428722646
 20
208.89994651282
 30
0.0
 11
47.87510428722646
 21
209.23430186282
 31
0.0
  0
LINE
  5
84D7
  8
0
 10
47.87510428722646
 20
209.23430186282
 30
0.0
 11
47.20750698722645
 21
209.23430186282
 31
0.0
  0
LINE
  5
84D8
  8
0
 10
47.20750698722645
 20
209.23430186282
 30
0.0
 11
47.20750698722645
 21
208.89994651282
 31
0.0
  0
LINE
  5
84D9
  8
0
 10
48.87665698722645
 20
208.89994651282
 30
0.0
 11
49.54425428722644
 21
208.89994651282
 31
0.0
  0
LINE
  5
84DA
  8
0
 10
49.54425428722644
 20
208.89994651282
 30
0.0
 11
49.54425428722644
 21
209.23430186282
 31
0.0
  0
LINE
  5
84DB
  8
0
 10
49.54425428722644
 20
209.23430186282
 30
0.0
 11
48.87665698722645
 21
209.23430186282
 31
0.0
  0
LINE
  5
84DC
  8
0
 10
48.87665698722645
 20
209.23430186282
 30
0.0
 11
48.87665698722645
 21
208.89994651282
 31
0.0
  0
LINE
  5
84DD
  8
0
 10
49.87748198722645
 20
208.89994651282
 30
0.0
 11
50.54507928722646
 21
208.89994651282
 31
0.0
  0
LINE
  5
84DE
  8
0
 10
50.54507928722646
 20
208.89994651282
 30
0.0
 11
50.54507928722646
 21
209.23430186282
 31
0.0
  0
LINE
  5
84DF
  8
0
 10
50.54507928722646
 20
209.23430186282
 30
0.0
 11
49.87748198722645
 21
209.23430186282
 31
0.0
  0
LINE
  5
84E0
  8
0
 10
49.87748198722645
 20
209.23430186282
 30
0.0
 11
49.87748198722645
 21
208.89994651282
 31
0.0
  0
LINE
  5
84E1
  8
0
 10
50.87906698722645
 20
208.89994651282
 30
0.0
 11
51.21305183722646
 21
208.89994651282
 31
0.0
  0
LINE
  5
84E2
  8
0
 10
51.21305183722646
 20
208.89994651282
 30
0.0
 11
51.21305183722646
 21
209.23430186282
 31
0.0
  0
LINE
  5
84E3
  8
0
 10
51.21305183722646
 20
209.23430186282
 30
0.0
 11
50.87906698722645
 21
209.23430186282
 31
0.0
  0
LINE
  5
84E4
  8
0
 10
50.87906698722645
 20
209.23430186282
 30
0.0
 11
50.87906698722645
 21
208.89994651282
 31
0.0
  0
LINE
  5
84E5
  8
0
 10
51.54672698722644
 20
208.89994651282
 30
0.0
 11
53.54914648722647
 21
208.89994651282
 31
0.0
  0
LINE
  5
84E6
  8
0
 10
53.54914648722647
 20
208.89994651282
 30
0.0
 11
53.54914648722647
 21
209.23430186282
 31
0.0
  0
LINE
  5
84E7
  8
0
 10
53.54914648722647
 20
209.23430186282
 30
0.0
 11
51.54672698722644
 21
209.23430186282
 31
0.0
  0
LINE
  5
84E8
  8
0
 10
51.54672698722644
 20
209.23430186282
 30
0.0
 11
51.54672698722644
 21
208.89994651282
 31
0.0
  0
LINE
  5
84E9
  8
0
 10
42.86866698722645
 20
208.56668651282
 30
0.0
 11
43.20265183722645
 21
208.56668651282
 31
0.0
  0
LINE
  5
84EA
  8
0
 10
43.20265183722645
 20
208.56668651282
 30
0.0
 11
43.20265183722645
 21
208.9006713628199
 31
0.0
  0
LINE
  5
84EB
  8
0
 10
43.20265183722645
 20
208.9006713628199
 30
0.0
 11
42.86866698722645
 21
208.9006713628199
 31
0.0
  0
LINE
  5
84EC
  8
0
 10
42.86866698722645
 20
208.9006713628199
 30
0.0
 11
42.86866698722645
 21
208.56668651282
 31
0.0
  0
LINE
  5
84ED
  8
0
 10
43.53585198722647
 20
208.56668651282
 30
0.0
 11
43.86983588722646
 21
208.56668651282
 31
0.0
  0
LINE
  5
84EE
  8
0
 10
43.86983588722646
 20
208.56668651282
 30
0.0
 11
43.86983588722646
 21
208.9006713628199
 31
0.0
  0
LINE
  5
84EF
  8
0
 10
43.86983588722646
 20
208.9006713628199
 30
0.0
 11
43.53585198722647
 21
208.9006713628199
 31
0.0
  0
LINE
  5
84F0
  8
0
 10
43.53585198722647
 20
208.9006713628199
 30
0.0
 11
43.53585198722647
 21
208.56668651282
 31
0.0
  0
LINE
  5
84F1
  8
0
 10
44.53743698722644
 20
208.56668651282
 30
0.0
 11
45.53902198722645
 21
208.56668651282
 31
0.0
  0
LINE
  5
84F2
  8
0
 10
45.53902198722645
 20
208.56668651282
 30
0.0
 11
45.53902198722645
 21
208.9006713628199
 31
0.0
  0
LINE
  5
84F3
  8
0
 10
45.53902198722645
 20
208.9006713628199
 30
0.0
 11
44.53743698722644
 21
208.9006713628199
 31
0.0
  0
LINE
  5
84F4
  8
0
 10
44.53743698722644
 20
208.9006713628199
 30
0.0
 11
44.53743698722644
 21
208.56668651282
 31
0.0
  0
LINE
  5
84F5
  8
0
 10
46.87348698722644
 20
208.56668651282
 30
0.0
 11
47.54108523722647
 21
208.56668651282
 31
0.0
  0
LINE
  5
84F6
  8
0
 10
47.54108523722647
 20
208.56668651282
 30
0.0
 11
47.54108523722647
 21
208.9006713628199
 31
0.0
  0
LINE
  5
84F7
  8
0
 10
47.54108523722647
 20
208.9006713628199
 30
0.0
 11
46.87348698722644
 21
208.9006713628199
 31
0.0
  0
LINE
  5
84F8
  8
0
 10
46.87348698722644
 20
208.9006713628199
 30
0.0
 11
46.87348698722644
 21
208.56668651282
 31
0.0
  0
LINE
  5
84F9
  8
0
 10
47.87507198722645
 20
208.56668651282
 30
0.0
 11
48.87665698722645
 21
208.56668651282
 31
0.0
  0
LINE
  5
84FA
  8
0
 10
48.87665698722645
 20
208.56668651282
 30
0.0
 11
48.87665698722645
 21
208.9006713628199
 31
0.0
  0
LINE
  5
84FB
  8
0
 10
48.87665698722645
 20
208.9006713628199
 30
0.0
 11
47.87507198722645
 21
208.9006713628199
 31
0.0
  0
LINE
  5
84FC
  8
0
 10
47.87507198722645
 20
208.9006713628199
 30
0.0
 11
47.87507198722645
 21
208.56668651282
 31
0.0
  0
LINE
  5
84FD
  8
0
 10
49.20991698722645
 20
208.56668651282
 30
0.0
 11
50.21150198722646
 21
208.56668651282
 31
0.0
  0
LINE
  5
84FE
  8
0
 10
50.21150198722646
 20
208.56668651282
 30
0.0
 11
50.21150198722646
 21
208.9006713628199
 31
0.0
  0
LINE
  5
84FF
  8
0
 10
50.21150198722646
 20
208.9006713628199
 30
0.0
 11
49.20991698722645
 21
208.9006713628199
 31
0.0
  0
LINE
  5
8500
  8
0
 10
49.20991698722645
 20
208.9006713628199
 30
0.0
 11
49.20991698722645
 21
208.56668651282
 31
0.0
  0
LINE
  5
8501
  8
0
 10
50.54590198722644
 20
208.56668651282
 30
0.0
 11
50.87988683722645
 21
208.56668651282
 31
0.0
  0
LINE
  5
8502
  8
0
 10
50.87988683722645
 20
208.56668651282
 30
0.0
 11
50.87988683722645
 21
208.9006713628199
 31
0.0
  0
LINE
  5
8503
  8
0
 10
50.87988683722645
 20
208.9006713628199
 30
0.0
 11
50.54590198722644
 21
208.9006713628199
 31
0.0
  0
LINE
  5
8504
  8
0
 10
50.54590198722644
 20
208.9006713628199
 30
0.0
 11
50.54590198722644
 21
208.56668651282
 31
0.0
  0
LINE
  5
8505
  8
0
 10
51.21308698722646
 20
208.56668651282
 30
0.0
 11
51.88068428722644
 21
208.56668651282
 31
0.0
  0
LINE
  5
8506
  8
0
 10
51.88068428722644
 20
208.56668651282
 30
0.0
 11
51.88068428722644
 21
208.9006713628199
 31
0.0
  0
LINE
  5
8507
  8
0
 10
51.88068428722644
 20
208.9006713628199
 30
0.0
 11
51.21308698722646
 21
208.9006713628199
 31
0.0
  0
LINE
  5
8508
  8
0
 10
51.21308698722646
 20
208.9006713628199
 30
0.0
 11
51.21308698722646
 21
208.56668651282
 31
0.0
  0
LINE
  5
8509
  8
0
 10
42.53436198722645
 20
208.2327615128199
 30
0.0
 11
43.20195928722643
 21
208.2327615128199
 31
0.0
  0
LINE
  5
850A
  8
0
 10
43.20195928722643
 20
208.2327615128199
 30
0.0
 11
43.20195928722643
 21
208.56674541282
 31
0.0
  0
LINE
  5
850B
  8
0
 10
43.20195928722643
 20
208.56674541282
 30
0.0
 11
42.53436198722645
 21
208.56674541282
 31
0.0
  0
LINE
  5
850C
  8
0
 10
42.53436198722645
 20
208.56674541282
 30
0.0
 11
42.53436198722645
 21
208.2327615128199
 31
0.0
  0
LINE
  5
850D
  8
0
 10
43.53585198722647
 20
208.2327615128199
 30
0.0
 11
44.20344928722645
 21
208.2327615128199
 31
0.0
  0
LINE
  5
850E
  8
0
 10
44.20344928722645
 20
208.2327615128199
 30
0.0
 11
44.20344928722645
 21
208.56674541282
 31
0.0
  0
LINE
  5
850F
  8
0
 10
44.20344928722645
 20
208.56674541282
 30
0.0
 11
43.53585198722647
 21
208.56674541282
 31
0.0
  0
LINE
  5
8510
  8
0
 10
43.53585198722647
 20
208.56674541282
 30
0.0
 11
43.53585198722647
 21
208.2327615128199
 31
0.0
  0
LINE
  5
8511
  8
0
 10
44.87107698722644
 20
208.2327615128199
 30
0.0
 11
45.53867428722643
 21
208.2327615128199
 31
0.0
  0
LINE
  5
8512
  8
0
 10
45.53867428722643
 20
208.2327615128199
 30
0.0
 11
45.53867428722643
 21
208.56674541282
 31
0.0
  0
LINE
  5
8513
  8
0
 10
45.53867428722643
 20
208.56674541282
 30
0.0
 11
44.87107698722644
 21
208.56674541282
 31
0.0
  0
LINE
  5
8514
  8
0
 10
44.87107698722644
 20
208.56674541282
 30
0.0
 11
44.87107698722644
 21
208.2327615128199
 31
0.0
  0
LINE
  5
8515
  8
0
 10
46.20592198722645
 20
208.2327615128199
 30
0.0
 11
46.87351928722646
 21
208.2327615128199
 31
0.0
  0
LINE
  5
8516
  8
0
 10
46.87351928722646
 20
208.2327615128199
 30
0.0
 11
46.87351928722646
 21
208.56674541282
 31
0.0
  0
LINE
  5
8517
  8
0
 10
46.87351928722646
 20
208.56674541282
 30
0.0
 11
46.20592198722645
 21
208.56674541282
 31
0.0
  0
LINE
  5
8518
  8
0
 10
46.20592198722645
 20
208.56674541282
 30
0.0
 11
46.20592198722645
 21
208.2327615128199
 31
0.0
  0
LINE
  5
8519
  8
0
 10
47.20750698722645
 20
208.2327615128199
 30
0.0
 11
47.54149088722647
 21
208.2327615128199
 31
0.0
  0
LINE
  5
851A
  8
0
 10
47.54149088722647
 20
208.2327615128199
 30
0.0
 11
47.54149088722647
 21
208.56674541282
 31
0.0
  0
LINE
  5
851B
  8
0
 10
47.54149088722647
 20
208.56674541282
 30
0.0
 11
47.20750698722645
 21
208.56674541282
 31
0.0
  0
LINE
  5
851C
  8
0
 10
47.20750698722645
 20
208.56674541282
 30
0.0
 11
47.20750698722645
 21
208.2327615128199
 31
0.0
  0
LINE
  5
851D
  8
0
 10
47.87507198722645
 20
208.2327615128199
 30
0.0
 11
48.54266928722646
 21
208.2327615128199
 31
0.0
  0
LINE
  5
851E
  8
0
 10
48.54266928722646
 20
208.2327615128199
 30
0.0
 11
48.54266928722646
 21
208.56674541282
 31
0.0
  0
LINE
  5
851F
  8
0
 10
48.54266928722646
 20
208.56674541282
 30
0.0
 11
47.87507198722645
 21
208.56674541282
 31
0.0
  0
LINE
  5
8520
  8
0
 10
47.87507198722645
 20
208.56674541282
 30
0.0
 11
47.87507198722645
 21
208.2327615128199
 31
0.0
  0
LINE
  5
8521
  8
0
 10
49.20991698722645
 20
208.2327615128199
 30
0.0
 11
49.87751523722645
 21
208.2327615128199
 31
0.0
  0
LINE
  5
8522
  8
0
 10
49.87751523722645
 20
208.2327615128199
 30
0.0
 11
49.87751523722645
 21
208.56674541282
 31
0.0
  0
LINE
  5
8523
  8
0
 10
49.87751523722645
 20
208.56674541282
 30
0.0
 11
49.20991698722645
 21
208.56674541282
 31
0.0
  0
LINE
  5
8524
  8
0
 10
49.20991698722645
 20
208.56674541282
 30
0.0
 11
49.20991698722645
 21
208.2327615128199
 31
0.0
  0
LINE
  5
8525
  8
0
 10
50.21150198722646
 20
208.2327615128199
 30
0.0
 11
50.54585733722647
 21
208.2327615128199
 31
0.0
  0
LINE
  5
8526
  8
0
 10
50.54585733722647
 20
208.2327615128199
 30
0.0
 11
50.54585733722647
 21
208.56674541282
 31
0.0
  0
LINE
  5
8527
  8
0
 10
50.54585733722647
 20
208.56674541282
 30
0.0
 11
50.21150198722646
 21
208.56674541282
 31
0.0
  0
LINE
  5
8528
  8
0
 10
50.21150198722646
 20
208.56674541282
 30
0.0
 11
50.21150198722646
 21
208.2327615128199
 31
0.0
  0
LINE
  5
8529
  8
0
 10
51.21308698722646
 20
208.2327615128199
 30
0.0
 11
51.54707088722645
 21
208.2327615128199
 31
0.0
  0
LINE
  5
852A
  8
0
 10
51.54707088722645
 20
208.2327615128199
 30
0.0
 11
51.54707088722645
 21
208.56674541282
 31
0.0
  0
LINE
  5
852B
  8
0
 10
51.54707088722645
 20
208.56674541282
 30
0.0
 11
51.21308698722646
 21
208.56674541282
 31
0.0
  0
LINE
  5
852C
  8
0
 10
51.21308698722646
 20
208.56674541282
 30
0.0
 11
51.21308698722646
 21
208.2327615128199
 31
0.0
  0
LINE
  5
852D
  8
0
 10
52.21391198722645
 20
208.2327615128199
 30
0.0
 11
53.54910848722645
 21
208.2327615128199
 31
0.0
  0
LINE
  5
852E
  8
0
 10
53.54910848722645
 20
208.2327615128199
 30
0.0
 11
53.54910848722645
 21
208.56674541282
 31
0.0
  0
LINE
  5
852F
  8
0
 10
53.54910848722645
 20
208.56674541282
 30
0.0
 11
52.21391198722645
 21
208.56674541282
 31
0.0
  0
LINE
  5
8530
  8
0
 10
52.21391198722645
 20
208.56674541282
 30
0.0
 11
52.21391198722645
 21
208.2327615128199
 31
0.0
  0
LINE
  5
8531
  8
0
 10
42.86866698722645
 20
207.8991215128199
 30
0.0
 11
46.20665348722645
 21
207.8991215128199
 31
0.0
  0
LINE
  5
8532
  8
0
 10
46.20665348722645
 20
207.8991215128199
 30
0.0
 11
46.20665348722645
 21
208.2331063628199
 31
0.0
  0
LINE
  5
8533
  8
0
 10
46.20665348722645
 20
208.2331063628199
 30
0.0
 11
42.86866698722645
 21
208.2331063628199
 31
0.0
  0
LINE
  5
8534
  8
0
 10
42.86866698722645
 20
208.2331063628199
 30
0.0
 11
42.86866698722645
 21
207.8991215128199
 31
0.0
  0
LINE
  5
8535
  8
0
 10
46.87348698722644
 20
207.8991215128199
 30
0.0
 11
47.20747183722645
 21
207.8991215128199
 31
0.0
  0
LINE
  5
8536
  8
0
 10
47.20747183722645
 20
207.8991215128199
 30
0.0
 11
47.20747183722645
 21
208.2331063628199
 31
0.0
  0
LINE
  5
8537
  8
0
 10
47.20747183722645
 20
208.2331063628199
 30
0.0
 11
46.87348698722644
 21
208.2331063628199
 31
0.0
  0
LINE
  5
8538
  8
0
 10
46.87348698722644
 20
208.2331063628199
 30
0.0
 11
46.87348698722644
 21
207.8991215128199
 31
0.0
  0
LINE
  5
8539
  8
0
 10
48.20909198722646
 20
207.8991215128199
 30
0.0
 11
48.54307588722645
 21
207.8991215128199
 31
0.0
  0
LINE
  5
853A
  8
0
 10
48.54307588722645
 20
207.8991215128199
 30
0.0
 11
48.54307588722645
 21
208.2331063628199
 31
0.0
  0
LINE
  5
853B
  8
0
 10
48.54307588722645
 20
208.2331063628199
 30
0.0
 11
48.20909198722646
 21
208.2331063628199
 31
0.0
  0
LINE
  5
853C
  8
0
 10
48.20909198722646
 20
208.2331063628199
 30
0.0
 11
48.20909198722646
 21
207.8991215128199
 31
0.0
  0
LINE
  5
853D
  8
0
 10
48.87665698722645
 20
207.8991215128199
 30
0.0
 11
49.21064088722645
 21
207.8991215128199
 31
0.0
  0
LINE
  5
853E
  8
0
 10
49.21064088722645
 20
207.8991215128199
 30
0.0
 11
49.21064088722645
 21
208.2331063628199
 31
0.0
  0
LINE
  5
853F
  8
0
 10
49.21064088722645
 20
208.2331063628199
 30
0.0
 11
48.87665698722645
 21
208.2331063628199
 31
0.0
  0
LINE
  5
8540
  8
0
 10
48.87665698722645
 20
208.2331063628199
 30
0.0
 11
48.87665698722645
 21
207.8991215128199
 31
0.0
  0
LINE
  5
8541
  8
0
 10
50.87906698722645
 20
207.8991215128199
 30
0.0
 11
51.54666523722645
 21
207.8991215128199
 31
0.0
  0
LINE
  5
8542
  8
0
 10
51.54666523722645
 20
207.8991215128199
 30
0.0
 11
51.54666523722645
 21
208.2331063628199
 31
0.0
  0
LINE
  5
8543
  8
0
 10
51.54666523722645
 20
208.2331063628199
 30
0.0
 11
50.87906698722645
 21
208.2331063628199
 31
0.0
  0
LINE
  5
8544
  8
0
 10
50.87906698722645
 20
208.2331063628199
 30
0.0
 11
50.87906698722645
 21
207.8991215128199
 31
0.0
  0
LINE
  5
8545
  8
0
 10
51.88065198722646
 20
207.8991215128199
 30
0.0
 11
52.21463683722644
 21
207.8991215128199
 31
0.0
  0
LINE
  5
8546
  8
0
 10
52.21463683722644
 20
207.8991215128199
 30
0.0
 11
52.21463683722644
 21
208.2331063628199
 31
0.0
  0
LINE
  5
8547
  8
0
 10
52.21463683722644
 20
208.2331063628199
 30
0.0
 11
51.88065198722646
 21
208.2331063628199
 31
0.0
  0
LINE
  5
8548
  8
0
 10
51.88065198722646
 20
208.2331063628199
 30
0.0
 11
51.88065198722646
 21
207.8991215128199
 31
0.0
  0
LINE
  5
8549
  8
0
 10
52.54831198722644
 20
207.8991215128199
 30
0.0
 11
53.21553783722646
 21
207.8991215128199
 31
0.0
  0
LINE
  5
854A
  8
0
 10
53.21553783722646
 20
207.8991215128199
 30
0.0
 11
53.21553783722646
 21
208.2331063628199
 31
0.0
  0
LINE
  5
854B
  8
0
 10
53.21553783722646
 20
208.2331063628199
 30
0.0
 11
52.54831198722644
 21
208.2331063628199
 31
0.0
  0
LINE
  5
854C
  8
0
 10
52.54831198722644
 20
208.2331063628199
 30
0.0
 11
52.54831198722644
 21
207.8991215128199
 31
0.0
  0
LINE
  5
854D
  8
0
 10
42.53436198722645
 20
207.5651015128199
 30
0.0
 11
43.20195928722643
 21
207.5651015128199
 31
0.0
  0
LINE
  5
854E
  8
0
 10
43.20195928722643
 20
207.5651015128199
 30
0.0
 11
43.20195928722643
 21
207.8991215128199
 31
0.0
  0
LINE
  5
854F
  8
0
 10
43.20195928722643
 20
207.8991215128199
 30
0.0
 11
42.53436198722645
 21
207.8991215128199
 31
0.0
  0
LINE
  5
8550
  8
0
 10
42.53436198722645
 20
207.8991215128199
 30
0.0
 11
42.53436198722645
 21
207.5651015128199
 31
0.0
  0
LINE
  5
8551
  8
0
 10
43.53585198722647
 20
207.5651015128199
 30
0.0
 11
44.20344928722645
 21
207.5651015128199
 31
0.0
  0
LINE
  5
8552
  8
0
 10
44.20344928722645
 20
207.5651015128199
 30
0.0
 11
44.20344928722645
 21
207.8991215128199
 31
0.0
  0
LINE
  5
8553
  8
0
 10
44.20344928722645
 20
207.8991215128199
 30
0.0
 11
43.53585198722647
 21
207.8991215128199
 31
0.0
  0
LINE
  5
8554
  8
0
 10
43.53585198722647
 20
207.8991215128199
 30
0.0
 11
43.53585198722647
 21
207.5651015128199
 31
0.0
  0
LINE
  5
8555
  8
0
 10
45.53873698722643
 20
207.5651015128199
 30
0.0
 11
45.87272183722644
 21
207.5651015128199
 31
0.0
  0
LINE
  5
8556
  8
0
 10
45.87272183722644
 20
207.5651015128199
 30
0.0
 11
45.87272183722644
 21
207.8991215128199
 31
0.0
  0
LINE
  5
8557
  8
0
 10
45.87272183722644
 20
207.8991215128199
 30
0.0
 11
45.53873698722643
 21
207.8991215128199
 31
0.0
  0
LINE
  5
8558
  8
0
 10
45.53873698722643
 20
207.8991215128199
 30
0.0
 11
45.53873698722643
 21
207.5651015128199
 31
0.0
  0
LINE
  5
8559
  8
0
 10
46.54032198722646
 20
207.5651015128199
 30
0.0
 11
46.87430588722646
 21
207.5651015128199
 31
0.0
  0
LINE
  5
855A
  8
0
 10
46.87430588722646
 20
207.5651015128199
 30
0.0
 11
46.87430588722646
 21
207.8991215128199
 31
0.0
  0
LINE
  5
855B
  8
0
 10
46.87430588722646
 20
207.8991215128199
 30
0.0
 11
46.54032198722646
 21
207.8991215128199
 31
0.0
  0
LINE
  5
855C
  8
0
 10
46.54032198722646
 20
207.8991215128199
 30
0.0
 11
46.54032198722646
 21
207.5651015128199
 31
0.0
  0
LINE
  5
855D
  8
0
 10
47.20750698722645
 20
207.5651015128199
 30
0.0
 11
47.87510428722646
 21
207.5651015128199
 31
0.0
  0
LINE
  5
855E
  8
0
 10
47.87510428722646
 20
207.5651015128199
 30
0.0
 11
47.87510428722646
 21
207.8991215128199
 31
0.0
  0
LINE
  5
855F
  8
0
 10
47.87510428722646
 20
207.8991215128199
 30
0.0
 11
47.20750698722645
 21
207.8991215128199
 31
0.0
  0
LINE
  5
8560
  8
0
 10
47.20750698722645
 20
207.8991215128199
 30
0.0
 11
47.20750698722645
 21
207.5651015128199
 31
0.0
  0
LINE
  5
8561
  8
0
 10
48.54273198722646
 20
207.5651015128199
 30
0.0
 11
49.20995878722647
 21
207.5651015128199
 31
0.0
  0
LINE
  5
8562
  8
0
 10
49.20995878722647
 20
207.5651015128199
 30
0.0
 11
49.20995878722647
 21
207.8991215128199
 31
0.0
  0
LINE
  5
8563
  8
0
 10
49.20995878722647
 20
207.8991215128199
 30
0.0
 11
48.54273198722646
 21
207.8991215128199
 31
0.0
  0
LINE
  5
8564
  8
0
 10
48.54273198722646
 20
207.8991215128199
 30
0.0
 11
48.54273198722646
 21
207.5651015128199
 31
0.0
  0
LINE
  5
8565
  8
0
 10
50.87906698722645
 20
207.5651015128199
 30
0.0
 11
51.21308698722646
 21
207.5651015128199
 31
0.0
  0
LINE
  5
8566
  8
0
 10
51.21308698722646
 20
207.5651015128199
 30
0.0
 11
51.21308698722646
 21
207.8991215128199
 31
0.0
  0
LINE
  5
8567
  8
0
 10
51.21308698722646
 20
207.8991215128199
 30
0.0
 11
50.87910213722645
 21
207.8991215128199
 31
0.0
  0
LINE
  5
8568
  8
0
 10
50.87910213722645
 20
207.8991215128199
 30
0.0
 11
50.87906698722645
 21
207.5651015128199
 31
0.0
  0
LINE
  5
8569
  8
0
 10
51.88065198722646
 20
207.5651015128199
 30
0.0
 11
52.88223698722643
 21
207.5651015128199
 31
0.0
  0
LINE
  5
856A
  8
0
 10
52.88223698722643
 20
207.5651015128199
 30
0.0
 11
52.88223698722643
 21
207.8991215128199
 31
0.0
  0
LINE
  5
856B
  8
0
 10
52.88223698722643
 20
207.8991215128199
 30
0.0
 11
51.88065198722646
 21
207.8991215128199
 31
0.0
  0
LINE
  5
856C
  8
0
 10
51.88065198722646
 20
207.8991215128199
 30
0.0
 11
51.88065198722646
 21
207.5651015128199
 31
0.0
  0
LINE
  5
856D
  8
0
 10
53.21549698722646
 20
207.5651015128199
 30
0.0
 11
53.54985328722645
 21
207.5651015128199
 31
0.0
  0
LINE
  5
856E
  8
0
 10
53.54985328722645
 20
207.5651015128199
 30
0.0
 11
53.54985328722645
 21
207.8991215128199
 31
0.0
  0
LINE
  5
856F
  8
0
 10
53.54985328722645
 20
207.8991215128199
 30
0.0
 11
53.21549698722646
 21
207.8991215128199
 31
0.0
  0
LINE
  5
8570
  8
0
 10
53.21549698722646
 20
207.8991215128199
 30
0.0
 11
53.21549698722646
 21
207.5651015128199
 31
0.0
  0
LINE
  5
8571
  8
0
 10
42.86866698722645
 20
207.23155651282
 30
0.0
 11
43.20265183722645
 21
207.23155651282
 31
0.0
  0
LINE
  5
8572
  8
0
 10
43.20265183722645
 20
207.23155651282
 30
0.0
 11
43.20265183722645
 21
207.5659118628199
 31
0.0
  0
LINE
  5
8573
  8
0
 10
43.20265183722645
 20
207.5659118628199
 30
0.0
 11
42.86866698722645
 21
207.5659118628199
 31
0.0
  0
LINE
  5
8574
  8
0
 10
42.86866698722645
 20
207.5659118628199
 30
0.0
 11
42.86866698722645
 21
207.23155651282
 31
0.0
  0
LINE
  5
8575
  8
0
 10
44.53743698722644
 20
207.23155651282
 30
0.0
 11
44.87142088722644
 21
207.23155651282
 31
0.0
  0
LINE
  5
8576
  8
0
 10
44.87142088722644
 20
207.23155651282
 30
0.0
 11
44.87142088722644
 21
207.5659118628199
 31
0.0
  0
LINE
  5
8577
  8
0
 10
44.87142088722644
 20
207.5659118628199
 30
0.0
 11
44.53743698722644
 21
207.5659118628199
 31
0.0
  0
LINE
  5
8578
  8
0
 10
44.53743698722644
 20
207.5659118628199
 30
0.0
 11
44.53743698722644
 21
207.23155651282
 31
0.0
  0
LINE
  5
8579
  8
0
 10
45.53873698722643
 20
207.23155651282
 30
0.0
 11
46.20596378722647
 21
207.23155651282
 31
0.0
  0
LINE
  5
857A
  8
0
 10
46.20596378722647
 20
207.23155651282
 30
0.0
 11
46.20596378722647
 21
207.5659118628199
 31
0.0
  0
LINE
  5
857B
  8
0
 10
46.20596378722647
 20
207.5659118628199
 30
0.0
 11
45.53873698722643
 21
207.5659118628199
 31
0.0
  0
LINE
  5
857C
  8
0
 10
45.53873698722643
 20
207.5659118628199
 30
0.0
 11
45.53873698722643
 21
207.23155651282
 31
0.0
  0
LINE
  5
857D
  8
0
 10
46.54032198722646
 20
207.23155651282
 30
0.0
 11
47.20754878722644
 21
207.23155651282
 31
0.0
  0
LINE
  5
857E
  8
0
 10
47.20754878722644
 20
207.23155651282
 30
0.0
 11
47.20754878722644
 21
207.5659118628199
 31
0.0
  0
LINE
  5
857F
  8
0
 10
47.20754878722644
 20
207.5659118628199
 30
0.0
 11
46.54032198722646
 21
207.5659118628199
 31
0.0
  0
LINE
  5
8580
  8
0
 10
46.54032198722646
 20
207.5659118628199
 30
0.0
 11
46.54032198722646
 21
207.23155651282
 31
0.0
  0
LINE
  5
8581
  8
0
 10
48.20909198722646
 20
207.23155651282
 30
0.0
 11
49.21067698722646
 21
207.23155651282
 31
0.0
  0
LINE
  5
8582
  8
0
 10
49.21067698722646
 20
207.23155651282
 30
0.0
 11
49.21067698722646
 21
207.5659118628199
 31
0.0
  0
LINE
  5
8583
  8
0
 10
49.21067698722646
 20
207.5659118628199
 30
0.0
 11
48.20909198722646
 21
207.5659118628199
 31
0.0
  0
LINE
  5
8584
  8
0
 10
48.20909198722646
 20
207.5659118628199
 30
0.0
 11
48.20909198722646
 21
207.23155651282
 31
0.0
  0
LINE
  5
8585
  8
0
 10
49.87748198722645
 20
207.23155651282
 30
0.0
 11
50.21146588722647
 21
207.23155651282
 31
0.0
  0
LINE
  5
8586
  8
0
 10
50.21146588722647
 20
207.23155651282
 30
0.0
 11
50.21146588722647
 21
207.5659118628199
 31
0.0
  0
LINE
  5
8587
  8
0
 10
50.21146588722647
 20
207.5659118628199
 30
0.0
 11
49.87748198722645
 21
207.5659118628199
 31
0.0
  0
LINE
  5
8588
  8
0
 10
49.87748198722645
 20
207.5659118628199
 30
0.0
 11
49.87748198722645
 21
207.23155651282
 31
0.0
  0
LINE
  5
8589
  8
0
 10
50.54590198722644
 20
207.23155651282
 30
0.0
 11
51.21312878722645
 21
207.23155651282
 31
0.0
  0
LINE
  5
858A
  8
0
 10
51.21312878722645
 20
207.23155651282
 30
0.0
 11
51.21312878722645
 21
207.5659118628199
 31
0.0
  0
LINE
  5
858B
  8
0
 10
51.21312878722645
 20
207.5659118628199
 30
0.0
 11
50.54590198722644
 21
207.5659118628199
 31
0.0
  0
LINE
  5
858C
  8
0
 10
50.54590198722644
 20
207.5659118628199
 30
0.0
 11
50.54590198722644
 21
207.23155651282
 31
0.0
  0
LINE
  5
858D
  8
0
 10
51.54672698722644
 20
207.23155651282
 30
0.0
 11
52.54831198722644
 21
207.23155651282
 31
0.0
  0
LINE
  5
858E
  8
0
 10
52.54831198722644
 20
207.23155651282
 30
0.0
 11
52.54831198722644
 21
207.5659118628199
 31
0.0
  0
LINE
  5
858F
  8
0
 10
52.54831198722644
 20
207.5659118628199
 30
0.0
 11
51.54672698722644
 21
207.5659118628199
 31
0.0
  0
LINE
  5
8590
  8
0
 10
51.54672698722644
 20
207.5659118628199
 30
0.0
 11
51.54672698722644
 21
207.23155651282
 31
0.0
  0
LINE
  5
8591
  8
0
 10
53.21549698722646
 20
207.23155651282
 30
0.0
 11
53.54985328722645
 21
207.23155651282
 31
0.0
  0
LINE
  5
8592
  8
0
 10
53.54985328722645
 20
207.23155651282
 30
0.0
 11
53.54985328722645
 21
207.5659118628199
 31
0.0
  0
LINE
  5
8593
  8
0
 10
53.54985328722645
 20
207.5659118628199
 30
0.0
 11
53.21549698722646
 21
207.5659118628199
 31
0.0
  0
LINE
  5
8594
  8
0
 10
53.21549698722646
 20
207.5659118628199
 30
0.0
 11
53.21549698722646
 21
207.23155651282
 31
0.0
  0
LINE
  5
8595
  8
0
 10
42.86866698722645
 20
206.89753651282
 30
0.0
 11
43.53589378722646
 21
206.89753651282
 31
0.0
  0
LINE
  5
8596
  8
0
 10
43.53589378722646
 20
206.89753651282
 30
0.0
 11
43.53589378722646
 21
207.2315213628199
 31
0.0
  0
LINE
  5
8597
  8
0
 10
43.53589378722646
 20
207.2315213628199
 30
0.0
 11
42.86866698722645
 21
207.2315213628199
 31
0.0
  0
LINE
  5
8598
  8
0
 10
42.86866698722645
 20
207.2315213628199
 30
0.0
 11
42.86866698722645
 21
206.89753651282
 31
0.0
  0
LINE
  5
8599
  8
0
 10
43.86949198722647
 20
206.89753651282
 30
0.0
 11
44.20347588722646
 21
206.89753651282
 31
0.0
  0
LINE
  5
859A
  8
0
 10
44.20347588722646
 20
206.89753651282
 30
0.0
 11
44.20347588722646
 21
207.2315213628199
 31
0.0
  0
LINE
  5
859B
  8
0
 10
44.20347588722646
 20
207.2315213628199
 30
0.0
 11
43.86949198722647
 21
207.2315213628199
 31
0.0
  0
LINE
  5
859C
  8
0
 10
43.86949198722647
 20
207.2315213628199
 30
0.0
 11
43.86949198722647
 21
206.89753651282
 31
0.0
  0
LINE
  5
859D
  8
0
 10
46.20592198722645
 20
206.89753651282
 30
0.0
 11
46.53990588722647
 21
206.89753651282
 31
0.0
  0
LINE
  5
859E
  8
0
 10
46.53990588722647
 20
206.89753651282
 30
0.0
 11
46.53990588722647
 21
207.2315213628199
 31
0.0
  0
LINE
  5
859F
  8
0
 10
46.53990588722647
 20
207.2315213628199
 30
0.0
 11
46.20592198722645
 21
207.2315213628199
 31
0.0
  0
LINE
  5
85A0
  8
0
 10
46.20592198722645
 20
207.2315213628199
 30
0.0
 11
46.20592198722645
 21
206.89753651282
 31
0.0
  0
LINE
  5
85A1
  8
0
 10
46.87348698722644
 20
206.89753651282
 30
0.0
 11
49.87749148722645
 21
206.89753651282
 31
0.0
  0
LINE
  5
85A2
  8
0
 10
49.87749148722645
 20
206.89753651282
 30
0.0
 11
49.87749148722645
 21
207.2315213628199
 31
0.0
  0
LINE
  5
85A3
  8
0
 10
49.87749148722645
 20
207.2315213628199
 30
0.0
 11
46.87348698722644
 21
207.2315213628199
 31
0.0
  0
LINE
  5
85A4
  8
0
 10
46.87348698722644
 20
207.2315213628199
 30
0.0
 11
46.87348698722644
 21
206.89753651282
 31
0.0
  0
LINE
  5
85A5
  8
0
 10
50.21150198722646
 20
206.89753651282
 30
0.0
 11
51.54669848722645
 21
206.89753651282
 31
0.0
  0
LINE
  5
85A6
  8
0
 10
51.54669848722645
 20
206.89753651282
 30
0.0
 11
51.54669848722645
 21
207.2315213628199
 31
0.0
  0
LINE
  5
85A7
  8
0
 10
51.54669848722645
 20
207.2315213628199
 30
0.0
 11
50.21150198722646
 21
207.2315213628199
 31
0.0
  0
LINE
  5
85A8
  8
0
 10
50.21150198722646
 20
207.2315213628199
 30
0.0
 11
50.21150198722646
 21
206.89753651282
 31
0.0
  0
LINE
  5
85A9
  8
0
 10
52.21391198722645
 20
206.89753651282
 30
0.0
 11
52.88150928722644
 21
206.89753651282
 31
0.0
  0
LINE
  5
85AA
  8
0
 10
52.88150928722644
 20
206.89753651282
 30
0.0
 11
52.88150928722644
 21
207.2315213628199
 31
0.0
  0
LINE
  5
85AB
  8
0
 10
52.88150928722644
 20
207.2315213628199
 30
0.0
 11
52.21391198722645
 21
207.2315213628199
 31
0.0
  0
LINE
  5
85AC
  8
0
 10
52.21391198722645
 20
207.2315213628199
 30
0.0
 11
52.21391198722645
 21
206.89753651282
 31
0.0
  0
LINE
  5
85AD
  8
0
 10
53.21549698722646
 20
206.89753651282
 30
0.0
 11
53.54985328722645
 21
206.89753651282
 31
0.0
  0
LINE
  5
85AE
  8
0
 10
53.54985328722645
 20
206.89753651282
 30
0.0
 11
53.54985328722645
 21
207.2315213628199
 31
0.0
  0
LINE
  5
85AF
  8
0
 10
53.54985328722645
 20
207.2315213628199
 30
0.0
 11
53.21549698722646
 21
207.2315213628199
 31
0.0
  0
LINE
  5
85B0
  8
0
 10
53.21549698722646
 20
207.2315213628199
 30
0.0
 11
53.21549698722646
 21
206.89753651282
 31
0.0
  0
LINE
  5
85B1
  8
0
 10
43.20192698722644
 20
206.56427651282
 30
0.0
 11
43.53628328722644
 21
206.56427651282
 31
0.0
  0
LINE
  5
85B2
  8
0
 10
43.53628328722644
 20
206.56427651282
 30
0.0
 11
43.53628328722644
 21
206.8982604128199
 31
0.0
  0
LINE
  5
85B3
  8
0
 10
43.53628328722644
 20
206.8982604128199
 30
0.0
 11
43.20192698722644
 21
206.8982604128199
 31
0.0
  0
LINE
  5
85B4
  8
0
 10
43.20192698722644
 20
206.8982604128199
 30
0.0
 11
43.20192698722644
 21
206.56427651282
 31
0.0
  0
LINE
  5
85B5
  8
0
 10
43.86949198722647
 20
206.56427651282
 30
0.0
 11
44.20347588722646
 21
206.56427651282
 31
0.0
  0
LINE
  5
85B6
  8
0
 10
44.20347588722646
 20
206.56427651282
 30
0.0
 11
44.20347588722646
 21
206.8982604128199
 31
0.0
  0
LINE
  5
85B7
  8
0
 10
44.20347588722646
 20
206.8982604128199
 30
0.0
 11
43.86949198722647
 21
206.8982604128199
 31
0.0
  0
LINE
  5
85B8
  8
0
 10
43.86949198722647
 20
206.8982604128199
 30
0.0
 11
43.86949198722647
 21
206.56427651282
 31
0.0
  0
LINE
  5
85B9
  8
0
 10
44.53743698722644
 20
206.56427651282
 30
0.0
 11
46.54022698722645
 21
206.56427651282
 31
0.0
  0
LINE
  5
85BA
  8
0
 10
46.54022698722645
 20
206.56427651282
 30
0.0
 11
46.54022698722645
 21
206.8982604128199
 31
0.0
  0
LINE
  5
85BB
  8
0
 10
46.54022698722645
 20
206.8982604128199
 30
0.0
 11
44.53743698722644
 21
206.8982604128199
 31
0.0
  0
LINE
  5
85BC
  8
0
 10
44.53743698722644
 20
206.8982604128199
 30
0.0
 11
44.53743698722644
 21
206.56427651282
 31
0.0
  0
LINE
  5
85BD
  8
0
 10
46.87348698722644
 20
206.56427651282
 30
0.0
 11
47.20747183722645
 21
206.56427651282
 31
0.0
  0
LINE
  5
85BE
  8
0
 10
47.20747183722645
 20
206.56427651282
 30
0.0
 11
47.20747183722645
 21
206.8982604128199
 31
0.0
  0
LINE
  5
85BF
  8
0
 10
47.20747183722645
 20
206.8982604128199
 30
0.0
 11
46.87348698722644
 21
206.8982604128199
 31
0.0
  0
LINE
  5
85C0
  8
0
 10
46.87348698722644
 20
206.8982604128199
 30
0.0
 11
46.87348698722644
 21
206.56427651282
 31
0.0
  0
LINE
  5
85C1
  8
0
 10
47.54152698722646
 20
206.56427651282
 30
0.0
 11
48.20912523722643
 21
206.56427651282
 31
0.0
  0
LINE
  5
85C2
  8
0
 10
48.20912523722643
 20
206.56427651282
 30
0.0
 11
48.20912523722643
 21
206.8982604128199
 31
0.0
  0
LINE
  5
85C3
  8
0
 10
48.20912523722643
 20
206.8982604128199
 30
0.0
 11
47.54152698722646
 21
206.8982604128199
 31
0.0
  0
LINE
  5
85C4
  8
0
 10
47.54152698722646
 20
206.8982604128199
 30
0.0
 11
47.54152698722646
 21
206.56427651282
 31
0.0
  0
LINE
  5
85C5
  8
0
 10
48.87665698722645
 20
206.56427651282
 30
0.0
 11
49.21064088722645
 21
206.56427651282
 31
0.0
  0
LINE
  5
85C6
  8
0
 10
49.21064088722645
 20
206.56427651282
 30
0.0
 11
49.21064088722645
 21
206.8982604128199
 31
0.0
  0
LINE
  5
85C7
  8
0
 10
49.21064088722645
 20
206.8982604128199
 30
0.0
 11
48.87665698722645
 21
206.8982604128199
 31
0.0
  0
LINE
  5
85C8
  8
0
 10
48.87665698722645
 20
206.8982604128199
 30
0.0
 11
48.87665698722645
 21
206.56427651282
 31
0.0
  0
LINE
  5
85C9
  8
0
 10
50.21150198722646
 20
206.56427651282
 30
0.0
 11
50.54585733722647
 21
206.56427651282
 31
0.0
  0
LINE
  5
85CA
  8
0
 10
50.54585733722647
 20
206.56427651282
 30
0.0
 11
50.54585733722647
 21
206.8982604128199
 31
0.0
  0
LINE
  5
85CB
  8
0
 10
50.54585733722647
 20
206.8982604128199
 30
0.0
 11
50.21150198722646
 21
206.8982604128199
 31
0.0
  0
LINE
  5
85CC
  8
0
 10
50.21150198722646
 20
206.8982604128199
 30
0.0
 11
50.21150198722646
 21
206.56427651282
 31
0.0
  0
LINE
  5
85CD
  8
0
 10
51.54672698722644
 20
206.56427651282
 30
0.0
 11
51.88071088722646
 21
206.56427651282
 31
0.0
  0
LINE
  5
85CE
  8
0
 10
51.88071088722646
 20
206.56427651282
 30
0.0
 11
51.88071088722646
 21
206.8982604128199
 31
0.0
  0
LINE
  5
85CF
  8
0
 10
51.88071088722646
 20
206.8982604128199
 30
0.0
 11
51.54672698722644
 21
206.8982604128199
 31
0.0
  0
LINE
  5
85D0
  8
0
 10
51.54672698722644
 20
206.8982604128199
 30
0.0
 11
51.54672698722644
 21
206.56427651282
 31
0.0
  0
LINE
  5
85D1
  8
0
 10
52.21391198722645
 20
206.56427651282
 30
0.0
 11
52.88150928722644
 21
206.56427651282
 31
0.0
  0
LINE
  5
85D2
  8
0
 10
52.88150928722644
 20
206.56427651282
 30
0.0
 11
52.88150928722644
 21
206.8982604128199
 31
0.0
  0
LINE
  5
85D3
  8
0
 10
52.88150928722644
 20
206.8982604128199
 30
0.0
 11
52.21391198722645
 21
206.8982604128199
 31
0.0
  0
LINE
  5
85D4
  8
0
 10
52.21391198722645
 20
206.8982604128199
 30
0.0
 11
52.21391198722645
 21
206.56427651282
 31
0.0
  0
LINE
  5
85D5
  8
0
 10
53.21549698722646
 20
206.56427651282
 30
0.0
 11
53.54985328722645
 21
206.56427651282
 31
0.0
  0
LINE
  5
85D6
  8
0
 10
53.54985328722645
 20
206.56427651282
 30
0.0
 11
53.54985328722645
 21
206.8982604128199
 31
0.0
  0
LINE
  5
85D7
  8
0
 10
53.54985328722645
 20
206.8982604128199
 30
0.0
 11
53.21549698722646
 21
206.8982604128199
 31
0.0
  0
LINE
  5
85D8
  8
0
 10
53.21549698722646
 20
206.8982604128199
 30
0.0
 11
53.21549698722646
 21
206.56427651282
 31
0.0
  0
LINE
  5
85D9
  8
0
 10
42.86866698722645
 20
206.2303515128199
 30
0.0
 11
43.20265183722645
 21
206.2303515128199
 31
0.0
  0
LINE
  5
85DA
  8
0
 10
43.20265183722645
 20
206.2303515128199
 30
0.0
 11
43.20265183722645
 21
206.5643363628199
 31
0.0
  0
LINE
  5
85DB
  8
0
 10
43.20265183722645
 20
206.5643363628199
 30
0.0
 11
42.86866698722645
 21
206.5643363628199
 31
0.0
  0
LINE
  5
85DC
  8
0
 10
42.86866698722645
 20
206.5643363628199
 30
0.0
 11
42.86866698722645
 21
206.2303515128199
 31
0.0
  0
LINE
  5
85DD
  8
0
 10
43.53585198722647
 20
206.2303515128199
 30
0.0
 11
44.53743698722644
 21
206.2303515128199
 31
0.0
  0
LINE
  5
85DE
  8
0
 10
44.53743698722644
 20
206.2303515128199
 30
0.0
 11
44.53743698722644
 21
206.5643363628199
 31
0.0
  0
LINE
  5
85DF
  8
0
 10
44.53743698722644
 20
206.5643363628199
 30
0.0
 11
43.53585198722647
 21
206.5643363628199
 31
0.0
  0
LINE
  5
85E0
  8
0
 10
43.53585198722647
 20
206.5643363628199
 30
0.0
 11
43.53585198722647
 21
206.2303515128199
 31
0.0
  0
LINE
  5
85E1
  8
0
 10
44.87107698722644
 20
206.2303515128199
 30
0.0
 11
45.53867428722643
 21
206.2303515128199
 31
0.0
  0
LINE
  5
85E2
  8
0
 10
45.53867428722643
 20
206.2303515128199
 30
0.0
 11
45.53867428722643
 21
206.5643363628199
 31
0.0
  0
LINE
  5
85E3
  8
0
 10
45.53867428722643
 20
206.5643363628199
 30
0.0
 11
44.87107698722644
 21
206.5643363628199
 31
0.0
  0
LINE
  5
85E4
  8
0
 10
44.87107698722644
 20
206.5643363628199
 30
0.0
 11
44.87107698722644
 21
206.2303515128199
 31
0.0
  0
LINE
  5
85E5
  8
0
 10
45.87266198722645
 20
206.2303515128199
 30
0.0
 11
46.20664588722647
 21
206.2303515128199
 31
0.0
  0
LINE
  5
85E6
  8
0
 10
46.20664588722647
 20
206.2303515128199
 30
0.0
 11
46.20664588722647
 21
206.5643363628199
 31
0.0
  0
LINE
  5
85E7
  8
0
 10
46.20664588722647
 20
206.5643363628199
 30
0.0
 11
45.87266198722645
 21
206.5643363628199
 31
0.0
  0
LINE
  5
85E8
  8
0
 10
45.87266198722645
 20
206.5643363628199
 30
0.0
 11
45.87266198722645
 21
206.2303515128199
 31
0.0
  0
LINE
  5
85E9
  8
0
 10
47.54152698722646
 20
206.2303515128199
 30
0.0
 11
49.87830848722646
 21
206.2303515128199
 31
0.0
  0
LINE
  5
85EA
  8
0
 10
49.87830848722646
 20
206.2303515128199
 30
0.0
 11
49.87830848722646
 21
206.5643363628199
 31
0.0
  0
LINE
  5
85EB
  8
0
 10
49.87830848722646
 20
206.5643363628199
 30
0.0
 11
47.54152698722646
 21
206.5643363628199
 31
0.0
  0
LINE
  5
85EC
  8
0
 10
47.54152698722646
 20
206.5643363628199
 30
0.0
 11
47.54152698722646
 21
206.2303515128199
 31
0.0
  0
LINE
  5
85ED
  8
0
 10
50.21150198722646
 20
206.2303515128199
 30
0.0
 11
50.54585733722647
 21
206.2303515128199
 31
0.0
  0
LINE
  5
85EE
  8
0
 10
50.54585733722647
 20
206.2303515128199
 30
0.0
 11
50.54585733722647
 21
206.5643363628199
 31
0.0
  0
LINE
  5
85EF
  8
0
 10
50.54585733722647
 20
206.5643363628199
 30
0.0
 11
50.21150198722646
 21
206.5643363628199
 31
0.0
  0
LINE
  5
85F0
  8
0
 10
50.21150198722646
 20
206.5643363628199
 30
0.0
 11
50.21150198722646
 21
206.2303515128199
 31
0.0
  0
LINE
  5
85F1
  8
0
 10
50.87906698722645
 20
206.2303515128199
 30
0.0
 11
51.21305183722646
 21
206.2303515128199
 31
0.0
  0
LINE
  5
85F2
  8
0
 10
51.21305183722646
 20
206.2303515128199
 30
0.0
 11
51.21305183722646
 21
206.5643363628199
 31
0.0
  0
LINE
  5
85F3
  8
0
 10
51.21305183722646
 20
206.5643363628199
 30
0.0
 11
50.87906698722645
 21
206.5643363628199
 31
0.0
  0
LINE
  5
85F4
  8
0
 10
50.87906698722645
 20
206.5643363628199
 30
0.0
 11
50.87906698722645
 21
206.2303515128199
 31
0.0
  0
LINE
  5
85F5
  8
0
 10
51.88065198722646
 20
206.2303515128199
 30
0.0
 11
52.88223698722643
 21
206.2303515128199
 31
0.0
  0
LINE
  5
85F6
  8
0
 10
52.88223698722643
 20
206.2303515128199
 30
0.0
 11
52.88223698722643
 21
206.5643363628199
 31
0.0
  0
LINE
  5
85F7
  8
0
 10
52.88223698722643
 20
206.5643363628199
 30
0.0
 11
51.88065198722646
 21
206.5643363628199
 31
0.0
  0
LINE
  5
85F8
  8
0
 10
51.88065198722646
 20
206.5643363628199
 30
0.0
 11
51.88065198722646
 21
206.2303515128199
 31
0.0
  0
LINE
  5
85F9
  8
0
 10
53.21549698722646
 20
206.2303515128199
 30
0.0
 11
53.54985328722645
 21
206.2303515128199
 31
0.0
  0
LINE
  5
85FA
  8
0
 10
53.54985328722645
 20
206.2303515128199
 30
0.0
 11
53.54985328722645
 21
206.5643363628199
 31
0.0
  0
LINE
  5
85FB
  8
0
 10
53.54985328722645
 20
206.5643363628199
 30
0.0
 11
53.21549698722646
 21
206.5643363628199
 31
0.0
  0
LINE
  5
85FC
  8
0
 10
53.21549698722646
 20
206.5643363628199
 30
0.0
 11
53.21549698722646
 21
206.2303515128199
 31
0.0
  0
LINE
  5
85FD
  8
0
 10
42.53436198722645
 20
205.8959515128199
 30
0.0
 11
43.86955848722644
 21
205.8959515128199
 31
0.0
  0
LINE
  5
85FE
  8
0
 10
43.86955848722644
 20
205.8959515128199
 30
0.0
 11
43.86955848722644
 21
206.2303068628199
 31
0.0
  0
LINE
  5
85FF
  8
0
 10
43.86955848722644
 20
206.2303068628199
 30
0.0
 11
42.53436198722645
 21
206.2303068628199
 31
0.0
  0
LINE
  5
8600
  8
0
 10
42.53436198722645
 20
206.2303068628199
 30
0.0
 11
42.53436198722645
 21
205.8959515128199
 31
0.0
  0
LINE
  5
8601
  8
0
 10
44.53743698722644
 20
205.8959515128199
 30
0.0
 11
44.87142088722644
 21
205.8959515128199
 31
0.0
  0
LINE
  5
8602
  8
0
 10
44.87142088722644
 20
205.8959515128199
 30
0.0
 11
44.87142088722644
 21
206.2303068628199
 31
0.0
  0
LINE
  5
8603
  8
0
 10
44.87142088722644
 20
206.2303068628199
 30
0.0
 11
44.53743698722644
 21
206.2303068628199
 31
0.0
  0
LINE
  5
8604
  8
0
 10
44.53743698722644
 20
206.2303068628199
 30
0.0
 11
44.53743698722644
 21
205.8959515128199
 31
0.0
  0
LINE
  5
8605
  8
0
 10
45.20509698722645
 20
205.8959515128199
 30
0.0
 11
45.53908183722646
 21
205.8959515128199
 31
0.0
  0
LINE
  5
8606
  8
0
 10
45.53908183722646
 20
205.8959515128199
 30
0.0
 11
45.53908183722646
 21
206.2303068628199
 31
0.0
  0
LINE
  5
8607
  8
0
 10
45.53908183722646
 20
206.2303068628199
 30
0.0
 11
45.20509698722645
 21
206.2303068628199
 31
0.0
  0
LINE
  5
8608
  8
0
 10
45.20509698722645
 20
206.2303068628199
 30
0.0
 11
45.20509698722645
 21
205.8959515128199
 31
0.0
  0
LINE
  5
8609
  8
0
 10
45.87266198722645
 20
205.8959515128199
 30
0.0
 11
46.20664588722647
 21
205.8959515128199
 31
0.0
  0
LINE
  5
860A
  8
0
 10
46.20664588722647
 20
205.8959515128199
 30
0.0
 11
46.20664588722647
 21
206.2303068628199
 31
0.0
  0
LINE
  5
860B
  8
0
 10
46.20664588722647
 20
206.2303068628199
 30
0.0
 11
45.87266198722645
 21
206.2303068628199
 31
0.0
  0
LINE
  5
860C
  8
0
 10
45.87266198722645
 20
206.2303068628199
 30
0.0
 11
45.87266198722645
 21
205.8959515128199
 31
0.0
  0
LINE
  5
860D
  8
0
 10
46.54032198722646
 20
205.8959515128199
 30
0.0
 11
47.54153648722647
 21
205.8959515128199
 31
0.0
  0
LINE
  5
860E
  8
0
 10
47.54153648722647
 20
205.8959515128199
 30
0.0
 11
47.54153648722647
 21
206.2303068628199
 31
0.0
  0
LINE
  5
860F
  8
0
 10
47.54153648722647
 20
206.2303068628199
 30
0.0
 11
46.54032198722646
 21
206.2303068628199
 31
0.0
  0
LINE
  5
8610
  8
0
 10
46.54032198722646
 20
206.2303068628199
 30
0.0
 11
46.54032198722646
 21
205.8959515128199
 31
0.0
  0
LINE
  5
8611
  8
0
 10
47.87507198722645
 20
205.8959515128199
 30
0.0
 11
48.20905683722646
 21
205.8959515128199
 31
0.0
  0
LINE
  5
8612
  8
0
 10
48.20905683722646
 20
205.8959515128199
 30
0.0
 11
48.20905683722646
 21
206.2303068628199
 31
0.0
  0
LINE
  5
8613
  8
0
 10
48.20905683722646
 20
206.2303068628199
 30
0.0
 11
47.87507198722645
 21
206.2303068628199
 31
0.0
  0
LINE
  5
8614
  8
0
 10
47.87507198722645
 20
206.2303068628199
 30
0.0
 11
47.87507198722645
 21
205.8959515128199
 31
0.0
  0
LINE
  5
8615
  8
0
 10
49.20991698722645
 20
205.8959515128199
 30
0.0
 11
50.21150198722646
 21
205.8959515128199
 31
0.0
  0
LINE
  5
8616
  8
0
 10
50.21150198722646
 20
205.8959515128199
 30
0.0
 11
50.21150198722646
 21
206.2303068628199
 31
0.0
  0
LINE
  5
8617
  8
0
 10
50.21150198722646
 20
206.2303068628199
 30
0.0
 11
49.20991698722645
 21
206.2303068628199
 31
0.0
  0
LINE
  5
8618
  8
0
 10
49.20991698722645
 20
206.2303068628199
 30
0.0
 11
49.20991698722645
 21
205.8959515128199
 31
0.0
  0
LINE
  5
8619
  8
0
 10
50.87906698722645
 20
205.8959515128199
 30
0.0
 11
51.21305183722646
 21
205.8959515128199
 31
0.0
  0
LINE
  5
861A
  8
0
 10
51.21305183722646
 20
205.8959515128199
 30
0.0
 11
51.21305183722646
 21
206.2303068628199
 31
0.0
  0
LINE
  5
861B
  8
0
 10
51.21305183722646
 20
206.2303068628199
 30
0.0
 11
50.87906698722645
 21
206.2303068628199
 31
0.0
  0
LINE
  5
861C
  8
0
 10
50.87906698722645
 20
206.2303068628199
 30
0.0
 11
50.87906698722645
 21
205.8959515128199
 31
0.0
  0
LINE
  5
861D
  8
0
 10
51.88065198722646
 20
205.8959515128199
 30
0.0
 11
52.54787878722647
 21
205.8959515128199
 31
0.0
  0
LINE
  5
861E
  8
0
 10
52.54787878722647
 20
205.8959515128199
 30
0.0
 11
52.54787878722647
 21
206.2303068628199
 31
0.0
  0
LINE
  5
861F
  8
0
 10
52.54787878722647
 20
206.2303068628199
 30
0.0
 11
51.88065198722646
 21
206.2303068628199
 31
0.0
  0
LINE
  5
8620
  8
0
 10
51.88065198722646
 20
206.2303068628199
 30
0.0
 11
51.88065198722646
 21
205.8959515128199
 31
0.0
  0
LINE
  5
8621
  8
0
 10
42.53436198722645
 20
205.5626915128199
 30
0.0
 11
43.20195928722643
 21
205.5626915128199
 31
0.0
  0
LINE
  5
8622
  8
0
 10
43.20195928722643
 20
205.5626915128199
 30
0.0
 11
43.20195928722643
 21
205.89667636282
 31
0.0
  0
LINE
  5
8623
  8
0
 10
43.20195928722643
 20
205.89667636282
 30
0.0
 11
42.53436198722645
 21
205.89667636282
 31
0.0
  0
LINE
  5
8624
  8
0
 10
42.53436198722645
 20
205.89667636282
 30
0.0
 11
42.53436198722645
 21
205.5626915128199
 31
0.0
  0
LINE
  5
8625
  8
0
 10
43.53585198722647
 20
205.5626915128199
 30
0.0
 11
43.86983588722646
 21
205.5626915128199
 31
0.0
  0
LINE
  5
8626
  8
0
 10
43.86983588722646
 20
205.5626915128199
 30
0.0
 11
43.86983588722646
 21
205.89667636282
 31
0.0
  0
LINE
  5
8627
  8
0
 10
43.86983588722646
 20
205.89667636282
 30
0.0
 11
43.53585198722647
 21
205.89667636282
 31
0.0
  0
LINE
  5
8628
  8
0
 10
43.53585198722647
 20
205.89667636282
 30
0.0
 11
43.53585198722647
 21
205.5626915128199
 31
0.0
  0
LINE
  5
8629
  8
0
 10
44.20351198722645
 20
205.5626915128199
 30
0.0
 11
44.53749683722646
 21
205.5626915128199
 31
0.0
  0
LINE
  5
862A
  8
0
 10
44.53749683722646
 20
205.5626915128199
 30
0.0
 11
44.53749683722646
 21
205.89667636282
 31
0.0
  0
LINE
  5
862B
  8
0
 10
44.53749683722646
 20
205.89667636282
 30
0.0
 11
44.20351198722645
 21
205.89667636282
 31
0.0
  0
LINE
  5
862C
  8
0
 10
44.20351198722645
 20
205.89667636282
 30
0.0
 11
44.20351198722645
 21
205.5626915128199
 31
0.0
  0
LINE
  5
862D
  8
0
 10
45.20509698722645
 20
205.5626915128199
 30
0.0
 11
45.53908183722646
 21
205.5626915128199
 31
0.0
  0
LINE
  5
862E
  8
0
 10
45.53908183722646
 20
205.5626915128199
 30
0.0
 11
45.53908183722646
 21
205.89667636282
 31
0.0
  0
LINE
  5
862F
  8
0
 10
45.53908183722646
 20
205.89667636282
 30
0.0
 11
45.20509698722645
 21
205.89667636282
 31
0.0
  0
LINE
  5
8630
  8
0
 10
45.20509698722645
 20
205.89667636282
 30
0.0
 11
45.20509698722645
 21
205.5626915128199
 31
0.0
  0
LINE
  5
8631
  8
0
 10
45.87266198722645
 20
205.5626915128199
 30
0.0
 11
46.87387648722645
 21
205.5626915128199
 31
0.0
  0
LINE
  5
8632
  8
0
 10
46.87387648722645
 20
205.5626915128199
 30
0.0
 11
46.87387648722645
 21
205.89667636282
 31
0.0
  0
LINE
  5
8633
  8
0
 10
46.87387648722645
 20
205.89667636282
 30
0.0
 11
45.87266198722645
 21
205.89667636282
 31
0.0
  0
LINE
  5
8634
  8
0
 10
45.87266198722645
 20
205.89667636282
 30
0.0
 11
45.87266198722645
 21
205.5626915128199
 31
0.0
  0
LINE
  5
8635
  8
0
 10
47.20750698722645
 20
205.5626915128199
 30
0.0
 11
47.54149088722647
 21
205.5626915128199
 31
0.0
  0
LINE
  5
8636
  8
0
 10
47.54149088722647
 20
205.5626915128199
 30
0.0
 11
47.54149088722647
 21
205.89667636282
 31
0.0
  0
LINE
  5
8637
  8
0
 10
47.54149088722647
 20
205.89667636282
 30
0.0
 11
47.20750698722645
 21
205.89667636282
 31
0.0
  0
LINE
  5
8638
  8
0
 10
47.20750698722645
 20
205.89667636282
 30
0.0
 11
47.20750698722645
 21
205.5626915128199
 31
0.0
  0
LINE
  5
8639
  8
0
 10
47.87507198722645
 20
205.5626915128199
 30
0.0
 11
48.87665698722645
 21
205.5626915128199
 31
0.0
  0
LINE
  5
863A
  8
0
 10
48.87665698722645
 20
205.5626915128199
 30
0.0
 11
48.87665698722645
 21
205.89667636282
 31
0.0
  0
LINE
  5
863B
  8
0
 10
48.87665698722645
 20
205.89667636282
 30
0.0
 11
47.87507198722645
 21
205.89667636282
 31
0.0
  0
LINE
  5
863C
  8
0
 10
47.87507198722645
 20
205.89667636282
 30
0.0
 11
47.87507198722645
 21
205.5626915128199
 31
0.0
  0
LINE
  5
863D
  8
0
 10
49.20991698722645
 20
205.5626915128199
 30
0.0
 11
49.54427233722646
 21
205.5626915128199
 31
0.0
  0
LINE
  5
863E
  8
0
 10
49.54427233722646
 20
205.5626915128199
 30
0.0
 11
49.54427233722646
 21
205.89667636282
 31
0.0
  0
LINE
  5
863F
  8
0
 10
49.54427233722646
 20
205.89667636282
 30
0.0
 11
49.20991698722645
 21
205.89667636282
 31
0.0
  0
LINE
  5
8640
  8
0
 10
49.20991698722645
 20
205.89667636282
 30
0.0
 11
49.20991698722645
 21
205.5626915128199
 31
0.0
  0
LINE
  5
8641
  8
0
 10
49.87748198722645
 20
205.5626915128199
 30
0.0
 11
50.54507928722646
 21
205.5626915128199
 31
0.0
  0
LINE
  5
8642
  8
0
 10
50.54507928722646
 20
205.5626915128199
 30
0.0
 11
50.54507928722646
 21
205.89667636282
 31
0.0
  0
LINE
  5
8643
  8
0
 10
50.54507928722646
 20
205.89667636282
 30
0.0
 11
49.87748198722645
 21
205.89667636282
 31
0.0
  0
LINE
  5
8644
  8
0
 10
49.87748198722645
 20
205.89667636282
 30
0.0
 11
49.87748198722645
 21
205.5626915128199
 31
0.0
  0
LINE
  5
8645
  8
0
 10
51.54672698722644
 20
205.5626915128199
 30
0.0
 11
52.88155298722646
 21
205.5626915128199
 31
0.0
  0
LINE
  5
8646
  8
0
 10
52.88155298722646
 20
205.5626915128199
 30
0.0
 11
52.88155298722646
 21
205.89667636282
 31
0.0
  0
LINE
  5
8647
  8
0
 10
52.88155298722646
 20
205.89667636282
 30
0.0
 11
51.54672698722644
 21
205.89667636282
 31
0.0
  0
LINE
  5
8648
  8
0
 10
51.54672698722644
 20
205.89667636282
 30
0.0
 11
51.54672698722644
 21
205.5626915128199
 31
0.0
  0
LINE
  5
8649
  8
0
 10
42.53436198722645
 20
205.22876651282
 30
0.0
 11
42.86871733722646
 21
205.22876651282
 31
0.0
  0
LINE
  5
864A
  8
0
 10
42.86871733722646
 20
205.22876651282
 30
0.0
 11
42.86871733722646
 21
205.5627504128199
 31
0.0
  0
LINE
  5
864B
  8
0
 10
42.86871733722646
 20
205.5627504128199
 30
0.0
 11
42.53436198722645
 21
205.5627504128199
 31
0.0
  0
LINE
  5
864C
  8
0
 10
42.53436198722645
 20
205.5627504128199
 30
0.0
 11
42.53436198722645
 21
205.22876651282
 31
0.0
  0
LINE
  5
864D
  8
0
 10
43.20192698722644
 20
205.22876651282
 30
0.0
 11
43.53628328722644
 21
205.22876651282
 31
0.0
  0
LINE
  5
864E
  8
0
 10
43.53628328722644
 20
205.22876651282
 30
0.0
 11
43.53628328722644
 21
205.5627504128199
 31
0.0
  0
LINE
  5
864F
  8
0
 10
43.53628328722644
 20
205.5627504128199
 30
0.0
 11
43.20192698722644
 21
205.5627504128199
 31
0.0
  0
LINE
  5
8650
  8
0
 10
43.20192698722644
 20
205.5627504128199
 30
0.0
 11
43.20192698722644
 21
205.22876651282
 31
0.0
  0
LINE
  5
8651
  8
0
 10
43.86949198722647
 20
205.22876651282
 30
0.0
 11
44.87107698722644
 21
205.22876651282
 31
0.0
  0
LINE
  5
8652
  8
0
 10
44.87107698722644
 20
205.22876651282
 30
0.0
 11
44.87107698722644
 21
205.5627504128199
 31
0.0
  0
LINE
  5
8653
  8
0
 10
44.87107698722644
 20
205.5627504128199
 30
0.0
 11
43.86949198722647
 21
205.5627504128199
 31
0.0
  0
LINE
  5
8654
  8
0
 10
43.86949198722647
 20
205.5627504128199
 30
0.0
 11
43.86949198722647
 21
205.22876651282
 31
0.0
  0
LINE
  5
8655
  8
0
 10
45.53873698722643
 20
205.22876651282
 30
0.0
 11
45.87272183722644
 21
205.22876651282
 31
0.0
  0
LINE
  5
8656
  8
0
 10
45.87272183722644
 20
205.22876651282
 30
0.0
 11
45.87272183722644
 21
205.5627504128199
 31
0.0
  0
LINE
  5
8657
  8
0
 10
45.87272183722644
 20
205.5627504128199
 30
0.0
 11
45.53873698722643
 21
205.5627504128199
 31
0.0
  0
LINE
  5
8658
  8
0
 10
45.53873698722643
 20
205.5627504128199
 30
0.0
 11
45.53873698722643
 21
205.22876651282
 31
0.0
  0
LINE
  5
8659
  8
0
 10
46.20592198722645
 20
205.22876651282
 30
0.0
 11
46.53990588722647
 21
205.22876651282
 31
0.0
  0
LINE
  5
865A
  8
0
 10
46.53990588722647
 20
205.22876651282
 30
0.0
 11
46.53990588722647
 21
205.5627504128199
 31
0.0
  0
LINE
  5
865B
  8
0
 10
46.53990588722647
 20
205.5627504128199
 30
0.0
 11
46.20592198722645
 21
205.5627504128199
 31
0.0
  0
LINE
  5
865C
  8
0
 10
46.20592198722645
 20
205.5627504128199
 30
0.0
 11
46.20592198722645
 21
205.22876651282
 31
0.0
  0
LINE
  5
865D
  8
0
 10
47.54152698722646
 20
205.22876651282
 30
0.0
 11
48.54311198722644
 21
205.22876651282
 31
0.0
  0
LINE
  5
865E
  8
0
 10
48.54311198722644
 20
205.22876651282
 30
0.0
 11
48.54311198722644
 21
205.5627504128199
 31
0.0
  0
LINE
  5
865F
  8
0
 10
48.54311198722644
 20
205.5627504128199
 30
0.0
 11
47.54152698722646
 21
205.5627504128199
 31
0.0
  0
LINE
  5
8660
  8
0
 10
47.54152698722646
 20
205.5627504128199
 30
0.0
 11
47.54152698722646
 21
205.22876651282
 31
0.0
  0
LINE
  5
8661
  8
0
 10
49.20991698722645
 20
205.22876651282
 30
0.0
 11
49.87751523722645
 21
205.22876651282
 31
0.0
  0
LINE
  5
8662
  8
0
 10
49.87751523722645
 20
205.22876651282
 30
0.0
 11
49.87751523722645
 21
205.5627504128199
 31
0.0
  0
LINE
  5
8663
  8
0
 10
49.87751523722645
 20
205.5627504128199
 30
0.0
 11
49.20991698722645
 21
205.5627504128199
 31
0.0
  0
LINE
  5
8664
  8
0
 10
49.20991698722645
 20
205.5627504128199
 30
0.0
 11
49.20991698722645
 21
205.22876651282
 31
0.0
  0
LINE
  5
8665
  8
0
 10
50.54590198722644
 20
205.22876651282
 30
0.0
 11
51.21312878722645
 21
205.22876651282
 31
0.0
  0
LINE
  5
8666
  8
0
 10
51.21312878722645
 20
205.22876651282
 30
0.0
 11
51.21312878722645
 21
205.5627504128199
 31
0.0
  0
LINE
  5
8667
  8
0
 10
51.21312878722645
 20
205.5627504128199
 30
0.0
 11
50.54590198722644
 21
205.5627504128199
 31
0.0
  0
LINE
  5
8668
  8
0
 10
50.54590198722644
 20
205.5627504128199
 30
0.0
 11
50.54590198722644
 21
205.22876651282
 31
0.0
  0
LINE
  5
8669
  8
0
 10
51.54672698722644
 20
205.22876651282
 30
0.0
 11
51.88071088722646
 21
205.22876651282
 31
0.0
  0
LINE
  5
866A
  8
0
 10
51.88071088722646
 20
205.22876651282
 30
0.0
 11
51.88071088722646
 21
205.5627504128199
 31
0.0
  0
LINE
  5
866B
  8
0
 10
51.88071088722646
 20
205.5627504128199
 30
0.0
 11
51.54672698722644
 21
205.5627504128199
 31
0.0
  0
LINE
  5
866C
  8
0
 10
51.54672698722644
 20
205.5627504128199
 30
0.0
 11
51.54672698722644
 21
205.22876651282
 31
0.0
  0
LINE
  5
866D
  8
0
 10
52.21391198722645
 20
205.22876651282
 30
0.0
 11
53.21549698722646
 21
205.22876651282
 31
0.0
  0
LINE
  5
866E
  8
0
 10
53.21549698722646
 20
205.22876651282
 30
0.0
 11
53.21549698722646
 21
205.5627504128199
 31
0.0
  0
LINE
  5
866F
  8
0
 10
53.21549698722646
 20
205.5627504128199
 30
0.0
 11
52.21391198722645
 21
205.5627504128199
 31
0.0
  0
LINE
  5
8670
  8
0
 10
52.21391198722645
 20
205.5627504128199
 30
0.0
 11
52.21391198722645
 21
205.22876651282
 31
0.0
  0
LINE
  5
8671
  8
0
 10
42.53436198722645
 20
204.89512651282
 30
0.0
 11
42.86871733722646
 21
204.89512651282
 31
0.0
  0
LINE
  5
8672
  8
0
 10
42.86871733722646
 20
204.89512651282
 30
0.0
 11
42.86871733722646
 21
205.2291104128199
 31
0.0
  0
LINE
  5
8673
  8
0
 10
42.86871733722646
 20
205.2291104128199
 30
0.0
 11
42.53436198722645
 21
205.2291104128199
 31
0.0
  0
LINE
  5
8674
  8
0
 10
42.53436198722645
 20
205.2291104128199
 30
0.0
 11
42.53436198722645
 21
204.89512651282
 31
0.0
  0
LINE
  5
8675
  8
0
 10
43.86949198722647
 20
204.89512651282
 30
0.0
 11
44.53708928722645
 21
204.89512651282
 31
0.0
  0
LINE
  5
8676
  8
0
 10
44.53708928722645
 20
204.89512651282
 30
0.0
 11
44.53708928722645
 21
205.2291104128199
 31
0.0
  0
LINE
  5
8677
  8
0
 10
44.53708928722645
 20
205.2291104128199
 30
0.0
 11
43.86949198722647
 21
205.2291104128199
 31
0.0
  0
LINE
  5
8678
  8
0
 10
43.86949198722647
 20
205.2291104128199
 30
0.0
 11
43.86949198722647
 21
204.89512651282
 31
0.0
  0
LINE
  5
8679
  8
0
 10
44.87107698722644
 20
204.89512651282
 30
0.0
 11
46.87349648722645
 21
204.89512651282
 31
0.0
  0
LINE
  5
867A
  8
0
 10
46.87349648722645
 20
204.89512651282
 30
0.0
 11
46.87349648722645
 21
205.2291104128199
 31
0.0
  0
LINE
  5
867B
  8
0
 10
46.87349648722645
 20
205.2291104128199
 30
0.0
 11
44.87107698722644
 21
205.2291104128199
 31
0.0
  0
LINE
  5
867C
  8
0
 10
44.87107698722644
 20
205.2291104128199
 30
0.0
 11
44.87107698722644
 21
204.89512651282
 31
0.0
  0
LINE
  5
867D
  8
0
 10
48.54273198722646
 20
204.89512651282
 30
0.0
 11
48.87671683722644
 21
204.89512651282
 31
0.0
  0
LINE
  5
867E
  8
0
 10
48.87671683722644
 20
204.89512651282
 30
0.0
 11
48.87671683722644
 21
205.2291104128199
 31
0.0
  0
LINE
  5
867F
  8
0
 10
48.87671683722644
 20
205.2291104128199
 30
0.0
 11
48.54273198722646
 21
205.2291104128199
 31
0.0
  0
LINE
  5
8680
  8
0
 10
48.54273198722646
 20
205.2291104128199
 30
0.0
 11
48.54273198722646
 21
204.89512651282
 31
0.0
  0
LINE
  5
8681
  8
0
 10
49.87748198722645
 20
204.89512651282
 30
0.0
 11
50.54507928722646
 21
204.89512651282
 31
0.0
  0
LINE
  5
8682
  8
0
 10
50.54507928722646
 20
204.89512651282
 30
0.0
 11
50.54507928722646
 21
205.2291104128199
 31
0.0
  0
LINE
  5
8683
  8
0
 10
50.54507928722646
 20
205.2291104128199
 30
0.0
 11
49.87748198722645
 21
205.2291104128199
 31
0.0
  0
LINE
  5
8684
  8
0
 10
49.87748198722645
 20
205.2291104128199
 30
0.0
 11
49.87748198722645
 21
204.89512651282
 31
0.0
  0
LINE
  5
8685
  8
0
 10
50.87906698722645
 20
204.89512651282
 30
0.0
 11
51.88065198722646
 21
204.89512651282
 31
0.0
  0
LINE
  5
8686
  8
0
 10
51.88065198722646
 20
204.89512651282
 30
0.0
 11
51.88065198722646
 21
205.2291104128199
 31
0.0
  0
LINE
  5
8687
  8
0
 10
51.88065198722646
 20
205.2291104128199
 30
0.0
 11
50.87906698722645
 21
205.2291104128199
 31
0.0
  0
LINE
  5
8688
  8
0
 10
50.87906698722645
 20
205.2291104128199
 30
0.0
 11
50.87906698722645
 21
204.89512651282
 31
0.0
  0
LINE
  5
8689
  8
0
 10
52.21391198722645
 20
204.89512651282
 30
0.0
 11
52.88150928722644
 21
204.89512651282
 31
0.0
  0
LINE
  5
868A
  8
0
 10
52.88150928722644
 20
204.89512651282
 30
0.0
 11
52.88150928722644
 21
205.2291104128199
 31
0.0
  0
LINE
  5
868B
  8
0
 10
52.88150928722644
 20
205.2291104128199
 30
0.0
 11
52.21391198722645
 21
205.2291104128199
 31
0.0
  0
LINE
  5
868C
  8
0
 10
52.21391198722645
 20
205.2291104128199
 30
0.0
 11
52.21391198722645
 21
204.89512651282
 31
0.0
  0
LINE
  5
868D
  8
0
 10
53.21549698722646
 20
204.89512651282
 30
0.0
 11
53.54985328722645
 21
204.89512651282
 31
0.0
  0
LINE
  5
868E
  8
0
 10
53.54985328722645
 20
204.89512651282
 30
0.0
 11
53.54985328722645
 21
205.2291104128199
 31
0.0
  0
LINE
  5
868F
  8
0
 10
53.54985328722645
 20
205.2291104128199
 30
0.0
 11
53.21549698722646
 21
205.2291104128199
 31
0.0
  0
LINE
  5
8690
  8
0
 10
53.21549698722646
 20
205.2291104128199
 30
0.0
 11
53.21549698722646
 21
204.89512651282
 31
0.0
  0
LINE
  5
8691
  8
0
 10
42.53436198722645
 20
204.5611065128199
 30
0.0
 11
43.20195928722643
 21
204.5611065128199
 31
0.0
  0
LINE
  5
8692
  8
0
 10
43.20195928722643
 20
204.5611065128199
 30
0.0
 11
43.20195928722643
 21
204.8950913628199
 31
0.0
  0
LINE
  5
8693
  8
0
 10
43.20195928722643
 20
204.8950913628199
 30
0.0
 11
42.53436198722645
 21
204.8950913628199
 31
0.0
  0
LINE
  5
8694
  8
0
 10
42.53436198722645
 20
204.8950913628199
 30
0.0
 11
42.53436198722645
 21
204.5611065128199
 31
0.0
  0
LINE
  5
8695
  8
0
 10
43.53585198722647
 20
204.5611065128199
 30
0.0
 11
43.86983588722646
 21
204.5611065128199
 31
0.0
  0
LINE
  5
8696
  8
0
 10
43.86983588722646
 20
204.5611065128199
 30
0.0
 11
43.86983588722646
 21
204.8950913628199
 31
0.0
  0
LINE
  5
8697
  8
0
 10
43.86983588722646
 20
204.8950913628199
 30
0.0
 11
43.53585198722647
 21
204.8950913628199
 31
0.0
  0
LINE
  5
8698
  8
0
 10
43.53585198722647
 20
204.8950913628199
 30
0.0
 11
43.53585198722647
 21
204.5611065128199
 31
0.0
  0
LINE
  5
8699
  8
0
 10
44.20351198722645
 20
204.5611065128199
 30
0.0
 11
46.20593148722645
 21
204.5611065128199
 31
0.0
  0
LINE
  5
869A
  8
0
 10
46.20593148722645
 20
204.5611065128199
 30
0.0
 11
46.20593148722645
 21
204.8950913628199
 31
0.0
  0
LINE
  5
869B
  8
0
 10
46.20593148722645
 20
204.8950913628199
 30
0.0
 11
44.20351198722645
 21
204.8950913628199
 31
0.0
  0
LINE
  5
869C
  8
0
 10
44.20351198722645
 20
204.8950913628199
 30
0.0
 11
44.20351198722645
 21
204.5611065128199
 31
0.0
  0
LINE
  5
869D
  8
0
 10
47.54152698722646
 20
204.5611065128199
 30
0.0
 11
48.20912523722643
 21
204.5611065128199
 31
0.0
  0
LINE
  5
869E
  8
0
 10
48.20912523722643
 20
204.5611065128199
 30
0.0
 11
48.20912523722643
 21
204.8950913628199
 31
0.0
  0
LINE
  5
869F
  8
0
 10
48.20912523722643
 20
204.8950913628199
 30
0.0
 11
47.54152698722646
 21
204.8950913628199
 31
0.0
  0
LINE
  5
86A0
  8
0
 10
47.54152698722646
 20
204.8950913628199
 30
0.0
 11
47.54152698722646
 21
204.5611065128199
 31
0.0
  0
LINE
  5
86A1
  8
0
 10
48.87665698722645
 20
204.5611065128199
 30
0.0
 11
49.54425428722644
 21
204.5611065128199
 31
0.0
  0
LINE
  5
86A2
  8
0
 10
49.54425428722644
 20
204.5611065128199
 30
0.0
 11
49.54425428722644
 21
204.8950913628199
 31
0.0
  0
LINE
  5
86A3
  8
0
 10
49.54425428722644
 20
204.8950913628199
 30
0.0
 11
48.87665698722645
 21
204.8950913628199
 31
0.0
  0
LINE
  5
86A4
  8
0
 10
48.87665698722645
 20
204.8950913628199
 30
0.0
 11
48.87665698722645
 21
204.5611065128199
 31
0.0
  0
LINE
  5
86A5
  8
0
 10
50.54590198722644
 20
204.5611065128199
 30
0.0
 11
52.54832148722645
 21
204.5611065128199
 31
0.0
  0
LINE
  5
86A6
  8
0
 10
52.54832148722645
 20
204.5611065128199
 30
0.0
 11
52.54832148722645
 21
204.8950913628199
 31
0.0
  0
LINE
  5
86A7
  8
0
 10
52.54832148722645
 20
204.8950913628199
 30
0.0
 11
50.54590198722644
 21
204.8950913628199
 31
0.0
  0
LINE
  5
86A8
  8
0
 10
50.54590198722644
 20
204.8950913628199
 30
0.0
 11
50.54590198722644
 21
204.5611065128199
 31
0.0
  0
LINE
  5
86A9
  8
0
 10
45.20509698722645
 20
204.2275615128199
 30
0.0
 11
45.53908183722646
 21
204.2275615128199
 31
0.0
  0
LINE
  5
86AA
  8
0
 10
45.53908183722646
 20
204.2275615128199
 30
0.0
 11
45.53908183722646
 21
204.56154636282
 31
0.0
  0
LINE
  5
86AB
  8
0
 10
45.53908183722646
 20
204.56154636282
 30
0.0
 11
45.20509698722645
 21
204.56154636282
 31
0.0
  0
LINE
  5
86AC
  8
0
 10
45.20509698722645
 20
204.56154636282
 30
0.0
 11
45.20509698722645
 21
204.2275615128199
 31
0.0
  0
LINE
  5
86AD
  8
0
 10
46.20592198722645
 20
204.2275615128199
 30
0.0
 11
46.53990588722647
 21
204.2275615128199
 31
0.0
  0
LINE
  5
86AE
  8
0
 10
46.53990588722647
 20
204.2275615128199
 30
0.0
 11
46.53990588722647
 21
204.56154636282
 31
0.0
  0
LINE
  5
86AF
  8
0
 10
46.53990588722647
 20
204.56154636282
 30
0.0
 11
46.20592198722645
 21
204.56154636282
 31
0.0
  0
LINE
  5
86B0
  8
0
 10
46.20592198722645
 20
204.56154636282
 30
0.0
 11
46.20592198722645
 21
204.2275615128199
 31
0.0
  0
LINE
  5
86B1
  8
0
 10
46.87348698722644
 20
204.2275615128199
 30
0.0
 11
47.20747183722645
 21
204.2275615128199
 31
0.0
  0
LINE
  5
86B2
  8
0
 10
47.20747183722645
 20
204.2275615128199
 30
0.0
 11
47.20747183722645
 21
204.56154636282
 31
0.0
  0
LINE
  5
86B3
  8
0
 10
47.20747183722645
 20
204.56154636282
 30
0.0
 11
46.87348698722644
 21
204.56154636282
 31
0.0
  0
LINE
  5
86B4
  8
0
 10
46.87348698722644
 20
204.56154636282
 30
0.0
 11
46.87348698722644
 21
204.2275615128199
 31
0.0
  0
LINE
  5
86B5
  8
0
 10
47.54152698722646
 20
204.2275615128199
 30
0.0
 11
47.87588233722647
 21
204.2275615128199
 31
0.0
  0
LINE
  5
86B6
  8
0
 10
47.87588233722647
 20
204.2275615128199
 30
0.0
 11
47.87588233722647
 21
204.56154636282
 31
0.0
  0
LINE
  5
86B7
  8
0
 10
47.87588233722647
 20
204.56154636282
 30
0.0
 11
47.54152698722646
 21
204.56154636282
 31
0.0
  0
LINE
  5
86B8
  8
0
 10
47.54152698722646
 20
204.56154636282
 30
0.0
 11
47.54152698722646
 21
204.2275615128199
 31
0.0
  0
LINE
  5
86B9
  8
0
 10
48.54273198722646
 20
204.2275615128199
 30
0.0
 11
49.54394648722646
 21
204.2275615128199
 31
0.0
  0
LINE
  5
86BA
  8
0
 10
49.54394648722646
 20
204.2275615128199
 30
0.0
 11
49.54394648722646
 21
204.56154636282
 31
0.0
  0
LINE
  5
86BB
  8
0
 10
49.54394648722646
 20
204.56154636282
 30
0.0
 11
48.54273198722646
 21
204.56154636282
 31
0.0
  0
LINE
  5
86BC
  8
0
 10
48.54273198722646
 20
204.56154636282
 30
0.0
 11
48.54273198722646
 21
204.2275615128199
 31
0.0
  0
LINE
  5
86BD
  8
0
 10
49.87748198722645
 20
204.2275615128199
 30
0.0
 11
50.87906698722645
 21
204.2275615128199
 31
0.0
  0
LINE
  5
86BE
  8
0
 10
50.87906698722645
 20
204.2275615128199
 30
0.0
 11
50.87906698722645
 21
204.56154636282
 31
0.0
  0
LINE
  5
86BF
  8
0
 10
50.87906698722645
 20
204.56154636282
 30
0.0
 11
49.87748198722645
 21
204.56154636282
 31
0.0
  0
LINE
  5
86C0
  8
0
 10
49.87748198722645
 20
204.56154636282
 30
0.0
 11
49.87748198722645
 21
204.2275615128199
 31
0.0
  0
LINE
  5
86C1
  8
0
 10
51.88065198722646
 20
204.2275615128199
 30
0.0
 11
52.21463683722644
 21
204.2275615128199
 31
0.0
  0
LINE
  5
86C2
  8
0
 10
52.21463683722644
 20
204.2275615128199
 30
0.0
 11
52.21463683722644
 21
204.56154636282
 31
0.0
  0
LINE
  5
86C3
  8
0
 10
52.21463683722644
 20
204.56154636282
 30
0.0
 11
51.88065198722646
 21
204.56154636282
 31
0.0
  0
LINE
  5
86C4
  8
0
 10
51.88065198722646
 20
204.56154636282
 30
0.0
 11
51.88065198722646
 21
204.2275615128199
 31
0.0
  0
LINE
  5
86C5
  8
0
 10
52.54831198722644
 20
204.2275615128199
 30
0.0
 11
53.54989698722645
 21
204.2275615128199
 31
0.0
  0
LINE
  5
86C6
  8
0
 10
53.54989698722645
 20
204.2275615128199
 30
0.0
 11
53.54989698722645
 21
204.56154636282
 31
0.0
  0
LINE
  5
86C7
  8
0
 10
53.54989698722645
 20
204.56154636282
 30
0.0
 11
52.54831198722644
 21
204.56154636282
 31
0.0
  0
LINE
  5
86C8
  8
0
 10
52.54831198722644
 20
204.56154636282
 30
0.0
 11
52.54831198722644
 21
204.2275615128199
 31
0.0
  0
LINE
  5
86C9
  8
0
 10
42.53436198722645
 20
203.8935415128199
 30
0.0
 11
44.87114348722648
 21
203.8935415128199
 31
0.0
  0
LINE
  5
86CA
  8
0
 10
44.87114348722648
 20
203.8935415128199
 30
0.0
 11
44.87114348722648
 21
204.2275254128199
 31
0.0
  0
LINE
  5
86CB
  8
0
 10
44.87114348722648
 20
204.2275254128199
 30
0.0
 11
42.53436198722645
 21
204.2275254128199
 31
0.0
  0
LINE
  5
86CC
  8
0
 10
42.53436198722645
 20
204.2275254128199
 30
0.0
 11
42.53436198722645
 21
203.8935415128199
 31
0.0
  0
LINE
  5
86CD
  8
0
 10
46.20592198722645
 20
203.8935415128199
 30
0.0
 11
47.20750698722645
 21
203.8935415128199
 31
0.0
  0
LINE
  5
86CE
  8
0
 10
47.20750698722645
 20
203.8935415128199
 30
0.0
 11
47.20750698722645
 21
204.2275254128199
 31
0.0
  0
LINE
  5
86CF
  8
0
 10
47.20750698722645
 20
204.2275254128199
 30
0.0
 11
46.20592198722645
 21
204.2275254128199
 31
0.0
  0
LINE
  5
86D0
  8
0
 10
46.20592198722645
 20
204.2275254128199
 30
0.0
 11
46.20592198722645
 21
203.8935415128199
 31
0.0
  0
LINE
  5
86D1
  8
0
 10
47.54152698722646
 20
203.8935415128199
 30
0.0
 11
48.20912523722643
 21
203.8935415128199
 31
0.0
  0
LINE
  5
86D2
  8
0
 10
48.20912523722643
 20
203.8935415128199
 30
0.0
 11
48.20912523722643
 21
204.2275254128199
 31
0.0
  0
LINE
  5
86D3
  8
0
 10
48.20912523722643
 20
204.2275254128199
 30
0.0
 11
47.54152698722646
 21
204.2275254128199
 31
0.0
  0
LINE
  5
86D4
  8
0
 10
47.54152698722646
 20
204.2275254128199
 30
0.0
 11
47.54152698722646
 21
203.8935415128199
 31
0.0
  0
LINE
  5
86D5
  8
0
 10
48.54273198722646
 20
203.8935415128199
 30
0.0
 11
48.87671683722644
 21
203.8935415128199
 31
0.0
  0
LINE
  5
86D6
  8
0
 10
48.87671683722644
 20
203.8935415128199
 30
0.0
 11
48.87671683722644
 21
204.2275254128199
 31
0.0
  0
LINE
  5
86D7
  8
0
 10
48.87671683722644
 20
204.2275254128199
 30
0.0
 11
48.54273198722646
 21
204.2275254128199
 31
0.0
  0
LINE
  5
86D8
  8
0
 10
48.54273198722646
 20
204.2275254128199
 30
0.0
 11
48.54273198722646
 21
203.8935415128199
 31
0.0
  0
LINE
  5
86D9
  8
0
 10
49.20991698722645
 20
203.8935415128199
 30
0.0
 11
49.87751523722645
 21
203.8935415128199
 31
0.0
  0
LINE
  5
86DA
  8
0
 10
49.87751523722645
 20
203.8935415128199
 30
0.0
 11
49.87751523722645
 21
204.2275254128199
 31
0.0
  0
LINE
  5
86DB
  8
0
 10
49.87751523722645
 20
204.2275254128199
 30
0.0
 11
49.20991698722645
 21
204.2275254128199
 31
0.0
  0
LINE
  5
86DC
  8
0
 10
49.20991698722645
 20
204.2275254128199
 30
0.0
 11
49.20991698722645
 21
203.8935415128199
 31
0.0
  0
LINE
  5
86DD
  8
0
 10
50.21150198722646
 20
203.8935415128199
 30
0.0
 11
50.87909928722644
 21
203.8935415128199
 31
0.0
  0
LINE
  5
86DE
  8
0
 10
50.87909928722644
 20
203.8935415128199
 30
0.0
 11
50.87909928722644
 21
204.2275254128199
 31
0.0
  0
LINE
  5
86DF
  8
0
 10
50.87909928722644
 20
204.2275254128199
 30
0.0
 11
50.21150198722646
 21
204.2275254128199
 31
0.0
  0
LINE
  5
86E0
  8
0
 10
50.21150198722646
 20
204.2275254128199
 30
0.0
 11
50.21150198722646
 21
203.8935415128199
 31
0.0
  0
LINE
  5
86E1
  8
0
 10
51.21308698722646
 20
203.8935415128199
 30
0.0
 11
51.54707088722645
 21
203.8935415128199
 31
0.0
  0
LINE
  5
86E2
  8
0
 10
51.54707088722645
 20
203.8935415128199
 30
0.0
 11
51.54707088722645
 21
204.2275254128199
 31
0.0
  0
LINE
  5
86E3
  8
0
 10
51.54707088722645
 20
204.2275254128199
 30
0.0
 11
51.21308698722646
 21
204.2275254128199
 31
0.0
  0
LINE
  5
86E4
  8
0
 10
51.21308698722646
 20
204.2275254128199
 30
0.0
 11
51.21308698722646
 21
203.8935415128199
 31
0.0
  0
LINE
  5
86E5
  8
0
 10
51.88065198722646
 20
203.8935415128199
 30
0.0
 11
52.21463683722644
 21
203.8935415128199
 31
0.0
  0
LINE
  5
86E6
  8
0
 10
52.21463683722644
 20
203.8935415128199
 30
0.0
 11
52.21463683722644
 21
204.2275254128199
 31
0.0
  0
LINE
  5
86E7
  8
0
 10
52.21463683722644
 20
204.2275254128199
 30
0.0
 11
51.88065198722646
 21
204.2275254128199
 31
0.0
  0
LINE
  5
86E8
  8
0
 10
51.88065198722646
 20
204.2275254128199
 30
0.0
 11
51.88065198722646
 21
203.8935415128199
 31
0.0
  0
LINE
  5
86E9
  8
0
 10
52.54831198722644
 20
203.8935415128199
 30
0.0
 11
53.21553783722646
 21
203.8935415128199
 31
0.0
  0
LINE
  5
86EA
  8
0
 10
53.21553783722646
 20
203.8935415128199
 30
0.0
 11
53.21553783722646
 21
204.2275254128199
 31
0.0
  0
LINE
  5
86EB
  8
0
 10
53.21553783722646
 20
204.2275254128199
 30
0.0
 11
52.54831198722644
 21
204.2275254128199
 31
0.0
  0
LINE
  5
86EC
  8
0
 10
52.54831198722644
 20
204.2275254128199
 30
0.0
 11
52.54831198722644
 21
203.8935415128199
 31
0.0
  0
LINE
  5
86ED
  8
0
 10
42.53436198722645
 20
203.5602815128199
 30
0.0
 11
42.86871733722646
 21
203.5602815128199
 31
0.0
  0
LINE
  5
86EE
  8
0
 10
42.86871733722646
 20
203.5602815128199
 30
0.0
 11
42.86871733722646
 21
203.8942654128199
 31
0.0
  0
LINE
  5
86EF
  8
0
 10
42.86871733722646
 20
203.8942654128199
 30
0.0
 11
42.53436198722645
 21
203.8942654128199
 31
0.0
  0
LINE
  5
86F0
  8
0
 10
42.53436198722645
 20
203.8942654128199
 30
0.0
 11
42.53436198722645
 21
203.5602815128199
 31
0.0
  0
LINE
  5
86F1
  8
0
 10
44.53743698722644
 20
203.5602815128199
 30
0.0
 11
44.87142088722644
 21
203.5602815128199
 31
0.0
  0
LINE
  5
86F2
  8
0
 10
44.87142088722644
 20
203.5602815128199
 30
0.0
 11
44.87142088722644
 21
203.8942654128199
 31
0.0
  0
LINE
  5
86F3
  8
0
 10
44.87142088722644
 20
203.8942654128199
 30
0.0
 11
44.53743698722644
 21
203.8942654128199
 31
0.0
  0
LINE
  5
86F4
  8
0
 10
44.53743698722644
 20
203.8942654128199
 30
0.0
 11
44.53743698722644
 21
203.5602815128199
 31
0.0
  0
LINE
  5
86F5
  8
0
 10
45.53873698722643
 20
203.5602815128199
 30
0.0
 11
46.53995148722643
 21
203.5602815128199
 31
0.0
  0
LINE
  5
86F6
  8
0
 10
46.53995148722643
 20
203.5602815128199
 30
0.0
 11
46.53995148722643
 21
203.8942654128199
 31
0.0
  0
LINE
  5
86F7
  8
0
 10
46.53995148722643
 20
203.8942654128199
 30
0.0
 11
45.53873698722643
 21
203.8942654128199
 31
0.0
  0
LINE
  5
86F8
  8
0
 10
45.53873698722643
 20
203.8942654128199
 30
0.0
 11
45.53873698722643
 21
203.5602815128199
 31
0.0
  0
LINE
  5
86F9
  8
0
 10
47.54152698722646
 20
203.5602815128199
 30
0.0
 11
47.87588233722647
 21
203.5602815128199
 31
0.0
  0
LINE
  5
86FA
  8
0
 10
47.87588233722647
 20
203.5602815128199
 30
0.0
 11
47.87588233722647
 21
203.8942654128199
 31
0.0
  0
LINE
  5
86FB
  8
0
 10
47.87588233722647
 20
203.8942654128199
 30
0.0
 11
47.54152698722646
 21
203.8942654128199
 31
0.0
  0
LINE
  5
86FC
  8
0
 10
47.54152698722646
 20
203.8942654128199
 30
0.0
 11
47.54152698722646
 21
203.5602815128199
 31
0.0
  0
LINE
  5
86FD
  8
0
 10
49.20991698722645
 20
203.5602815128199
 30
0.0
 11
49.54427233722646
 21
203.5602815128199
 31
0.0
  0
LINE
  5
86FE
  8
0
 10
49.54427233722646
 20
203.5602815128199
 30
0.0
 11
49.54427233722646
 21
203.8942654128199
 31
0.0
  0
LINE
  5
86FF
  8
0
 10
49.54427233722646
 20
203.8942654128199
 30
0.0
 11
49.20991698722645
 21
203.8942654128199
 31
0.0
  0
LINE
  5
8700
  8
0
 10
49.20991698722645
 20
203.8942654128199
 30
0.0
 11
49.20991698722645
 21
203.5602815128199
 31
0.0
  0
LINE
  5
8701
  8
0
 10
50.21150198722646
 20
203.5602815128199
 30
0.0
 11
50.87909928722644
 21
203.5602815128199
 31
0.0
  0
LINE
  5
8702
  8
0
 10
50.87909928722644
 20
203.5602815128199
 30
0.0
 11
50.87909928722644
 21
203.8942654128199
 31
0.0
  0
LINE
  5
8703
  8
0
 10
50.87909928722644
 20
203.8942654128199
 30
0.0
 11
50.21150198722646
 21
203.8942654128199
 31
0.0
  0
LINE
  5
8704
  8
0
 10
50.21150198722646
 20
203.8942654128199
 30
0.0
 11
50.21150198722646
 21
203.5602815128199
 31
0.0
  0
LINE
  5
8705
  8
0
 10
51.88065198722646
 20
203.5602815128199
 30
0.0
 11
52.88223698722643
 21
203.5602815128199
 31
0.0
  0
LINE
  5
8706
  8
0
 10
52.88223698722643
 20
203.5602815128199
 30
0.0
 11
52.88223698722643
 21
203.8942654128199
 31
0.0
  0
LINE
  5
8707
  8
0
 10
52.88223698722643
 20
203.8942654128199
 30
0.0
 11
51.88065198722646
 21
203.8942654128199
 31
0.0
  0
LINE
  5
8708
  8
0
 10
51.88065198722646
 20
203.8942654128199
 30
0.0
 11
51.88065198722646
 21
203.5602815128199
 31
0.0
  0
LINE
  5
8709
  8
0
 10
53.21549698722646
 20
203.5602815128199
 30
0.0
 11
53.54985328722645
 21
203.5602815128199
 31
0.0
  0
LINE
  5
870A
  8
0
 10
53.54985328722645
 20
203.5602815128199
 30
0.0
 11
53.54985328722645
 21
203.8942654128199
 31
0.0
  0
LINE
  5
870B
  8
0
 10
53.54985328722645
 20
203.8942654128199
 30
0.0
 11
53.21549698722646
 21
203.8942654128199
 31
0.0
  0
LINE
  5
870C
  8
0
 10
53.21549698722646
 20
203.8942654128199
 30
0.0
 11
53.21549698722646
 21
203.5602815128199
 31
0.0
  0
LINE
  5
870D
  8
0
 10
42.53436198722645
 20
203.2262615128199
 30
0.0
 11
42.86871733722646
 21
203.2262615128199
 31
0.0
  0
LINE
  5
870E
  8
0
 10
42.86871733722646
 20
203.2262615128199
 30
0.0
 11
42.86871733722646
 21
203.56024636282
 31
0.0
  0
LINE
  5
870F
  8
0
 10
42.86871733722646
 20
203.56024636282
 30
0.0
 11
42.53436198722645
 21
203.56024636282
 31
0.0
  0
LINE
  5
8710
  8
0
 10
42.53436198722645
 20
203.56024636282
 30
0.0
 11
42.53436198722645
 21
203.2262615128199
 31
0.0
  0
LINE
  5
8711
  8
0
 10
43.20192698722644
 20
203.2262615128199
 30
0.0
 11
44.20351198722645
 21
203.2262615128199
 31
0.0
  0
LINE
  5
8712
  8
0
 10
44.20351198722645
 20
203.2262615128199
 30
0.0
 11
44.20351198722645
 21
203.56024636282
 31
0.0
  0
LINE
  5
8713
  8
0
 10
44.20351198722645
 20
203.56024636282
 30
0.0
 11
43.20192698722644
 21
203.56024636282
 31
0.0
  0
LINE
  5
8714
  8
0
 10
43.20192698722644
 20
203.56024636282
 30
0.0
 11
43.20192698722644
 21
203.2262615128199
 31
0.0
  0
LINE
  5
8715
  8
0
 10
44.53743698722644
 20
203.2262615128199
 30
0.0
 11
44.87142088722644
 21
203.2262615128199
 31
0.0
  0
LINE
  5
8716
  8
0
 10
44.87142088722644
 20
203.2262615128199
 30
0.0
 11
44.87142088722644
 21
203.56024636282
 31
0.0
  0
LINE
  5
8717
  8
0
 10
44.87142088722644
 20
203.56024636282
 30
0.0
 11
44.53743698722644
 21
203.56024636282
 31
0.0
  0
LINE
  5
8718
  8
0
 10
44.53743698722644
 20
203.56024636282
 30
0.0
 11
44.53743698722644
 21
203.2262615128199
 31
0.0
  0
LINE
  5
8719
  8
0
 10
45.87266198722645
 20
203.2262615128199
 30
0.0
 11
46.53988783722644
 21
203.2262615128199
 31
0.0
  0
LINE
  5
871A
  8
0
 10
46.53988783722644
 20
203.2262615128199
 30
0.0
 11
46.53988783722644
 21
203.56024636282
 31
0.0
  0
LINE
  5
871B
  8
0
 10
46.53988783722644
 20
203.56024636282
 30
0.0
 11
45.87266198722645
 21
203.56024636282
 31
0.0
  0
LINE
  5
871C
  8
0
 10
45.87266198722645
 20
203.56024636282
 30
0.0
 11
45.87266198722645
 21
203.2262615128199
 31
0.0
  0
LINE
  5
871D
  8
0
 10
46.87348698722644
 20
203.2262615128199
 30
0.0
 11
47.54108523722647
 21
203.2262615128199
 31
0.0
  0
LINE
  5
871E
  8
0
 10
47.54108523722647
 20
203.2262615128199
 30
0.0
 11
47.54108523722647
 21
203.56024636282
 31
0.0
  0
LINE
  5
871F
  8
0
 10
47.54108523722647
 20
203.56024636282
 30
0.0
 11
46.87348698722644
 21
203.56024636282
 31
0.0
  0
LINE
  5
8720
  8
0
 10
46.87348698722644
 20
203.56024636282
 30
0.0
 11
46.87348698722644
 21
203.2262615128199
 31
0.0
  0
LINE
  5
8721
  8
0
 10
48.54273198722646
 20
203.2262615128199
 30
0.0
 11
49.20995878722647
 21
203.2262615128199
 31
0.0
  0
LINE
  5
8722
  8
0
 10
49.20995878722647
 20
203.2262615128199
 30
0.0
 11
49.20995878722647
 21
203.56024636282
 31
0.0
  0
LINE
  5
8723
  8
0
 10
49.20995878722647
 20
203.56024636282
 30
0.0
 11
48.54273198722646
 21
203.56024636282
 31
0.0
  0
LINE
  5
8724
  8
0
 10
48.54273198722646
 20
203.56024636282
 30
0.0
 11
48.54273198722646
 21
203.2262615128199
 31
0.0
  0
LINE
  5
8725
  8
0
 10
49.54431698722644
 20
203.2262615128199
 30
0.0
 11
49.87830183722645
 21
203.2262615128199
 31
0.0
  0
LINE
  5
8726
  8
0
 10
49.87830183722645
 20
203.2262615128199
 30
0.0
 11
49.87830183722645
 21
203.56024636282
 31
0.0
  0
LINE
  5
8727
  8
0
 10
49.87830183722645
 20
203.56024636282
 30
0.0
 11
49.54431698722644
 21
203.56024636282
 31
0.0
  0
LINE
  5
8728
  8
0
 10
49.54431698722644
 20
203.56024636282
 30
0.0
 11
49.54431698722644
 21
203.2262615128199
 31
0.0
  0
LINE
  5
8729
  8
0
 10
50.54590198722644
 20
203.2262615128199
 30
0.0
 11
52.54832148722645
 21
203.2262615128199
 31
0.0
  0
LINE
  5
872A
  8
0
 10
52.54832148722645
 20
203.2262615128199
 30
0.0
 11
52.54832148722645
 21
203.56024636282
 31
0.0
  0
LINE
  5
872B
  8
0
 10
52.54832148722645
 20
203.56024636282
 30
0.0
 11
50.54590198722644
 21
203.56024636282
 31
0.0
  0
LINE
  5
872C
  8
0
 10
50.54590198722644
 20
203.56024636282
 30
0.0
 11
50.54590198722644
 21
203.2262615128199
 31
0.0
  0
LINE
  5
872D
  8
0
 10
42.53436198722645
 20
202.8919565128199
 30
0.0
 11
42.86871733722646
 21
202.8919565128199
 31
0.0
  0
LINE
  5
872E
  8
0
 10
42.86871733722646
 20
202.8919565128199
 30
0.0
 11
42.86871733722646
 21
203.22631186282
 31
0.0
  0
LINE
  5
872F
  8
0
 10
42.86871733722646
 20
203.22631186282
 30
0.0
 11
42.53436198722645
 21
203.22631186282
 31
0.0
  0
LINE
  5
8730
  8
0
 10
42.53436198722645
 20
203.22631186282
 30
0.0
 11
42.53436198722645
 21
202.8919565128199
 31
0.0
  0
LINE
  5
8731
  8
0
 10
43.20192698722644
 20
202.8919565128199
 30
0.0
 11
44.20351198722645
 21
202.8919565128199
 31
0.0
  0
LINE
  5
8732
  8
0
 10
44.20351198722645
 20
202.8919565128199
 30
0.0
 11
44.20351198722645
 21
203.22631186282
 31
0.0
  0
LINE
  5
8733
  8
0
 10
44.20351198722645
 20
203.22631186282
 30
0.0
 11
43.20192698722644
 21
203.22631186282
 31
0.0
  0
LINE
  5
8734
  8
0
 10
43.20192698722644
 20
203.22631186282
 30
0.0
 11
43.20192698722644
 21
202.8919565128199
 31
0.0
  0
LINE
  5
8735
  8
0
 10
44.53743698722644
 20
202.8919565128199
 30
0.0
 11
44.87142088722644
 21
202.8919565128199
 31
0.0
  0
LINE
  5
8736
  8
0
 10
44.87142088722644
 20
202.8919565128199
 30
0.0
 11
44.87142088722644
 21
203.22631186282
 31
0.0
  0
LINE
  5
8737
  8
0
 10
44.87142088722644
 20
203.22631186282
 30
0.0
 11
44.53743698722644
 21
203.22631186282
 31
0.0
  0
LINE
  5
8738
  8
0
 10
44.53743698722644
 20
203.22631186282
 30
0.0
 11
44.53743698722644
 21
202.8919565128199
 31
0.0
  0
LINE
  5
8739
  8
0
 10
45.53873698722643
 20
202.8919565128199
 30
0.0
 11
46.87356298722645
 21
202.8919565128199
 31
0.0
  0
LINE
  5
873A
  8
0
 10
46.87356298722645
 20
202.8919565128199
 30
0.0
 11
46.87356298722645
 21
203.22631186282
 31
0.0
  0
LINE
  5
873B
  8
0
 10
46.87356298722645
 20
203.22631186282
 30
0.0
 11
45.53873698722643
 21
203.22631186282
 31
0.0
  0
LINE
  5
873C
  8
0
 10
45.53873698722643
 20
203.22631186282
 30
0.0
 11
45.53873698722643
 21
202.8919565128199
 31
0.0
  0
LINE
  5
873D
  8
0
 10
47.20750698722645
 20
202.8919565128199
 30
0.0
 11
47.54149088722647
 21
202.8919565128199
 31
0.0
  0
LINE
  5
873E
  8
0
 10
47.54149088722647
 20
202.8919565128199
 30
0.0
 11
47.54149088722647
 21
203.22631186282
 31
0.0
  0
LINE
  5
873F
  8
0
 10
47.54149088722647
 20
203.22631186282
 30
0.0
 11
47.20750698722645
 21
203.22631186282
 31
0.0
  0
LINE
  5
8740
  8
0
 10
47.20750698722645
 20
203.22631186282
 30
0.0
 11
47.20750698722645
 21
202.8919565128199
 31
0.0
  0
LINE
  5
8741
  8
0
 10
47.87507198722645
 20
202.8919565128199
 30
0.0
 11
48.20905683722646
 21
202.8919565128199
 31
0.0
  0
LINE
  5
8742
  8
0
 10
48.20905683722646
 20
202.8919565128199
 30
0.0
 11
48.20905683722646
 21
203.22631186282
 31
0.0
  0
LINE
  5
8743
  8
0
 10
48.20905683722646
 20
203.22631186282
 30
0.0
 11
47.87507198722645
 21
203.22631186282
 31
0.0
  0
LINE
  5
8744
  8
0
 10
47.87507198722645
 20
203.22631186282
 30
0.0
 11
47.87507198722645
 21
202.8919565128199
 31
0.0
  0
LINE
  5
8745
  8
0
 10
49.20991698722645
 20
202.8919565128199
 30
0.0
 11
49.54427233722646
 21
202.8919565128199
 31
0.0
  0
LINE
  5
8746
  8
0
 10
49.54427233722646
 20
202.8919565128199
 30
0.0
 11
49.54427233722646
 21
203.22631186282
 31
0.0
  0
LINE
  5
8747
  8
0
 10
49.54427233722646
 20
203.22631186282
 30
0.0
 11
49.20991698722645
 21
203.22631186282
 31
0.0
  0
LINE
  5
8748
  8
0
 10
49.20991698722645
 20
203.22631186282
 30
0.0
 11
49.20991698722645
 21
202.8919565128199
 31
0.0
  0
LINE
  5
8749
  8
0
 10
49.87748198722645
 20
202.8919565128199
 30
0.0
 11
50.54507928722646
 21
202.8919565128199
 31
0.0
  0
LINE
  5
874A
  8
0
 10
50.54507928722646
 20
202.8919565128199
 30
0.0
 11
50.54507928722646
 21
203.22631186282
 31
0.0
  0
LINE
  5
874B
  8
0
 10
50.54507928722646
 20
203.22631186282
 30
0.0
 11
49.87748198722645
 21
203.22631186282
 31
0.0
  0
LINE
  5
874C
  8
0
 10
49.87748198722645
 20
203.22631186282
 30
0.0
 11
49.87748198722645
 21
202.8919565128199
 31
0.0
  0
LINE
  5
874D
  8
0
 10
50.87906698722645
 20
202.8919565128199
 30
0.0
 11
51.21305183722646
 21
202.8919565128199
 31
0.0
  0
LINE
  5
874E
  8
0
 10
51.21305183722646
 20
202.8919565128199
 30
0.0
 11
51.21305183722646
 21
203.22631186282
 31
0.0
  0
LINE
  5
874F
  8
0
 10
51.21305183722646
 20
203.22631186282
 30
0.0
 11
50.87906698722645
 21
203.22631186282
 31
0.0
  0
LINE
  5
8750
  8
0
 10
50.87906698722645
 20
203.22631186282
 30
0.0
 11
50.87906698722645
 21
202.8919565128199
 31
0.0
  0
LINE
  5
8751
  8
0
 10
51.54672698722644
 20
202.8919565128199
 30
0.0
 11
52.21395378722647
 21
202.8919565128199
 31
0.0
  0
LINE
  5
8752
  8
0
 10
52.21395378722647
 20
202.8919565128199
 30
0.0
 11
52.21395378722647
 21
203.22631186282
 31
0.0
  0
LINE
  5
8753
  8
0
 10
52.21395378722647
 20
203.22631186282
 30
0.0
 11
51.54672698722644
 21
203.22631186282
 31
0.0
  0
LINE
  5
8754
  8
0
 10
51.54672698722644
 20
203.22631186282
 30
0.0
 11
51.54672698722644
 21
202.8919565128199
 31
0.0
  0
LINE
  5
8755
  8
0
 10
52.54831198722644
 20
202.8919565128199
 30
0.0
 11
52.88229588722643
 21
202.8919565128199
 31
0.0
  0
LINE
  5
8756
  8
0
 10
52.88229588722643
 20
202.8919565128199
 30
0.0
 11
52.88229588722643
 21
203.22631186282
 31
0.0
  0
LINE
  5
8757
  8
0
 10
52.88229588722643
 20
203.22631186282
 30
0.0
 11
52.54831198722644
 21
203.22631186282
 31
0.0
  0
LINE
  5
8758
  8
0
 10
52.54831198722644
 20
203.22631186282
 30
0.0
 11
52.54831198722644
 21
202.8919565128199
 31
0.0
  0
LINE
  5
8759
  8
0
 10
53.21549698722646
 20
202.8919565128199
 30
0.0
 11
53.54985328722645
 21
202.8919565128199
 31
0.0
  0
LINE
  5
875A
  8
0
 10
53.54985328722645
 20
202.8919565128199
 30
0.0
 11
53.54985328722645
 21
203.22631186282
 31
0.0
  0
LINE
  5
875B
  8
0
 10
53.54985328722645
 20
203.22631186282
 30
0.0
 11
53.21549698722646
 21
203.22631186282
 31
0.0
  0
LINE
  5
875C
  8
0
 10
53.21549698722646
 20
203.22631186282
 30
0.0
 11
53.21549698722646
 21
202.8919565128199
 31
0.0
  0
LINE
  5
875D
  8
0
 10
42.53436198722645
 20
202.5586965128199
 30
0.0
 11
42.86871733722646
 21
202.5586965128199
 31
0.0
  0
LINE
  5
875E
  8
0
 10
42.86871733722646
 20
202.5586965128199
 30
0.0
 11
42.86871733722646
 21
202.8926804128199
 31
0.0
  0
LINE
  5
875F
  8
0
 10
42.86871733722646
 20
202.8926804128199
 30
0.0
 11
42.53436198722645
 21
202.8926804128199
 31
0.0
  0
LINE
  5
8760
  8
0
 10
42.53436198722645
 20
202.8926804128199
 30
0.0
 11
42.53436198722645
 21
202.5586965128199
 31
0.0
  0
LINE
  5
8761
  8
0
 10
43.20192698722644
 20
202.5586965128199
 30
0.0
 11
44.20351198722645
 21
202.5586965128199
 31
0.0
  0
LINE
  5
8762
  8
0
 10
44.20351198722645
 20
202.5586965128199
 30
0.0
 11
44.20351198722645
 21
202.8926804128199
 31
0.0
  0
LINE
  5
8763
  8
0
 10
44.20351198722645
 20
202.8926804128199
 30
0.0
 11
43.20192698722644
 21
202.8926804128199
 31
0.0
  0
LINE
  5
8764
  8
0
 10
43.20192698722644
 20
202.8926804128199
 30
0.0
 11
43.20192698722644
 21
202.5586965128199
 31
0.0
  0
LINE
  5
8765
  8
0
 10
44.53743698722644
 20
202.5586965128199
 30
0.0
 11
44.87142088722644
 21
202.5586965128199
 31
0.0
  0
LINE
  5
8766
  8
0
 10
44.87142088722644
 20
202.5586965128199
 30
0.0
 11
44.87142088722644
 21
202.8926804128199
 31
0.0
  0
LINE
  5
8767
  8
0
 10
44.87142088722644
 20
202.8926804128199
 30
0.0
 11
44.53743698722644
 21
202.8926804128199
 31
0.0
  0
LINE
  5
8768
  8
0
 10
44.53743698722644
 20
202.8926804128199
 30
0.0
 11
44.53743698722644
 21
202.5586965128199
 31
0.0
  0
LINE
  5
8769
  8
0
 10
45.87266198722645
 20
202.5586965128199
 30
0.0
 11
47.20748798722644
 21
202.5586965128199
 31
0.0
  0
LINE
  5
876A
  8
0
 10
47.20748798722644
 20
202.5586965128199
 30
0.0
 11
47.20748798722644
 21
202.8926804128199
 31
0.0
  0
LINE
  5
876B
  8
0
 10
47.20748798722644
 20
202.8926804128199
 30
0.0
 11
45.87266198722645
 21
202.8926804128199
 31
0.0
  0
LINE
  5
876C
  8
0
 10
45.87266198722645
 20
202.8926804128199
 30
0.0
 11
45.87266198722645
 21
202.5586965128199
 31
0.0
  0
LINE
  5
876D
  8
0
 10
47.87507198722645
 20
202.5586965128199
 30
0.0
 11
48.20905683722646
 21
202.5586965128199
 31
0.0
  0
LINE
  5
876E
  8
0
 10
48.20905683722646
 20
202.5586965128199
 30
0.0
 11
48.20905683722646
 21
202.8926804128199
 31
0.0
  0
LINE
  5
876F
  8
0
 10
48.20905683722646
 20
202.8926804128199
 30
0.0
 11
47.87507198722645
 21
202.8926804128199
 31
0.0
  0
LINE
  5
8770
  8
0
 10
47.87507198722645
 20
202.8926804128199
 30
0.0
 11
47.87507198722645
 21
202.5586965128199
 31
0.0
  0
LINE
  5
8771
  8
0
 10
48.54273198722646
 20
202.5586965128199
 30
0.0
 11
48.87671683722644
 21
202.5586965128199
 31
0.0
  0
LINE
  5
8772
  8
0
 10
48.87671683722644
 20
202.5586965128199
 30
0.0
 11
48.87671683722644
 21
202.8926804128199
 31
0.0
  0
LINE
  5
8773
  8
0
 10
48.87671683722644
 20
202.8926804128199
 30
0.0
 11
48.54273198722646
 21
202.8926804128199
 31
0.0
  0
LINE
  5
8774
  8
0
 10
48.54273198722646
 20
202.8926804128199
 30
0.0
 11
48.54273198722646
 21
202.5586965128199
 31
0.0
  0
LINE
  5
8775
  8
0
 10
49.20991698722645
 20
202.5586965128199
 30
0.0
 11
49.54427233722646
 21
202.5586965128199
 31
0.0
  0
LINE
  5
8776
  8
0
 10
49.54427233722646
 20
202.5586965128199
 30
0.0
 11
49.54427233722646
 21
202.8926804128199
 31
0.0
  0
LINE
  5
8777
  8
0
 10
49.54427233722646
 20
202.8926804128199
 30
0.0
 11
49.20991698722645
 21
202.8926804128199
 31
0.0
  0
LINE
  5
8778
  8
0
 10
49.20991698722645
 20
202.8926804128199
 30
0.0
 11
49.20991698722645
 21
202.5586965128199
 31
0.0
  0
LINE
  5
8779
  8
0
 10
49.87748198722645
 20
202.5586965128199
 30
0.0
 11
50.21146588722647
 21
202.5586965128199
 31
0.0
  0
LINE
  5
877A
  8
0
 10
50.21146588722647
 20
202.5586965128199
 30
0.0
 11
50.21146588722647
 21
202.8926804128199
 31
0.0
  0
LINE
  5
877B
  8
0
 10
50.21146588722647
 20
202.8926804128199
 30
0.0
 11
49.87748198722645
 21
202.8926804128199
 31
0.0
  0
LINE
  5
877C
  8
0
 10
49.87748198722645
 20
202.8926804128199
 30
0.0
 11
49.87748198722645
 21
202.5586965128199
 31
0.0
  0
LINE
  5
877D
  8
0
 10
50.54590198722644
 20
202.5586965128199
 30
0.0
 11
50.87988683722645
 21
202.5586965128199
 31
0.0
  0
LINE
  5
877E
  8
0
 10
50.87988683722645
 20
202.5586965128199
 30
0.0
 11
50.87988683722645
 21
202.8926804128199
 31
0.0
  0
LINE
  5
877F
  8
0
 10
50.87988683722645
 20
202.8926804128199
 30
0.0
 11
50.54590198722644
 21
202.8926804128199
 31
0.0
  0
LINE
  5
8780
  8
0
 10
50.54590198722644
 20
202.8926804128199
 30
0.0
 11
50.54590198722644
 21
202.5586965128199
 31
0.0
  0
LINE
  5
8781
  8
0
 10
51.54672698722644
 20
202.5586965128199
 30
0.0
 11
52.21395378722647
 21
202.5586965128199
 31
0.0
  0
LINE
  5
8782
  8
0
 10
52.21395378722647
 20
202.5586965128199
 30
0.0
 11
52.21395378722647
 21
202.8926804128199
 31
0.0
  0
LINE
  5
8783
  8
0
 10
52.21395378722647
 20
202.8926804128199
 30
0.0
 11
51.54672698722644
 21
202.8926804128199
 31
0.0
  0
LINE
  5
8784
  8
0
 10
51.54672698722644
 20
202.8926804128199
 30
0.0
 11
51.54672698722644
 21
202.5586965128199
 31
0.0
  0
LINE
  5
8785
  8
0
 10
52.88157198722647
 20
202.5586965128199
 30
0.0
 11
53.54916928722645
 21
202.5586965128199
 31
0.0
  0
LINE
  5
8786
  8
0
 10
53.54916928722645
 20
202.5586965128199
 30
0.0
 11
53.54916928722645
 21
202.8926804128199
 31
0.0
  0
LINE
  5
8787
  8
0
 10
53.54916928722645
 20
202.8926804128199
 30
0.0
 11
52.88157198722647
 21
202.8926804128199
 31
0.0
  0
LINE
  5
8788
  8
0
 10
52.88157198722647
 20
202.8926804128199
 30
0.0
 11
52.88157198722647
 21
202.5586965128199
 31
0.0
  0
LINE
  5
8789
  8
0
 10
42.53436198722645
 20
202.2247715128199
 30
0.0
 11
42.86871733722646
 21
202.2247715128199
 31
0.0
  0
LINE
  5
878A
  8
0
 10
42.86871733722646
 20
202.2247715128199
 30
0.0
 11
42.86871733722646
 21
202.55875636282
 31
0.0
  0
LINE
  5
878B
  8
0
 10
42.86871733722646
 20
202.55875636282
 30
0.0
 11
42.53436198722645
 21
202.55875636282
 31
0.0
  0
LINE
  5
878C
  8
0
 10
42.53436198722645
 20
202.55875636282
 30
0.0
 11
42.53436198722645
 21
202.2247715128199
 31
0.0
  0
LINE
  5
878D
  8
0
 10
44.53743698722644
 20
202.2247715128199
 30
0.0
 11
44.87142088722644
 21
202.2247715128199
 31
0.0
  0
LINE
  5
878E
  8
0
 10
44.87142088722644
 20
202.2247715128199
 30
0.0
 11
44.87142088722644
 21
202.55875636282
 31
0.0
  0
LINE
  5
878F
  8
0
 10
44.87142088722644
 20
202.55875636282
 30
0.0
 11
44.53743698722644
 21
202.55875636282
 31
0.0
  0
LINE
  5
8790
  8
0
 10
44.53743698722644
 20
202.55875636282
 30
0.0
 11
44.53743698722644
 21
202.2247715128199
 31
0.0
  0
LINE
  5
8791
  8
0
 10
45.87266198722645
 20
202.2247715128199
 30
0.0
 11
46.53988783722644
 21
202.2247715128199
 31
0.0
  0
LINE
  5
8792
  8
0
 10
46.53988783722644
 20
202.2247715128199
 30
0.0
 11
46.53988783722644
 21
202.55875636282
 31
0.0
  0
LINE
  5
8793
  8
0
 10
46.53988783722644
 20
202.55875636282
 30
0.0
 11
45.87266198722645
 21
202.55875636282
 31
0.0
  0
LINE
  5
8794
  8
0
 10
45.87266198722645
 20
202.55875636282
 30
0.0
 11
45.87266198722645
 21
202.2247715128199
 31
0.0
  0
LINE
  5
8795
  8
0
 10
47.20750698722645
 20
202.2247715128199
 30
0.0
 11
48.20909198722646
 21
202.2247715128199
 31
0.0
  0
LINE
  5
8796
  8
0
 10
48.20909198722646
 20
202.2247715128199
 30
0.0
 11
48.20909198722646
 21
202.55875636282
 31
0.0
  0
LINE
  5
8797
  8
0
 10
48.20909198722646
 20
202.55875636282
 30
0.0
 11
47.20750698722645
 21
202.55875636282
 31
0.0
  0
LINE
  5
8798
  8
0
 10
47.20750698722645
 20
202.55875636282
 30
0.0
 11
47.20750698722645
 21
202.2247715128199
 31
0.0
  0
LINE
  5
8799
  8
0
 10
48.87665698722645
 20
202.2247715128199
 30
0.0
 11
49.54425428722644
 21
202.2247715128199
 31
0.0
  0
LINE
  5
879A
  8
0
 10
49.54425428722644
 20
202.2247715128199
 30
0.0
 11
49.54425428722644
 21
202.55875636282
 31
0.0
  0
LINE
  5
879B
  8
0
 10
49.54425428722644
 20
202.55875636282
 30
0.0
 11
48.87665698722645
 21
202.55875636282
 31
0.0
  0
LINE
  5
879C
  8
0
 10
48.87665698722645
 20
202.55875636282
 30
0.0
 11
48.87665698722645
 21
202.2247715128199
 31
0.0
  0
LINE
  5
879D
  8
0
 10
51.54672698722644
 20
202.2247715128199
 30
0.0
 11
52.88155298722646
 21
202.2247715128199
 31
0.0
  0
LINE
  5
879E
  8
0
 10
52.88155298722646
 20
202.2247715128199
 30
0.0
 11
52.88155298722646
 21
202.55875636282
 31
0.0
  0
LINE
  5
879F
  8
0
 10
52.88155298722646
 20
202.55875636282
 30
0.0
 11
51.54672698722644
 21
202.55875636282
 31
0.0
  0
LINE
  5
87A0
  8
0
 10
51.54672698722644
 20
202.55875636282
 30
0.0
 11
51.54672698722644
 21
202.2247715128199
 31
0.0
  0
LINE
  5
87A1
  8
0
 10
42.53436198722645
 20
201.8911315128199
 30
0.0
 11
44.87114348722648
 21
201.8911315128199
 31
0.0
  0
LINE
  5
87A2
  8
0
 10
44.87114348722648
 20
201.8911315128199
 30
0.0
 11
44.87114348722648
 21
202.22511636282
 31
0.0
  0
LINE
  5
87A3
  8
0
 10
44.87114348722648
 20
202.22511636282
 30
0.0
 11
42.53436198722645
 21
202.22511636282
 31
0.0
  0
LINE
  5
87A4
  8
0
 10
42.53436198722645
 20
202.22511636282
 30
0.0
 11
42.53436198722645
 21
201.8911315128199
 31
0.0
  0
LINE
  5
87A5
  8
0
 10
45.20509698722645
 20
201.8911315128199
 30
0.0
 11
45.53908183722646
 21
201.8911315128199
 31
0.0
  0
LINE
  5
87A6
  8
0
 10
45.53908183722646
 20
201.8911315128199
 30
0.0
 11
45.53908183722646
 21
202.22511636282
 31
0.0
  0
LINE
  5
87A7
  8
0
 10
45.53908183722646
 20
202.22511636282
 30
0.0
 11
45.20509698722645
 21
202.22511636282
 31
0.0
  0
LINE
  5
87A8
  8
0
 10
45.20509698722645
 20
202.22511636282
 30
0.0
 11
45.20509698722645
 21
201.8911315128199
 31
0.0
  0
LINE
  5
87A9
  8
0
 10
46.20592198722645
 20
201.8911315128199
 30
0.0
 11
46.53990588722647
 21
201.8911315128199
 31
0.0
  0
LINE
  5
87AA
  8
0
 10
46.53990588722647
 20
201.8911315128199
 30
0.0
 11
46.53990588722647
 21
202.22511636282
 31
0.0
  0
LINE
  5
87AB
  8
0
 10
46.53990588722647
 20
202.22511636282
 30
0.0
 11
46.20592198722645
 21
202.22511636282
 31
0.0
  0
LINE
  5
87AC
  8
0
 10
46.20592198722645
 20
202.22511636282
 30
0.0
 11
46.20592198722645
 21
201.8911315128199
 31
0.0
  0
LINE
  5
87AD
  8
0
 10
47.20750698722645
 20
201.8911315128199
 30
0.0
 11
47.54149088722647
 21
201.8911315128199
 31
0.0
  0
LINE
  5
87AE
  8
0
 10
47.54149088722647
 20
201.8911315128199
 30
0.0
 11
47.54149088722647
 21
202.22511636282
 31
0.0
  0
LINE
  5
87AF
  8
0
 10
47.54149088722647
 20
202.22511636282
 30
0.0
 11
47.20750698722645
 21
202.22511636282
 31
0.0
  0
LINE
  5
87B0
  8
0
 10
47.20750698722645
 20
202.22511636282
 30
0.0
 11
47.20750698722645
 21
201.8911315128199
 31
0.0
  0
LINE
  5
87B1
  8
0
 10
48.20909198722646
 20
201.8911315128199
 30
0.0
 11
48.54307588722645
 21
201.8911315128199
 31
0.0
  0
LINE
  5
87B2
  8
0
 10
48.54307588722645
 20
201.8911315128199
 30
0.0
 11
48.54307588722645
 21
202.22511636282
 31
0.0
  0
LINE
  5
87B3
  8
0
 10
48.54307588722645
 20
202.22511636282
 30
0.0
 11
48.20909198722646
 21
202.22511636282
 31
0.0
  0
LINE
  5
87B4
  8
0
 10
48.20909198722646
 20
202.22511636282
 30
0.0
 11
48.20909198722646
 21
201.8911315128199
 31
0.0
  0
LINE
  5
87B5
  8
0
 10
48.87665698722645
 20
201.8911315128199
 30
0.0
 11
49.21064088722645
 21
201.8911315128199
 31
0.0
  0
LINE
  5
87B6
  8
0
 10
49.21064088722645
 20
201.8911315128199
 30
0.0
 11
49.21064088722645
 21
202.22511636282
 31
0.0
  0
LINE
  5
87B7
  8
0
 10
49.21064088722645
 20
202.22511636282
 30
0.0
 11
48.87665698722645
 21
202.22511636282
 31
0.0
  0
LINE
  5
87B8
  8
0
 10
48.87665698722645
 20
202.22511636282
 30
0.0
 11
48.87665698722645
 21
201.8911315128199
 31
0.0
  0
LINE
  5
87B9
  8
0
 10
49.87748198722645
 20
201.8911315128199
 30
0.0
 11
51.21230798722644
 21
201.8911315128199
 31
0.0
  0
LINE
  5
87BA
  8
0
 10
51.21230798722644
 20
201.8911315128199
 30
0.0
 11
51.21230798722644
 21
202.22511636282
 31
0.0
  0
LINE
  5
87BB
  8
0
 10
51.21230798722644
 20
202.22511636282
 30
0.0
 11
49.87748198722645
 21
202.22511636282
 31
0.0
  0
LINE
  5
87BC
  8
0
 10
49.87748198722645
 20
202.22511636282
 30
0.0
 11
49.87748198722645
 21
201.8911315128199
 31
0.0
  0
LINE
  5
87BD
  8
0
 10
51.54672698722644
 20
201.8911315128199
 30
0.0
 11
51.88071088722646
 21
201.8911315128199
 31
0.0
  0
LINE
  5
87BE
  8
0
 10
51.88071088722646
 20
201.8911315128199
 30
0.0
 11
51.88071088722646
 21
202.22511636282
 31
0.0
  0
LINE
  5
87BF
  8
0
 10
51.88071088722646
 20
202.22511636282
 30
0.0
 11
51.54672698722644
 21
202.22511636282
 31
0.0
  0
LINE
  5
87C0
  8
0
 10
51.54672698722644
 20
202.22511636282
 30
0.0
 11
51.54672698722644
 21
201.8911315128199
 31
0.0
  0
LINE
  5
87C1
  8
0
 10
52.21391198722645
 20
201.8911315128199
 30
0.0
 11
52.54826733722646
 21
201.8911315128199
 31
0.0
  0
LINE
  5
87C2
  8
0
 10
52.54826733722646
 20
201.8911315128199
 30
0.0
 11
52.54826733722646
 21
202.22511636282
 31
0.0
  0
LINE
  5
87C3
  8
0
 10
52.54826733722646
 20
202.22511636282
 30
0.0
 11
52.21391198722645
 21
202.22511636282
 31
0.0
  0
LINE
  5
87C4
  8
0
 10
52.21391198722645
 20
202.22511636282
 30
0.0
 11
52.21391198722645
 21
201.8911315128199
 31
0.0
  0
LINE
  5
87C5
  8
0
 10
52.88157198722647
 20
201.8911315128199
 30
0.0
 11
53.21555588722646
 21
201.8911315128199
 31
0.0
  0
LINE
  5
87C6
  8
0
 10
53.21555588722646
 20
201.8911315128199
 30
0.0
 11
53.21555588722646
 21
202.22511636282
 31
0.0
  0
LINE
  5
87C7
  8
0
 10
53.21555588722646
 20
202.22511636282
 30
0.0
 11
52.88157198722647
 21
202.22511636282
 31
0.0
  0
LINE
  5
87C8
  8
0
 10
52.88157198722647
 20
202.22511636282
 30
0.0
 11
52.88157198722647
 21
201.8911315128199
 31
0.0
  0
CIRCLE
  5
899E
  8
0
 10
63.52185159276129
 20
209.8911315128202
 30
0.0
 40
1.5
  0
TEXT
  5
899F
  8
0
 10
44.47301841907153
 20
198.5567142991764
 30
0.0
 40
1.3
  1
冬期以外(凍結の心配がない期間)や長期間使用しないときは電源をOFFにしてください
  0
POLYLINE
  5
89A0
  8
0
 66
     1
 10
0.0
 20
0.0
 30
0.0
 70
     1
  0
VERTEX
  5
9E5E
  8
0
 10
42.7521847287878
 20
200.4403658406169
 30
0.0
  0
VERTEX
  5
9E5F
  8
0
 10
41.53974916348963
 20
198.3403658406165
 30
0.0
 42
0.5773502691896262
  0
VERTEX
  5
9E60
  8
0
 10
41.62635170386804
 20
198.1903658406169
 30
0.0
  0
VERTEX
  5
9E61
  8
0
 10
44.05122283446437
 20
198.1903658406169
 30
0.0
 42
0.577350269189628
  0
VERTEX
  5
9E62
  8
0
 10
44.13782537484278
 20
198.3403658406165
 30
0.0
  0
VERTEX
  5
9E63
  8
0
 10
42.92538980954461
 20
200.4403658406169
 30
0.0
 42
0.577350269189626
  0
SEQEND
  5
9E95
  8
0
  0
POLYLINE
  5
89A1
  8
0
 66
     1
 10
0.0
 20
0.0
 30
0.0
 70
     1
  0
VERTEX
  5
9E64
  8
0
 10
42.79548599967231
 20
200.3153658406169
 30
0.0
  0
VERTEX
  5
9E65
  8
0
 10
41.66965297408953
 20
198.365365840628
 30
0.0
 42
0.577350269275458
  0
VERTEX
  5
9E66
  8
0
 10
41.71295424427237
 20
198.2903658406163
 30
0.0
  0
VERTEX
  5
9E67
  8
0
 10
43.96462029411188
 20
198.2903658406163
 30
0.0
 42
0.5773502691037941
  0
VERTEX
  5
9E68
  8
0
 10
44.00792156430745
 20
198.3653658406053
 30
0.0
  0
VERTEX
  5
9E69
  8
0
 10
42.88208854005072
 20
200.3153658406169
 30
0.0
 42
0.5773502691896244
  0
SEQEND
  5
9E96
  8
0
  0
CIRCLE
  5
89A2
  8
0
 10
42.8387872691662
 20
198.5903658406165
 30
0.0
 40
0.1
  0
LINE
  5
89A3
  8
0
 10
42.73878726916629
 20
199.5903658406165
 30
0.0
 11
42.7892297470423
 21
198.833728672476
 31
0.0
  0
LINE
  5
89A4
  8
0
 10
42.93878726916657
 20
199.5903658406165
 30
0.0
 11
42.88834479129011
 21
198.8337286724742
 31
0.0
  0
ARC
  5
89A5
  8
0
 10
42.8387872691662
 20
199.5903658406165
 30
0.0
 40
0.1
 50
0.0
 51
180.0
  0
ARC
  5
89A6
  8
0
 10
42.8387872691662
 20
198.8403658406165
 30
0.0
 40
0.05
 50
187.6281496673324
 51
352.3718503305627
  0
CIRCLE
  5
89AA
  8
0
 10
82.52185159276135
 20
213.8911315128202
 30
0.0
 40
1.5
  0
CIRCLE
  5
89AB
  8
0
 10
82.52185159276135
 20
205.8911315128202
 30
0.0
 40
1.5
  0
POLYLINE
  5
89AC
  8
0
 66
     1
 10
0.0
 20
0.0
 30
0.0
 70
     1
  0
VERTEX
  5
9E6A
  8
0
 10
77.47346513217602
 20
206.2009979616206
 30
0.0
  0
VERTEX
  5
9E6B
  8
0
 10
77.20511291573442
 20
206.0460647372205
 30
0.0
  0
VERTEX
  5
9E6C
  8
0
 10
77.20511291573442
 20
205.7361982884202
 30
0.0
  0
VERTEX
  5
9E6D
  8
0
 10
77.47346513217602
 20
205.58126506402
 30
0.0
  0
VERTEX
  5
9E6E
  8
0
 10
77.74181734861762
 20
205.7361982884202
 30
0.0
  0
VERTEX
  5
9E6F
  8
0
 10
77.74181734861762
 20
206.0460647372205
 30
0.0
  0
SEQEND
  5
9E97
  8
0
  0
POLYLINE
  5
89AD
  8
0
 66
     1
 10
0.0
 20
0.0
 30
0.0
  0
VERTEX
  5
9E70
  8
0
 10
77.32346513217593
 20
206.4986483482096
 30
0.0
  0
VERTEX
  5
9E71
  8
0
 10
77.02234011950239
 20
206.3247937410827
 30
0.0
  0
SEQEND
  5
9E98
  8
0
  0
LINE
  5
89AE
  8
0
 10
77.32346513217593
 20
202.7911315128202
 30
0.0
 11
77.32346513217593
 21
203.337578122227
 31
0.0
1001
GENIUS_GENODEF_13
1002
{
1000
HIER
1070
     0
1002
}
1002
{
1000
MANEDIT
1070
     0
1002
}
1002
{
1000
NOSEL
1070
     0
1002
}
1002
{
1000
BEHIND
1070
     0
1002
}
1002
{
1000
OTHER
1070
     0
1002
}
1002
{
1000
REACTOR
1002
}
1001
GENIUS_GENOBJ-N-CEN_13
1002
{
1000
OWNER
1000
GEN
1002
}
1001
GENIUS_GENCEN_19
1002
{
1040
3.0
1002
}
  0
LINE
  5
89AF
  8
0
 10
77.62346513217611
 20
202.7911315128202
 30
0.0
 11
77.62346513217611
 21
203.337578122227
 31
0.0
1001
GENIUS_GENODEF_13
1002
{
1000
HIER
1070
     0
1002
}
1002
{
1000
MANEDIT
1070
     0
1002
}
1002
{
1000
NOSEL
1070
     0
1002
}
1002
{
1000
BEHIND
1070
     0
1002
}
1002
{
1000
OTHER
1070
     0
1002
}
1002
{
1000
REACTOR
1002
}
1001
GENIUS_GENOBJ-N-CEN_13
1002
{
1000
OWNER
1000
GEN
1002
}
1001
GENIUS_GENCEN_19
1002
{
1040
3.0
1002
}
  0
LINE
  5
89B0
  8
0
 10
77.62346513217611
 20
206.8911315128204
 30
0.0
 11
78.26929193712297
 21
207.5369583177674
 31
0.0
  0
LINE
  5
89B1
  8
0
 10
77.62346513217611
 20
207.3911315128204
 30
0.0
 11
78.01929193712297
 21
207.7869583177674
 31
0.0
  0
ARC
  5
89B2
  8
0
 10
77.47346513217602
 20
208.9911315128203
 30
0.0
 40
0.1499999999999773
 50
0.0
 51
180.0
  0
ARC
  5
89B3
  8
0
 10
78.14429193712297
 20
207.6619583177674
 30
0.0
 40
0.1767766952966168
 50
315.0000000000358
 51
134.9999999999967
  0
LINE
  5
89B4
  8
0
 10
77.32346513217593
 20
206.8911315128204
 30
0.0
 11
76.67763832722906
 21
207.5369583177674
 31
0.0
  0
LINE
  5
89B5
  8
0
 10
77.32346513217593
 20
207.3911315128204
 30
0.0
 11
76.92763832722906
 21
207.7869583177674
 31
0.0
  0
ARC
  5
89B6
  8
0
 10
76.80263832722906
 20
207.6619583177674
 30
0.0
 40
0.1767766952966168
 50
45.00000000000327
 51
224.9999999999544
  0
LINE
  5
89B7
  8
0
 10
77.62346513217611
 20
208.0911315128203
 30
0.0
 11
78.0222510293975
 21
208.4899174100417
 31
0.0
  0
LINE
  5
89B8
  8
0
 10
77.62346513217611
 20
208.4446849034135
 30
0.0
 11
77.84547433410083
 21
208.6666941053383
 31
0.0
  0
ARC
  5
89B9
  8
0
 10
77.93386268174893
 20
208.5783057576901
 30
0.0
 40
0.1249999999999206
 50
314.9999999999125
 51
134.9999999999309
  0
LINE
  5
89BA
  8
0
 10
79.30372102050185
 20
204.6612277022527
 30
0.0
 11
79.44968678955573
 21
204.1164760359774
 31
0.0
  0
LINE
  5
89BB
  8
0
 10
79.60990723834973
 20
204.4844510069561
 30
0.0
 11
79.691168246128
 21
204.1811807972531
 31
0.0
  0
ARC
  5
89BC
  8
0
 10
80.03082506741501
 20
204.9462603641558
 30
0.0
 40
0.1249999999999206
 50
285.0000000000109
 51
105.0000000000046
  0
LINE
  5
89BD
  8
0
 10
77.62346513217611
 20
204.8911315128204
 30
0.0
 11
77.62346513217611
 21
205.283614677431
 31
0.0
1001
GENIUS_GENODEF_13
1002
{
1000
HIER
1070
     0
1002
}
1002
{
1000
MANEDIT
1070
     0
1002
}
1002
{
1000
NOSEL
1070
     0
1002
}
1002
{
1000
BEHIND
1070
     0
1002
}
1002
{
1000
OTHER
1070
     0
1002
}
1002
{
1000
REACTOR
1002
}
1001
GENIUS_GENOBJ-N-CEN_13
1002
{
1000
OWNER
1000
GEN
1002
}
1001
GENIUS_GENCEN_19
1002
{
1040
3.0
1002
}
  0
LINE
  5
89BE
  8
0
 10
79.7599072383496
 20
204.7442586280914
 30
0.0
 11
80.06317744805281
 21
204.8255196358698
 31
0.0
  0
ARC
  5
89BF
  8
0
 10
79.57042751784209
 20
204.1488284166152
 30
0.0
 40
0.1249999999999206
 50
194.9999999999509
 51
15.00000000000457
  0
LINE
  5
89C0
  8
0
 10
79.45372102050172
 20
204.9210353233881
 30
0.0
 11
79.9984726867772
 21
205.0670010924421
 31
0.0
  0
LINE
  5
89C1
  8
0
 10
77.62346513217611
 20
203.6911315128203
 30
0.0
 11
77.62346513217611
 21
204.3911315128204
 31
0.0
1001
GENIUS_GENODEF_13
1002
{
1000
HIER
1070
     0
1002
}
1002
{
1000
MANEDIT
1070
     0
1002
}
1002
{
1000
NOSEL
1070
     0
1002
}
1002
{
1000
BEHIND
1070
     0
1002
}
1002
{
1000
OTHER
1070
     0
1002
}
1002
{
1000
REACTOR
1002
}
1001
GENIUS_GENOBJ-N-CEN_13
1002
{
1000
OWNER
1000
GEN
1002
}
1001
GENIUS_GENCEN_19
1002
{
1040
3.0
1002
}
  0
LINE
  5
89C2
  8
0
 10
77.32346513217593
 20
203.6911315128203
 30
0.0
 11
77.32346513217593
 21
204.3911315128204
 31
0.0
1001
GENIUS_GENODEF_13
1002
{
1000
HIER
1070
     0
1002
}
1002
{
1000
MANEDIT
1070
     0
1002
}
1002
{
1000
NOSEL
1070
     0
1002
}
1002
{
1000
BEHIND
1070
     0
1002
}
1002
{
1000
OTHER
1070
     0
1002
}
1002
{
1000
REACTOR
1002
}
1001
GENIUS_GENOBJ-N-CEN_13
1002
{
1000
OWNER
1000
GEN
1002
}
1001
GENIUS_GENCEN_19
1002
{
1040
3.0
1002
}
  0
LINE
  5
89C3
  8
0
 10
77.32346513217593
 20
208.4446849034135
 30
0.0
 11
77.32346513217593
 21
208.9911315128203
 31
0.0
1001
GENIUS_GENODEF_13
1002
{
1000
HIER
1070
     0
1002
}
1002
{
1000
MANEDIT
1070
     0
1002
}
1002
{
1000
NOSEL
1070
     0
1002
}
1002
{
1000
BEHIND
1070
     0
1002
}
1002
{
1000
OTHER
1070
     0
1002
}
1002
{
1000
REACTOR
1002
}
1001
GENIUS_GENOBJ-N-CEN_13
1002
{
1000
OWNER
1000
GEN
1002
}
1001
GENIUS_GENCEN_19
1002
{
1040
3.0
1002
}
  0
LINE
  5
89C4
  8
0
 10
77.62346513217611
 20
208.4446849034135
 30
0.0
 11
77.62346513217611
 21
208.9911315128203
 31
0.0
1001
GENIUS_GENODEF_13
1002
{
1000
HIER
1070
     0
1002
}
1002
{
1000
MANEDIT
1070
     0
1002
}
1002
{
1000
NOSEL
1070
     0
1002
}
1002
{
1000
BEHIND
1070
     0
1002
}
1002
{
1000
OTHER
1070
     0
1002
}
1002
{
1000
REACTOR
1002
}
1001
GENIUS_GENOBJ-N-CEN_13
1002
{
1000
OWNER
1000
GEN
1002
}
1001
GENIUS_GENCEN_19
1002
{
1040
3.0
1002
}
  0
ARC
  5
89C5
  8
0
 10
77.0130675826031
 20
208.5783057576901
 30
0.0
 40
0.1249999999999206
 50
45.00000000006909
 51
224.9999999999401
  0
LINE
  5
89C6
  8
0
 10
77.32346513217593
 20
208.4446849034135
 30
0.0
 11
77.1014559302512
 21
208.6666941053383
 31
0.0
  0
LINE
  5
89C7
  8
0
 10
77.32346513217593
 20
208.0911315128203
 30
0.0
 11
76.92467923495454
 21
208.4899174100417
 31
0.0
  0
LINE
  5
89C8
  8
0
 10
77.62346513217611
 20
207.3911315128204
 30
0.0
 11
77.62346513217611
 21
208.0911315128203
 31
0.0
1001
GENIUS_GENODEF_13
1002
{
1000
HIER
1070
     0
1002
}
1002
{
1000
MANEDIT
1070
     0
1002
}
1002
{
1000
NOSEL
1070
     0
1002
}
1002
{
1000
BEHIND
1070
     0
1002
}
1002
{
1000
OTHER
1070
     0
1002
}
1002
{
1000
REACTOR
1002
}
1001
GENIUS_GENOBJ-N-CEN_13
1002
{
1000
OWNER
1000
GEN
1002
}
1001
GENIUS_GENCEN_19
1002
{
1040
3.0
1002
}
  0
LINE
  5
89C9
  8
0
 10
77.32346513217593
 20
207.3911315128204
 30
0.0
 11
77.32346513217593
 21
208.0911315128203
 31
0.0
1001
GENIUS_GENODEF_13
1002
{
1000
HIER
1070
     0
1002
}
1002
{
1000
MANEDIT
1070
     0
1002
}
1002
{
1000
NOSEL
1070
     0
1002
}
1002
{
1000
BEHIND
1070
     0
1002
}
1002
{
1000
OTHER
1070
     0
1002
}
1002
{
1000
REACTOR
1002
}
1001
GENIUS_GENOBJ-N-CEN_13
1002
{
1000
OWNER
1000
GEN
1002
}
1001
GENIUS_GENCEN_19
1002
{
1040
3.0
1002
}
  0
LINE
  5
89CA
  8
0
 10
77.62346513217611
 20
203.337578122227
 30
0.0
 11
77.84547433410083
 21
203.1155689203023
 31
0.0
  0
LINE
  5
89CB
  8
0
 10
77.32346513217593
 20
204.3911315128204
 30
0.0
 11
76.92763832722906
 21
203.9953047078733
 31
0.0
  0
ARC
  5
89CC
  8
0
 10
77.47346513217602
 20
202.7911315128202
 30
0.0
 40
0.1499999999999773
 50
180.0
 51
0.0
  0
ARC
  5
89CD
  8
0
 10
78.14429193712297
 20
204.1203047078733
 30
0.0
 40
0.1767766952966168
 50
224.9999999999837
 51
45.00000000000327
  0
ARC
  5
89CE
  8
0
 10
76.80263832722906
 20
204.1203047078733
 30
0.0
 40
0.1767766952966168
 50
134.9999999999935
 51
315.0000000000098
  0
LINE
  5
89CF
  8
0
 10
77.62346513217611
 20
204.3911315128204
 30
0.0
 11
78.01929193712297
 21
203.9953047078733
 31
0.0
  0
LINE
  5
89D0
  8
0
 10
77.32346513217593
 20
204.8911315128204
 30
0.0
 11
76.67763832722906
 21
204.2453047078733
 31
0.0
  0
ARC
  5
89D1
  8
0
 10
77.93386268174893
 20
203.2039572679505
 30
0.0
 40
0.1249999999999206
 50
225.0000000000507
 51
44.99999999995854
  0
LINE
  5
89D2
  8
0
 10
77.32346513217593
 20
203.6911315128203
 30
0.0
 11
76.92467923495454
 21
203.2923456155989
 31
0.0
  0
LINE
  5
89D3
  8
0
 10
77.62346513217611
 20
203.6911315128203
 30
0.0
 11
78.0222510293975
 21
203.2923456155989
 31
0.0
  0
LINE
  5
89D4
  8
0
 10
77.62346513217611
 20
204.8911315128204
 30
0.0
 11
78.26929193712297
 21
204.2453047078733
 31
0.0
  0
ARC
  5
89D5
  8
0
 10
77.0130675826031
 20
203.2039572679505
 30
0.0
 40
0.1249999999999206
 50
134.9999999998941
 51
314.9999999999125
  0
LINE
  5
89D6
  8
0
 10
77.32346513217593
 20
203.337578122227
 30
0.0
 11
77.1014559302512
 21
203.1155689203023
 31
0.0
  0
LINE
  5
89D7
  8
0
 10
78.69750323785277
 20
206.771035323388
 30
0.0
 11
78.8423859039622
 21
207.3117447944444
 31
0.0
  0
ARC
  5
89D8
  8
0
 10
78.67163272848919
 20
207.3574979699175
 30
0.0
 40
0.1767766952966168
 50
344.9999999999747
 51
164.9999999999747
  0
LINE
  5
89D9
  8
0
 10
75.3370230260023
 20
204.4844510069561
 30
0.0
 11
74.86378638044428
 21
204.2112277022527
 31
0.0
1001
GENIUS_GENODEF_13
1002
{
1000
HIER
1070
     0
1002
}
1002
{
1000
MANEDIT
1070
     0
1002
}
1002
{
1000
NOSEL
1070
     0
1002
}
1002
{
1000
BEHIND
1070
     0
1002
}
1002
{
1000
OTHER
1070
     0
1002
}
1002
{
1000
REACTOR
1002
}
1001
GENIUS_GENOBJ-N-CEN_13
1002
{
1000
OWNER
1000
GEN
1002
}
1001
GENIUS_GENCEN_19
1002
{
1040
3.0
1002
}
  0
LINE
  5
89DA
  8
0
 10
78.41449053596037
 20
206.2612277022527
 30
0.0
 11
79.29670635796313
 21
206.0248386851971
 31
0.0
  0
LINE
  5
89DB
  8
0
 10
79.45372102050172
 20
206.8612277022527
 30
0.0
 11
79.9984726867772
 21
206.7152619331987
 31
0.0
  0
LINE
  5
89DC
  8
0
 10
79.7599072383496
 20
207.0380043975493
 30
0.0
 11
80.06317744805281
 21
206.956743389771
 31
0.0
  0
ARC
  5
89DD
  8
0
 10
80.03082506741501
 20
206.8360026614849
 30
0.0
 40
0.1249999999999206
 50
254.9999999999891
 51
74.99999999999544
  0
LINE
  5
89DE
  8
0
 10
79.30372102050185
 20
207.121035323388
 30
0.0
 11
79.44968678955573
 21
207.6657869896634
 31
0.0
  0
LINE
  5
89DF
  8
0
 10
76.0994270264994
 20
205.271035323388
 30
0.0
 11
75.49320924385032
 21
204.921035323388
 31
0.0
1001
GENIUS_GENODEF_13
1002
{
1000
HIER
1070
     0
1002
}
1002
{
1000
MANEDIT
1070
     0
1002
}
1002
{
1000
NOSEL
1070
     0
1002
}
1002
{
1000
BEHIND
1070
     0
1002
}
1002
{
1000
OTHER
1070
     0
1002
}
1002
{
1000
REACTOR
1002
}
1001
GENIUS_GENOBJ-N-CEN_13
1002
{
1000
OWNER
1000
GEN
1002
}
1001
GENIUS_GENCEN_19
1002
{
1040
3.0
1002
}
  0
ARC
  5
89E0
  8
0
 10
76.27529753586285
 20
204.4247650557231
 30
0.0
 40
0.1767766952966168
 50
164.9999999999747
 51
345.000000000024
  0
LINE
  5
89E1
  8
0
 10
76.0994270264994
 20
205.271035323388
 30
0.0
 11
75.55871755544288
 21
205.4159179894974
 31
0.0
  0
ARC
  5
89E2
  8
0
 10
80.1581438839078
 20
207.4411315128203
 30
0.0
 40
0.1499999999999773
 50
300.0000000000254
 51
120.0000000000254
  0
LINE
  5
89E3
  8
0
 10
78.41449053596037
 20
206.2612277022527
 30
0.0
 11
78.07459014484974
 21
206.0649861199472
 31
0.0
1001
GENIUS_GENODEF_13
1002
{
1000
HIER
1070
     0
1002
}
1002
{
1000
MANEDIT
1070
     0
1002
}
1002
{
1000
NOSEL
1070
     0
1002
}
1002
{
1000
BEHIND
1070
     0
1002
}
1002
{
1000
OTHER
1070
     0
1002
}
1002
{
1000
REACTOR
1002
}
1001
GENIUS_GENOBJ-N-CEN_13
1002
{
1000
OWNER
1000
GEN
1002
}
1001
GENIUS_GENCEN_19
1002
{
1040
3.0
1002
}
  0
LINE
  5
89E4
  8
0
 10
78.2644905359605
 20
206.521035323388
 30
0.0
 11
77.92459014484987
 21
206.3247937410825
 31
0.0
1001
GENIUS_GENODEF_13
1002
{
1000
HIER
1070
     0
1002
}
1002
{
1000
MANEDIT
1070
     0
1002
}
1002
{
1000
NOSEL
1070
     0
1002
}
1002
{
1000
BEHIND
1070
     0
1002
}
1002
{
1000
OTHER
1070
     0
1002
}
1002
{
1000
REACTOR
1002
}
1001
GENIUS_GENOBJ-N-CEN_13
1002
{
1000
OWNER
1000
GEN
1002
}
1001
GENIUS_GENCEN_19
1002
{
1040
3.0
1002
}
  0
LINE
  5
89E5
  8
0
 10
76.24942702649926
 20
205.0112277022527
 30
0.0
 11
76.10454436038984
 21
204.4705182311963
 31
0.0
  0
LINE
  5
89E6
  8
0
 10
76.68243972839153
 20
205.2612277022527
 30
0.0
 11
76.44605071133608
 21
204.3790118802501
 31
0.0
  0
LINE
  5
89E7
  8
0
 10
80.23314388390784
 20
207.3112277022527
 30
0.0
 11
79.7599072383496
 21
207.0380043975493
 31
0.0
1001
GENIUS_GENODEF_13
1002
{
1000
HIER
1070
     0
1002
}
1002
{
1000
MANEDIT
1070
     0
1002
}
1002
{
1000
NOSEL
1070
     0
1002
}
1002
{
1000
BEHIND
1070
     0
1002
}
1002
{
1000
OTHER
1070
     0
1002
}
1002
{
1000
REACTOR
1002
}
1001
GENIUS_GENOBJ-N-CEN_13
1002
{
1000
OWNER
1000
GEN
1002
}
1001
GENIUS_GENCEN_19
1002
{
1040
3.0
1002
}
  0
ARC
  5
89E8
  8
0
 10
74.78878638044424
 20
204.3411315128203
 30
0.0
 40
0.1499999999999773
 50
120.0000000000254
 51
300.0000000000254
  0
ARC
  5
89E9
  8
0
 10
75.60447073091589
 20
205.5866711649704
 30
0.0
 40
0.1767766952966168
 50
75.0000000000127
 51
255.0000000000127
  0
LINE
  5
89EA
  8
0
 10
80.08314388390775
 20
207.5710353233881
 30
0.0
 11
79.60990723834973
 21
207.2978120186847
 31
0.0
1001
GENIUS_GENODEF_13
1002
{
1000
HIER
1070
     0
1002
}
1002
{
1000
MANEDIT
1070
     0
1002
}
1002
{
1000
NOSEL
1070
     0
1002
}
1002
{
1000
BEHIND
1070
     0
1002
}
1002
{
1000
OTHER
1070
     0
1002
}
1002
{
1000
REACTOR
1002
}
1001
GENIUS_GENOBJ-N-CEN_13
1002
{
1000
OWNER
1000
GEN
1002
}
1001
GENIUS_GENCEN_19
1002
{
1040
3.0
1002
}
  0
LINE
  5
89EB
  8
0
 10
79.30372102050185
 20
207.121035323388
 30
0.0
 11
78.69750323785277
 21
206.771035323388
 31
0.0
1001
GENIUS_GENODEF_13
1002
{
1000
HIER
1070
     0
1002
}
1002
{
1000
MANEDIT
1070
     0
1002
}
1002
{
1000
NOSEL
1070
     0
1002
}
1002
{
1000
BEHIND
1070
     0
1002
}
1002
{
1000
OTHER
1070
     0
1002
}
1002
{
1000
REACTOR
1002
}
1001
GENIUS_GENOBJ-N-CEN_13
1002
{
1000
OWNER
1000
GEN
1002
}
1001
GENIUS_GENCEN_19
1002
{
1040
3.0
1002
}
  0
LINE
  5
89EC
  8
0
 10
75.18702302600244
 20
204.7442586280914
 30
0.0
 11
74.71378638044419
 21
204.471035323388
 31
0.0
1001
GENIUS_GENODEF_13
1002
{
1000
HIER
1070
     0
1002
}
1002
{
1000
MANEDIT
1070
     0
1002
}
1002
{
1000
NOSEL
1070
     0
1002
}
1002
{
1000
BEHIND
1070
     0
1002
}
1002
{
1000
OTHER
1070
     0
1002
}
1002
{
1000
REACTOR
1002
}
1001
GENIUS_GENOBJ-N-CEN_13
1002
{
1000
OWNER
1000
GEN
1002
}
1001
GENIUS_GENCEN_19
1002
{
1040
3.0
1002
}
  0
LINE
  5
89ED
  8
0
 10
79.45372102050172
 20
206.8612277022527
 30
0.0
 11
78.84750323785264
 21
206.5112277022527
 31
0.0
1001
GENIUS_GENODEF_13
1002
{
1000
HIER
1070
     0
1002
}
1002
{
1000
MANEDIT
1070
     0
1002
}
1002
{
1000
NOSEL
1070
     0
1002
}
1002
{
1000
BEHIND
1070
     0
1002
}
1002
{
1000
OTHER
1070
     0
1002
}
1002
{
1000
REACTOR
1002
}
1001
GENIUS_GENOBJ-N-CEN_13
1002
{
1000
OWNER
1000
GEN
1002
}
1001
GENIUS_GENCEN_19
1002
{
1040
3.0
1002
}
  0
LINE
  5
89EE
  8
0
 10
75.64320924385018
 20
204.6612277022526
 30
0.0
 11
75.4972434747963
 21
204.1164760359773
 31
0.0
  0
LINE
  5
89EF
  8
0
 10
75.3370230260023
 20
204.4844510069561
 30
0.0
 11
75.25576201822403
 21
204.181180797253
 31
0.0
  0
ARC
  5
89F0
  8
0
 10
75.37650274650994
 20
204.1488284166151
 30
0.0
 40
0.1249999999999206
 50
164.9999999999954
 51
345.0000000001154
  0
LINE
  5
89F1
  8
0
 10
75.49320924385032
 20
204.921035323388
 30
0.0
 11
74.94845757757483
 21
205.067001092442
 31
0.0
  0
LINE
  5
89F2
  8
0
 10
75.18702302600244
 20
204.7442586280914
 30
0.0
 11
74.88375281629922
 21
204.8255196358697
 31
0.0
  0
LINE
  5
89F3
  8
0
 10
76.24942702649926
 20
205.0112277022527
 30
0.0
 11
75.64320924385018
 21
204.6612277022526
 31
0.0
1001
GENIUS_GENODEF_13
1002
{
1000
HIER
1070
     0
1002
}
1002
{
1000
MANEDIT
1070
     0
1002
}
1002
{
1000
NOSEL
1070
     0
1002
}
1002
{
1000
BEHIND
1070
     0
1002
}
1002
{
1000
OTHER
1070
     0
1002
}
1002
{
1000
REACTOR
1002
}
1001
GENIUS_GENOBJ-N-CEN_13
1002
{
1000
OWNER
1000
GEN
1002
}
1001
GENIUS_GENCEN_19
1002
{
1040
3.0
1002
}
  0
LINE
  5
89F4
  8
0
 10
76.53243972839167
 20
205.521035323388
 30
0.0
 11
75.6502239063889
 21
205.7574243404435
 31
0.0
  0
ARC
  5
89F5
  8
0
 10
74.91610519693702
 20
204.9462603641557
 30
0.0
 40
0.1249999999999206
 50
74.99999999999544
 51
254.9999999999954
  0
LINE
  5
89F6
  8
0
 10
78.84750323785264
 20
206.5112277022527
 30
0.0
 11
79.38821270890915
 21
206.3663450361432
 31
0.0
  0
ARC
  5
89F7
  8
0
 10
79.34245953343614
 20
206.1955918606702
 30
0.0
 40
0.1767766952966168
 50
255.0000000000127
 51
75.0000000000127
  0
LINE
  5
89F8
  8
0
 10
78.2644905359605
 20
206.521035323388
 30
0.0
 11
78.50087955301618
 21
207.4032511453905
 31
0.0
  0
LINE
  5
89F9
  8
0
 10
77.32346513217593
 20
204.8911315128204
 30
0.0
 11
77.32346513217593
 21
205.283614677431
 31
0.0
1001
GENIUS_GENODEF_13
1002
{
1000
HIER
1070
     0
1002
}
1002
{
1000
MANEDIT
1070
     0
1002
}
1002
{
1000
NOSEL
1070
     0
1002
}
1002
{
1000
BEHIND
1070
     0
1002
}
1002
{
1000
OTHER
1070
     0
1002
}
1002
{
1000
REACTOR
1002
}
1001
GENIUS_GENOBJ-N-CEN_13
1002
{
1000
OWNER
1000
GEN
1002
}
1001
GENIUS_GENCEN_19
1002
{
1040
3.0
1002
}
  0
LINE
  5
89FA
  8
0
 10
79.60990723834973
 20
207.2978120186847
 30
0.0
 11
79.691168246128
 21
207.6010822283877
 31
0.0
  0
ARC
  5
89FB
  8
0
 10
79.57042751784209
 20
207.6334346090256
 30
0.0
 40
0.1249999999999206
 50
345.0000000000223
 51
165.0000000001046
  0
LINE
  5
89FC
  8
0
 10
75.3370230260023
 20
207.2978120186847
 30
0.0
 11
75.25576201822403
 21
207.6010822283878
 31
0.0
  0
LINE
  5
89FD
  8
0
 10
75.49320924385032
 20
206.8612277022527
 30
0.0
 11
74.94845757757483
 21
206.7152619331987
 31
0.0
  0
LINE
  5
89FE
  8
0
 10
75.18702302600244
 20
207.0380043975493
 30
0.0
 11
74.88375281629922
 21
206.9567433897711
 31
0.0
  0
LINE
  5
89FF
  8
0
 10
79.30372102050185
 20
204.6612277022527
 30
0.0
 11
78.69750323785277
 21
205.0112277022528
 31
0.0
1001
GENIUS_GENODEF_13
1002
{
1000
HIER
1070
     0
1002
}
1002
{
1000
MANEDIT
1070
     0
1002
}
1002
{
1000
NOSEL
1070
     0
1002
}
1002
{
1000
BEHIND
1070
     0
1002
}
1002
{
1000
OTHER
1070
     0
1002
}
1002
{
1000
REACTOR
1002
}
1001
GENIUS_GENOBJ-N-CEN_13
1002
{
1000
OWNER
1000
GEN
1002
}
1001
GENIUS_GENCEN_19
1002
{
1040
3.0
1002
}
  0
LINE
  5
8A00
  8
0
 10
79.45372102050172
 20
204.9210353233881
 30
0.0
 11
78.84750323785264
 21
205.2710353233881
 31
0.0
1001
GENIUS_GENODEF_13
1002
{
1000
HIER
1070
     0
1002
}
1002
{
1000
MANEDIT
1070
     0
1002
}
1002
{
1000
NOSEL
1070
     0
1002
}
1002
{
1000
BEHIND
1070
     0
1002
}
1002
{
1000
OTHER
1070
     0
1002
}
1002
{
1000
REACTOR
1002
}
1001
GENIUS_GENOBJ-N-CEN_13
1002
{
1000
OWNER
1000
GEN
1002
}
1001
GENIUS_GENCEN_19
1002
{
1040
3.0
1002
}
  0
ARC
  5
8A01
  8
0
 10
75.37650274650994
 20
207.6334346090256
 30
0.0
 40
0.1249999999999206
 50
14.99999999995087
 51
194.9999999999509
  0
ARC
  5
8A02
  8
0
 10
74.91610519693702
 20
206.8360026614849
 30
0.0
 40
0.1249999999999206
 50
105.0000000000046
 51
285.0000000000046
  0
LINE
  5
8A03
  8
0
 10
78.2644905359605
 20
205.2612277022528
 30
0.0
 11
77.92459014484987
 21
205.4574692845581
 31
0.0
1001
GENIUS_GENODEF_13
1002
{
1000
HIER
1070
     0
1002
}
1002
{
1000
MANEDIT
1070
     0
1002
}
1002
{
1000
NOSEL
1070
     0
1002
}
1002
{
1000
BEHIND
1070
     0
1002
}
1002
{
1000
OTHER
1070
     0
1002
}
1002
{
1000
REACTOR
1002
}
1001
GENIUS_GENOBJ-N-CEN_13
1002
{
1000
OWNER
1000
GEN
1002
}
1001
GENIUS_GENCEN_19
1002
{
1040
3.0
1002
}
  0
LINE
  5
8A04
  8
0
 10
75.3370230260023
 20
207.2978120186847
 30
0.0
 11
74.86378638044428
 21
207.5710353233881
 31
0.0
1001
GENIUS_GENODEF_13
1002
{
1000
HIER
1070
     0
1002
}
1002
{
1000
MANEDIT
1070
     0
1002
}
1002
{
1000
NOSEL
1070
     0
1002
}
1002
{
1000
BEHIND
1070
     0
1002
}
1002
{
1000
OTHER
1070
     0
1002
}
1002
{
1000
REACTOR
1002
}
1001
GENIUS_GENOBJ-N-CEN_13
1002
{
1000
OWNER
1000
GEN
1002
}
1001
GENIUS_GENCEN_19
1002
{
1040
3.0
1002
}
  0
LINE
  5
8A05
  8
0
 10
76.24942702649926
 20
206.7710353233881
 30
0.0
 11
76.10454436038984
 21
207.3117447944445
 31
0.0
  0
LINE
  5
8A06
  8
0
 10
78.41449053596037
 20
205.5210353233881
 30
0.0
 11
79.29670635796313
 21
205.7574243404435
 31
0.0
  0
ARC
  5
8A07
  8
0
 10
76.27529753586285
 20
207.3574979699175
 30
0.0
 40
0.1767766952966168
 50
15.00000000002528
 51
194.999999999976
  0
LINE
  5
8A08
  8
0
 10
80.08314388390775
 20
204.2112277022527
 30
0.0
 11
79.60990723834973
 21
204.4844510069561
 31
0.0
1001
GENIUS_GENODEF_13
1002
{
1000
HIER
1070
     0
1002
}
1002
{
1000
MANEDIT
1070
     0
1002
}
1002
{
1000
NOSEL
1070
     0
1002
}
1002
{
1000
BEHIND
1070
     0
1002
}
1002
{
1000
OTHER
1070
     0
1002
}
1002
{
1000
REACTOR
1002
}
1001
GENIUS_GENOBJ-N-CEN_13
1002
{
1000
OWNER
1000
GEN
1002
}
1001
GENIUS_GENCEN_19
1002
{
1040
3.0
1002
}
  0
LINE
  5
8A09
  8
0
 10
76.53243972839167
 20
206.2612277022528
 30
0.0
 11
75.6502239063889
 21
206.0248386851972
 31
0.0
  0
LINE
  5
8A0A
  8
0
 10
78.41449053596037
 20
205.5210353233881
 30
0.0
 11
78.07459014484974
 21
205.7172769056934
 31
0.0
1001
GENIUS_GENODEF_13
1002
{
1000
HIER
1070
     0
1002
}
1002
{
1000
MANEDIT
1070
     0
1002
}
1002
{
1000
NOSEL
1070
     0
1002
}
1002
{
1000
BEHIND
1070
     0
1002
}
1002
{
1000
OTHER
1070
     0
1002
}
1002
{
1000
REACTOR
1002
}
1001
GENIUS_GENOBJ-N-CEN_13
1002
{
1000
OWNER
1000
GEN
1002
}
1001
GENIUS_GENCEN_19
1002
{
1040
3.0
1002
}
  0
LINE
  5
8A0B
  8
0
 10
80.23314388390784
 20
204.471035323388
 30
0.0
 11
79.7599072383496
 21
204.7442586280914
 31
0.0
1001
GENIUS_GENODEF_13
1002
{
1000
HIER
1070
     0
1002
}
1002
{
1000
MANEDIT
1070
     0
1002
}
1002
{
1000
NOSEL
1070
     0
1002
}
1002
{
1000
BEHIND
1070
     0
1002
}
1002
{
1000
OTHER
1070
     0
1002
}
1002
{
1000
REACTOR
1002
}
1001
GENIUS_GENOBJ-N-CEN_13
1002
{
1000
OWNER
1000
GEN
1002
}
1001
GENIUS_GENCEN_19
1002
{
1040
3.0
1002
}
  0
LINE
  5
8A0C
  8
0
 10
75.64320924385018
 20
207.121035323388
 30
0.0
 11
75.4972434747963
 21
207.6657869896634
 31
0.0
  0
ARC
  5
8A0D
  8
0
 10
75.60447073091589
 20
206.1955918606702
 30
0.0
 40
0.1767766952966168
 50
104.9999999999873
 51
284.9999999999873
  0
ARC
  5
8A0E
  8
0
 10
74.78878638044424
 20
207.4411315128204
 30
0.0
 40
0.1499999999999773
 50
59.99999999997465
 51
239.9999999999746
  0
LINE
  5
8A0F
  8
0
 10
78.84750323785264
 20
205.2710353233881
 30
0.0
 11
79.38821270890915
 21
205.4159179894974
 31
0.0
  0
LINE
  5
8A10
  8
0
 10
76.24942702649926
 20
206.7710353233881
 30
0.0
 11
75.64320924385018
 21
207.121035323388
 31
0.0
1001
GENIUS_GENODEF_13
1002
{
1000
HIER
1070
     0
1002
}
1002
{
1000
MANEDIT
1070
     0
1002
}
1002
{
1000
NOSEL
1070
     0
1002
}
1002
{
1000
BEHIND
1070
     0
1002
}
1002
{
1000
OTHER
1070
     0
1002
}
1002
{
1000
REACTOR
1002
}
1001
GENIUS_GENOBJ-N-CEN_13
1002
{
1000
OWNER
1000
GEN
1002
}
1001
GENIUS_GENCEN_19
1002
{
1040
3.0
1002
}
  0
ARC
  5
8A11
  8
0
 10
80.1581438839078
 20
204.3411315128204
 30
0.0
 40
0.1499999999999773
 50
239.9999999999746
 51
59.99999999997465
  0
ARC
  5
8A12
  8
0
 10
79.34245953343614
 20
205.5866711649705
 30
0.0
 40
0.1767766952966168
 50
284.9999999999873
 51
104.9999999999873
  0
LINE
  5
8A13
  8
0
 10
78.2644905359605
 20
205.2612277022528
 30
0.0
 11
78.50087955301618
 21
204.3790118802501
 31
0.0
  0
LINE
  5
8A14
  8
0
 10
75.18702302600244
 20
207.0380043975493
 30
0.0
 11
74.71378638044419
 21
207.3112277022527
 31
0.0
1001
GENIUS_GENODEF_13
1002
{
1000
HIER
1070
     0
1002
}
1002
{
1000
MANEDIT
1070
     0
1002
}
1002
{
1000
NOSEL
1070
     0
1002
}
1002
{
1000
BEHIND
1070
     0
1002
}
1002
{
1000
OTHER
1070
     0
1002
}
1002
{
1000
REACTOR
1002
}
1001
GENIUS_GENOBJ-N-CEN_13
1002
{
1000
OWNER
1000
GEN
1002
}
1001
GENIUS_GENCEN_19
1002
{
1040
3.0
1002
}
  0
LINE
  5
8A15
  8
0
 10
78.69750323785277
 20
205.0112277022528
 30
0.0
 11
78.8423859039622
 21
204.4705182311963
 31
0.0
  0
LINE
  5
8A16
  8
0
 10
76.0994270264994
 20
206.5112277022528
 30
0.0
 11
75.55871755544288
 21
206.3663450361433
 31
0.0
  0
LINE
  5
8A17
  8
0
 10
76.68243972839153
 20
206.5210353233881
 30
0.0
 11
76.44605071133608
 21
207.4032511453906
 31
0.0
  0
ARC
  5
8A18
  8
0
 10
78.67163272848919
 20
204.4247650557232
 30
0.0
 40
0.1767766952966168
 50
195.0000000000253
 51
14.99999999998613
  0
LINE
  5
8A19
  8
0
 10
76.0994270264994
 20
206.5112277022528
 30
0.0
 11
75.49320924385032
 21
206.8612277022527
 31
0.0
1001
GENIUS_GENODEF_13
1002
{
1000
HIER
1070
     0
1002
}
1002
{
1000
MANEDIT
1070
     0
1002
}
1002
{
1000
NOSEL
1070
     0
1002
}
1002
{
1000
BEHIND
1070
     0
1002
}
1002
{
1000
OTHER
1070
     0
1002
}
1002
{
1000
REACTOR
1002
}
1001
GENIUS_GENOBJ-N-CEN_13
1002
{
1000
OWNER
1000
GEN
1002
}
1001
GENIUS_GENCEN_19
1002
{
1040
3.0
1002
}
  0
POLYLINE
  5
8A1A
  8
0
 66
     1
 10
0.0
 20
0.0
 30
0.0
  0
VERTEX
  5
9E72
  8
0
 10
77.92459014484987
 20
206.3247937410825
 30
0.0
  0
VERTEX
  5
9E73
  8
0
 10
77.62346513217611
 20
206.4986483482096
 30
0.0
  0
SEQEND
  5
9E99
  8
0
  0
POLYLINE
  5
8A1B
  8
0
 66
     1
 10
0.0
 20
0.0
 30
0.0
  0
VERTEX
  5
9E74
  8
0
 10
77.02234011950216
 20
205.457469284558
 30
0.0
  0
VERTEX
  5
9E75
  8
0
 10
77.32346513217593
 20
205.283614677431
 30
0.0
  0
SEQEND
  5
9E9A
  8
0
  0
POLYLINE
  5
8A1C
  8
0
 66
     1
 10
0.0
 20
0.0
 30
0.0
  0
VERTEX
  5
9E76
  8
0
 10
77.62346513217611
 20
205.283614677431
 30
0.0
  0
VERTEX
  5
9E77
  8
0
 10
77.92459014484987
 20
205.4574692845581
 30
0.0
  0
SEQEND
  5
9E9B
  8
0
  0
POLYLINE
  5
8A1D
  8
0
 66
     1
 10
0.0
 20
0.0
 30
0.0
  0
VERTEX
  5
9E78
  8
0
 10
78.07459014484974
 20
205.7172769056934
 30
0.0
  0
VERTEX
  5
9E79
  8
0
 10
78.07459014484974
 20
206.0649861199472
 30
0.0
  0
SEQEND
  5
9E9C
  8
0
  0
POLYLINE
  5
8A1E
  8
0
 66
     1
 10
0.0
 20
0.0
 30
0.0
  0
VERTEX
  5
9E7A
  8
0
 10
76.8723401195023
 20
206.0649861199473
 30
0.0
  0
VERTEX
  5
9E7B
  8
0
 10
76.8723401195023
 20
205.7172769056933
 30
0.0
  0
SEQEND
  5
9E9D
  8
0
  0
LINE
  5
8A1F
  8
0
 10
76.8723401195023
 20
206.0649861199473
 30
0.0
 11
76.53243972839167
 21
206.2612277022528
 31
0.0
1001
GENIUS_GENODEF_13
1002
{
1000
HIER
1070
     0
1002
}
1002
{
1000
MANEDIT
1070
     0
1002
}
1002
{
1000
NOSEL
1070
     0
1002
}
1002
{
1000
BEHIND
1070
     0
1002
}
1002
{
1000
OTHER
1070
     0
1002
}
1002
{
1000
REACTOR
1002
}
1001
GENIUS_GENOBJ-N-CEN_13
1002
{
1000
OWNER
1000
GEN
1002
}
1001
GENIUS_GENCEN_19
1002
{
1040
3.0
1002
}
  0
LINE
  5
8A20
  8
0
 10
77.02234011950216
 20
205.457469284558
 30
0.0
 11
76.68243972839153
 21
205.2612277022527
 31
0.0
1001
GENIUS_GENODEF_13
1002
{
1000
HIER
1070
     0
1002
}
1002
{
1000
MANEDIT
1070
     0
1002
}
1002
{
1000
NOSEL
1070
     0
1002
}
1002
{
1000
BEHIND
1070
     0
1002
}
1002
{
1000
OTHER
1070
     0
1002
}
1002
{
1000
REACTOR
1002
}
1001
GENIUS_GENOBJ-N-CEN_13
1002
{
1000
OWNER
1000
GEN
1002
}
1001
GENIUS_GENCEN_19
1002
{
1040
3.0
1002
}
  0
LINE
  5
8A21
  8
0
 10
77.62346513217611
 20
206.4986483482096
 30
0.0
 11
77.62346513217611
 21
206.8911315128204
 31
0.0
1001
GENIUS_GENODEF_13
1002
{
1000
HIER
1070
     0
1002
}
1002
{
1000
MANEDIT
1070
     0
1002
}
1002
{
1000
NOSEL
1070
     0
1002
}
1002
{
1000
BEHIND
1070
     0
1002
}
1002
{
1000
OTHER
1070
     0
1002
}
1002
{
1000
REACTOR
1002
}
1001
GENIUS_GENOBJ-N-CEN_13
1002
{
1000
OWNER
1000
GEN
1002
}
1001
GENIUS_GENCEN_19
1002
{
1040
3.0
1002
}
  0
LINE
  5
8A22
  8
0
 10
76.8723401195023
 20
205.7172769056933
 30
0.0
 11
76.53243972839167
 21
205.521035323388
 31
0.0
1001
GENIUS_GENODEF_13
1002
{
1000
HIER
1070
     0
1002
}
1002
{
1000
MANEDIT
1070
     0
1002
}
1002
{
1000
NOSEL
1070
     0
1002
}
1002
{
1000
BEHIND
1070
     0
1002
}
1002
{
1000
OTHER
1070
     0
1002
}
1002
{
1000
REACTOR
1002
}
1001
GENIUS_GENOBJ-N-CEN_13
1002
{
1000
OWNER
1000
GEN
1002
}
1001
GENIUS_GENCEN_19
1002
{
1040
3.0
1002
}
  0
LINE
  5
8A23
  8
0
 10
77.02234011950239
 20
206.3247937410827
 30
0.0
 11
76.68243972839153
 21
206.5210353233881
 31
0.0
1001
GENIUS_GENODEF_13
1002
{
1000
HIER
1070
     0
1002
}
1002
{
1000
MANEDIT
1070
     0
1002
}
1002
{
1000
NOSEL
1070
     0
1002
}
1002
{
1000
BEHIND
1070
     0
1002
}
1002
{
1000
OTHER
1070
     0
1002
}
1002
{
1000
REACTOR
1002
}
1001
GENIUS_GENOBJ-N-CEN_13
1002
{
1000
OWNER
1000
GEN
1002
}
1001
GENIUS_GENCEN_19
1002
{
1040
3.0
1002
}
  0
LINE
  5
8A24
  8
0
 10
77.32346513217593
 20
206.4986483482096
 30
0.0
 11
77.32346513217593
 21
206.8911315128204
 31
0.0
1001
GENIUS_GENODEF_13
1002
{
1000
HIER
1070
     0
1002
}
1002
{
1000
MANEDIT
1070
     0
1002
}
1002
{
1000
NOSEL
1070
     0
1002
}
1002
{
1000
BEHIND
1070
     0
1002
}
1002
{
1000
OTHER
1070
     0
1002
}
1002
{
1000
REACTOR
1002
}
1001
GENIUS_GENOBJ-N-CEN_13
1002
{
1000
OWNER
1000
GEN
1002
}
1001
GENIUS_GENCEN_19
1002
{
1040
3.0
1002
}
  0
POINT
  5
8A25
  8
0
 10
77.47346513217602
 20
205.8911315128204
 30
0.0
  0
INSERT
  5
8A27
  8
0
 62
     7
  2
*X10
 10
0.0
 20
0.0
 30
0.0
  0
TEXT
  5
8A28
  8
0
 62
     7
 10
69.34772238233543
 20
232.9769694843729
 30
0.0
 40
1.9
  1
給水
  0
TEXT
  5
8A29
  8
0
 62
     7
 10
89.34300187105445
 20
227.971527307502
 30
0.0
 40
4.0
  1
PUSH
 41
1.2
  0
CIRCLE
  5
8A2A
  8
0
 10
95.52185159276132
 20
229.8911315128205
 30
0.0
 40
8.25
  0
LINE
  5
8A2B
  8
0
 10
68.2718515927609
 20
223.8911315128199
 30
0.0
 11
68.2718515927609
 21
235.8911315128204
 31
0.0
  0
ARC
  5
8A2C
  8
0
 10
70.2718515927609
 20
223.8911315128199
 30
0.0
 40
2.0
 50
180.0
 51
269.9999999999992
1001
GENIUS_GENOBJ-N-FIL_13
1002
{
1000
OWNER
1000
GEN
1002
}
1001
GENIUS_GENODEF_13
1002
{
1000
HIER
1070
     0
1002
}
1002
{
1000
MANEDIT
1070
     0
1002
}
1002
{
1000
NOSEL
1070
     0
1002
}
1002
{
1000
BEHIND
1070
     0
1002
}
1002
{
1000
OTHER
1070
     0
1002
}
1002
{
1000
REACTOR
1002
}
  0
LINE
  5
8A2D
  8
0
 10
86.27185159275999
 20
223.8911315128199
 30
0.0
 11
86.27185159275999
 21
235.8911315128195
 31
0.0
  0
ARC
  5
8A2E
  8
0
 10
84.27185159275999
 20
235.8911315128195
 30
0.0
 40
2.0
 50
0.0
 51
90.0
1001
GENIUS_GENODEF_13
1002
{
1000
HIER
1070
     0
1002
}
1002
{
1000
MANEDIT
1070
     0
1002
}
1002
{
1000
NOSEL
1070
     0
1002
}
1002
{
1000
BEHIND
1070
     0
1002
}
1002
{
1000
OTHER
1070
     0
1002
}
1002
{
1000
REACTOR
1002
}
1001
GENIUS_GENOBJ-N-FIL_13
1002
{
1000
OWNER
1000
GEN
1002
}
  0
LINE
  5
8A2F
  8
0
 10
86.27185159275999
 20
229.3911315128199
 30
0.0
 11
86.24963133424697
 21
229.3911315128199
 31
0.0
  0
LINE
  5
8A30
  8
0
 10
84.8218515927604
 20
229.5411315128198
 30
0.0
 11
69.72185159276049
 21
229.5411315128198
 31
0.0
  0
LINE
  5
8A31
  8
0
 10
86.27185159275999
 20
230.3911315128199
 30
0.0
 11
86.24963133424697
 21
230.3911315128199
 31
0.0
  0
LINE
  5
8A32
  8
0
 10
84.8218515927604
 20
230.2411315128198
 30
0.0
 11
69.72185159276049
 21
230.2411315128198
 31
0.0
  0
CIRCLE
  5
8A33
  8
0
 10
77.47346513217602
 20
233.8911315128204
 30
0.0
 40
2.0
  0
LINE
  5
8A34
  8
0
 10
84.27185159275999
 20
237.8911315128195
 30
0.0
 11
70.2718515927609
 21
237.8911315128204
 31
0.0
  0
ARC
  5
8A35
  8
0
 10
70.2718515927609
 20
235.8911315128204
 30
0.0
 40
2.0
 50
90.0
 51
180.0
1001
GENIUS_GENOBJ-N-FIL_13
1002
{
1000
OWNER
1000
GEN
1002
}
1001
GENIUS_GENODEF_13
1002
{
1000
HIER
1070
     0
1002
}
1002
{
1000
MANEDIT
1070
     0
1002
}
1002
{
1000
NOSEL
1070
     0
1002
}
1002
{
1000
BEHIND
1070
     0
1002
}
1002
{
1000
OTHER
1070
     0
1002
}
1002
{
1000
REACTOR
1002
}
  0
LINE
  5
8A36
  8
0
 10
84.27185159275999
 20
221.8911315128199
 30
0.0
 11
70.2718515927609
 21
221.8911315128199
 31
0.0
  0
ARC
  5
8A37
  8
0
 10
84.27185159275999
 20
223.8911315128199
 30
0.0
 40
2.0
 50
270.0
 51
0.0
1001
GENIUS_GENODEF_13
1002
{
1000
HIER
1070
     0
1002
}
1002
{
1000
MANEDIT
1070
     0
1002
}
1002
{
1000
NOSEL
1070
     0
1002
}
1002
{
1000
BEHIND
1070
     0
1002
}
1002
{
1000
OTHER
1070
     0
1002
}
1002
{
1000
REACTOR
1002
}
1001
GENIUS_GENOBJ-N-FIL_13
1002
{
1000
OWNER
1000
GEN
1002
}
  0
ARC
  5
8A38
  8
0
 10
69.72185159276049
 20
229.8911315128199
 30
0.0
 40
0.3500000000000227
 50
90.0
 51
270.0
  0
ARC
  5
8A39
  8
0
 10
84.8218515927604
 20
229.8911315128199
 30
0.0
 40
0.3500000000000227
 50
270.0
 51
90.0
  0
CIRCLE
  5
8A3A
  8
0
 10
82.52185159276135
 20
233.8911315128203
 30
0.0
 40
1.5
  0
CIRCLE
  5
8A3B
  8
0
 10
82.52185159276135
 20
225.8911315128203
 30
0.0
 40
1.5
  0
POLYLINE
  5
8A3C
  8
0
 66
     1
 10
0.0
 20
0.0
 30
0.0
 70
     1
  0
VERTEX
  5
9E7F
  8
0
 10
77.47346513217602
 20
226.2009979616207
 30
0.0
  0
VERTEX
  5
9E80
  8
0
 10
77.20511291573442
 20
226.0460647372206
 30
0.0
  0
VERTEX
  5
9E81
  8
0
 10
77.20511291573442
 20
225.7361982884203
 30
0.0
  0
VERTEX
  5
9E82
  8
0
 10
77.47346513217602
 20
225.5812650640202
 30
0.0
  0
VERTEX
  5
9E83
  8
0
 10
77.74181734861762
 20
225.7361982884203
 30
0.0
  0
VERTEX
  5
9E84
  8
0
 10
77.74181734861762
 20
226.0460647372206
 30
0.0
  0
SEQEND
  5
9E9E
  8
0
  0
POLYLINE
  5
8A3D
  8
0
 66
     1
 10
0.0
 20
0.0
 30
0.0
  0
VERTEX
  5
9E85
  8
0
 10
77.32346513217593
 20
226.4986483482097
 30
0.0
  0
VERTEX
  5
9E86
  8
0
 10
77.02234011950239
 20
226.3247937410828
 30
0.0
  0
SEQEND
  5
9E9F
  8
0
  0
LINE
  5
8A3E
  8
0
 10
77.32346513217593
 20
222.7911315128204
 30
0.0
 11
77.32346513217593
 21
223.3375781222271
 31
0.0
1001
GENIUS_GENODEF_13
1002
{
1000
HIER
1070
     0
1002
}
1002
{
1000
MANEDIT
1070
     0
1002
}
1002
{
1000
NOSEL
1070
     0
1002
}
1002
{
1000
BEHIND
1070
     0
1002
}
1002
{
1000
OTHER
1070
     0
1002
}
1002
{
1000
REACTOR
1002
}
1001
GENIUS_GENOBJ-N-CEN_13
1002
{
1000
OWNER
1000
GEN
1002
}
1001
GENIUS_GENCEN_19
1002
{
1040
3.0
1002
}
  0
LINE
  5
8A3F
  8
0
 10
77.62346513217611
 20
222.7911315128204
 30
0.0
 11
77.62346513217611
 21
223.3375781222271
 31
0.0
1001
GENIUS_GENODEF_13
1002
{
1000
HIER
1070
     0
1002
}
1002
{
1000
MANEDIT
1070
     0
1002
}
1002
{
1000
NOSEL
1070
     0
1002
}
1002
{
1000
BEHIND
1070
     0
1002
}
1002
{
1000
OTHER
1070
     0
1002
}
1002
{
1000
REACTOR
1002
}
1001
GENIUS_GENOBJ-N-CEN_13
1002
{
1000
OWNER
1000
GEN
1002
}
1001
GENIUS_GENCEN_19
1002
{
1040
3.0
1002
}
  0
LINE
  5
8A40
  8
0
 10
77.62346513217611
 20
226.8911315128205
 30
0.0
 11
78.26929193712297
 21
227.5369583177675
 31
0.0
  0
LINE
  5
8A41
  8
0
 10
77.62346513217611
 20
227.3911315128205
 30
0.0
 11
78.01929193712297
 21
227.7869583177675
 31
0.0
  0
ARC
  5
8A42
  8
0
 10
77.47346513217602
 20
228.9911315128204
 30
0.0
 40
0.1499999999999773
 50
0.0
 51
180.0
  0
ARC
  5
8A43
  8
0
 10
78.14429193712297
 20
227.6619583177675
 30
0.0
 40
0.1767766952966168
 50
315.0000000000358
 51
134.9999999999967
  0
LINE
  5
8A44
  8
0
 10
77.32346513217593
 20
226.8911315128205
 30
0.0
 11
76.67763832722906
 21
227.5369583177675
 31
0.0
  0
LINE
  5
8A45
  8
0
 10
77.32346513217593
 20
227.3911315128205
 30
0.0
 11
76.92763832722906
 21
227.7869583177675
 31
0.0
  0
ARC
  5
8A46
  8
0
 10
76.80263832722906
 20
227.6619583177675
 30
0.0
 40
0.1767766952966168
 50
45.00000000000327
 51
224.9999999999544
  0
LINE
  5
8A47
  8
0
 10
77.62346513217611
 20
228.0911315128204
 30
0.0
 11
78.0222510293975
 21
228.4899174100418
 31
0.0
  0
LINE
  5
8A48
  8
0
 10
77.62346513217611
 20
228.4446849034136
 30
0.0
 11
77.84547433410083
 21
228.6666941053384
 31
0.0
  0
ARC
  5
8A49
  8
0
 10
77.93386268174893
 20
228.5783057576903
 30
0.0
 40
0.1249999999999206
 50
314.9999999999125
 51
134.9999999999309
  0
LINE
  5
8A4A
  8
0
 10
79.30372102050185
 20
224.6612277022529
 30
0.0
 11
79.44968678955573
 21
224.1164760359775
 31
0.0
  0
LINE
  5
8A4B
  8
0
 10
79.60990723834973
 20
224.4844510069562
 30
0.0
 11
79.691168246128
 21
224.1811807972532
 31
0.0
  0
ARC
  5
8A4C
  8
0
 10
80.03082506741501
 20
224.9462603641559
 30
0.0
 40
0.1249999999999206
 50
285.0000000000109
 51
105.0000000000046
  0
LINE
  5
8A4D
  8
0
 10
77.62346513217611
 20
224.8911315128205
 30
0.0
 11
77.62346513217611
 21
225.2836146774312
 31
0.0
1001
GENIUS_GENODEF_13
1002
{
1000
HIER
1070
     0
1002
}
1002
{
1000
MANEDIT
1070
     0
1002
}
1002
{
1000
NOSEL
1070
     0
1002
}
1002
{
1000
BEHIND
1070
     0
1002
}
1002
{
1000
OTHER
1070
     0
1002
}
1002
{
1000
REACTOR
1002
}
1001
GENIUS_GENOBJ-N-CEN_13
1002
{
1000
OWNER
1000
GEN
1002
}
1001
GENIUS_GENCEN_19
1002
{
1040
3.0
1002
}
  0
LINE
  5
8A4E
  8
0
 10
79.7599072383496
 20
224.7442586280915
 30
0.0
 11
80.06317744805281
 21
224.8255196358699
 31
0.0
  0
ARC
  5
8A4F
  8
0
 10
79.57042751784209
 20
224.1488284166153
 30
0.0
 40
0.1249999999999206
 50
194.9999999999509
 51
15.00000000000457
  0
LINE
  5
8A50
  8
0
 10
79.45372102050172
 20
224.9210353233882
 30
0.0
 11
79.9984726867772
 21
225.0670010924422
 31
0.0
  0
LINE
  5
8A51
  8
0
 10
77.62346513217611
 20
223.6911315128204
 30
0.0
 11
77.62346513217611
 21
224.3911315128205
 31
0.0
1001
GENIUS_GENODEF_13
1002
{
1000
HIER
1070
     0
1002
}
1002
{
1000
MANEDIT
1070
     0
1002
}
1002
{
1000
NOSEL
1070
     0
1002
}
1002
{
1000
BEHIND
1070
     0
1002
}
1002
{
1000
OTHER
1070
     0
1002
}
1002
{
1000
REACTOR
1002
}
1001
GENIUS_GENOBJ-N-CEN_13
1002
{
1000
OWNER
1000
GEN
1002
}
1001
GENIUS_GENCEN_19
1002
{
1040
3.0
1002
}
  0
LINE
  5
8A52
  8
0
 10
77.32346513217593
 20
223.6911315128204
 30
0.0
 11
77.32346513217593
 21
224.3911315128205
 31
0.0
1001
GENIUS_GENODEF_13
1002
{
1000
HIER
1070
     0
1002
}
1002
{
1000
MANEDIT
1070
     0
1002
}
1002
{
1000
NOSEL
1070
     0
1002
}
1002
{
1000
BEHIND
1070
     0
1002
}
1002
{
1000
OTHER
1070
     0
1002
}
1002
{
1000
REACTOR
1002
}
1001
GENIUS_GENOBJ-N-CEN_13
1002
{
1000
OWNER
1000
GEN
1002
}
1001
GENIUS_GENCEN_19
1002
{
1040
3.0
1002
}
  0
LINE
  5
8A53
  8
0
 10
77.32346513217593
 20
228.4446849034136
 30
0.0
 11
77.32346513217593
 21
228.9911315128204
 31
0.0
1001
GENIUS_GENODEF_13
1002
{
1000
HIER
1070
     0
1002
}
1002
{
1000
MANEDIT
1070
     0
1002
}
1002
{
1000
NOSEL
1070
     0
1002
}
1002
{
1000
BEHIND
1070
     0
1002
}
1002
{
1000
OTHER
1070
     0
1002
}
1002
{
1000
REACTOR
1002
}
1001
GENIUS_GENOBJ-N-CEN_13
1002
{
1000
OWNER
1000
GEN
1002
}
1001
GENIUS_GENCEN_19
1002
{
1040
3.0
1002
}
  0
LINE
  5
8A54
  8
0
 10
77.62346513217611
 20
228.4446849034136
 30
0.0
 11
77.62346513217611
 21
228.9911315128204
 31
0.0
1001
GENIUS_GENODEF_13
1002
{
1000
HIER
1070
     0
1002
}
1002
{
1000
MANEDIT
1070
     0
1002
}
1002
{
1000
NOSEL
1070
     0
1002
}
1002
{
1000
BEHIND
1070
     0
1002
}
1002
{
1000
OTHER
1070
     0
1002
}
1002
{
1000
REACTOR
1002
}
1001
GENIUS_GENOBJ-N-CEN_13
1002
{
1000
OWNER
1000
GEN
1002
}
1001
GENIUS_GENCEN_19
1002
{
1040
3.0
1002
}
  0
ARC
  5
8A55
  8
0
 10
77.0130675826031
 20
228.5783057576903
 30
0.0
 40
0.1249999999999206
 50
45.00000000006909
 51
224.9999999999401
  0
LINE
  5
8A56
  8
0
 10
77.32346513217593
 20
228.4446849034136
 30
0.0
 11
77.1014559302512
 21
228.6666941053384
 31
0.0
  0
LINE
  5
8A57
  8
0
 10
77.32346513217593
 20
228.0911315128204
 30
0.0
 11
76.92467923495454
 21
228.4899174100418
 31
0.0
  0
LINE
  5
8A58
  8
0
 10
77.62346513217611
 20
227.3911315128205
 30
0.0
 11
77.62346513217611
 21
228.0911315128204
 31
0.0
1001
GENIUS_GENODEF_13
1002
{
1000
HIER
1070
     0
1002
}
1002
{
1000
MANEDIT
1070
     0
1002
}
1002
{
1000
NOSEL
1070
     0
1002
}
1002
{
1000
BEHIND
1070
     0
1002
}
1002
{
1000
OTHER
1070
     0
1002
}
1002
{
1000
REACTOR
1002
}
1001
GENIUS_GENOBJ-N-CEN_13
1002
{
1000
OWNER
1000
GEN
1002
}
1001
GENIUS_GENCEN_19
1002
{
1040
3.0
1002
}
  0
LINE
  5
8A59
  8
0
 10
77.32346513217593
 20
227.3911315128205
 30
0.0
 11
77.32346513217593
 21
228.0911315128204
 31
0.0
1001
GENIUS_GENODEF_13
1002
{
1000
HIER
1070
     0
1002
}
1002
{
1000
MANEDIT
1070
     0
1002
}
1002
{
1000
NOSEL
1070
     0
1002
}
1002
{
1000
BEHIND
1070
     0
1002
}
1002
{
1000
OTHER
1070
     0
1002
}
1002
{
1000
REACTOR
1002
}
1001
GENIUS_GENOBJ-N-CEN_13
1002
{
1000
OWNER
1000
GEN
1002
}
1001
GENIUS_GENCEN_19
1002
{
1040
3.0
1002
}
  0
LINE
  5
8A5A
  8
0
 10
77.62346513217611
 20
223.3375781222271
 30
0.0
 11
77.84547433410083
 21
223.1155689203024
 31
0.0
  0
LINE
  5
8A5B
  8
0
 10
77.32346513217593
 20
224.3911315128205
 30
0.0
 11
76.92763832722906
 21
223.9953047078734
 31
0.0
  0
ARC
  5
8A5C
  8
0
 10
77.47346513217602
 20
222.7911315128204
 30
0.0
 40
0.1499999999999773
 50
180.0
 51
0.0
  0
ARC
  5
8A5D
  8
0
 10
78.14429193712297
 20
224.1203047078734
 30
0.0
 40
0.1767766952966168
 50
224.9999999999837
 51
45.00000000000327
  0
ARC
  5
8A5E
  8
0
 10
76.80263832722906
 20
224.1203047078734
 30
0.0
 40
0.1767766952966168
 50
134.9999999999935
 51
315.0000000000098
  0
LINE
  5
8A5F
  8
0
 10
77.62346513217611
 20
224.3911315128205
 30
0.0
 11
78.01929193712297
 21
223.9953047078734
 31
0.0
  0
LINE
  5
8A60
  8
0
 10
77.32346513217593
 20
224.8911315128205
 30
0.0
 11
76.67763832722906
 21
224.2453047078734
 31
0.0
  0
ARC
  5
8A61
  8
0
 10
77.93386268174893
 20
223.2039572679506
 30
0.0
 40
0.1249999999999206
 50
225.0000000000507
 51
44.99999999995854
  0
LINE
  5
8A62
  8
0
 10
77.32346513217593
 20
223.6911315128204
 30
0.0
 11
76.92467923495454
 21
223.2923456155991
 31
0.0
  0
LINE
  5
8A63
  8
0
 10
77.62346513217611
 20
223.6911315128204
 30
0.0
 11
78.0222510293975
 21
223.2923456155991
 31
0.0
  0
LINE
  5
8A64
  8
0
 10
77.62346513217611
 20
224.8911315128205
 30
0.0
 11
78.26929193712297
 21
224.2453047078734
 31
0.0
  0
ARC
  5
8A65
  8
0
 10
77.0130675826031
 20
223.2039572679506
 30
0.0
 40
0.1249999999999206
 50
134.9999999998941
 51
314.9999999999125
  0
LINE
  5
8A66
  8
0
 10
77.32346513217593
 20
223.3375781222271
 30
0.0
 11
77.1014559302512
 21
223.1155689203024
 31
0.0
  0
LINE
  5
8A67
  8
0
 10
78.69750323785277
 20
226.7710353233881
 30
0.0
 11
78.8423859039622
 21
227.3117447944445
 31
0.0
  0
ARC
  5
8A68
  8
0
 10
78.67163272848919
 20
227.3574979699176
 30
0.0
 40
0.1767766952966168
 50
344.9999999999747
 51
164.9999999999747
  0
LINE
  5
8A69
  8
0
 10
75.3370230260023
 20
224.4844510069562
 30
0.0
 11
74.86378638044428
 21
224.2112277022528
 31
0.0
1001
GENIUS_GENODEF_13
1002
{
1000
HIER
1070
     0
1002
}
1002
{
1000
MANEDIT
1070
     0
1002
}
1002
{
1000
NOSEL
1070
     0
1002
}
1002
{
1000
BEHIND
1070
     0
1002
}
1002
{
1000
OTHER
1070
     0
1002
}
1002
{
1000
REACTOR
1002
}
1001
GENIUS_GENOBJ-N-CEN_13
1002
{
1000
OWNER
1000
GEN
1002
}
1001
GENIUS_GENCEN_19
1002
{
1040
3.0
1002
}
  0
LINE
  5
8A6A
  8
0
 10
78.41449053596037
 20
226.2612277022528
 30
0.0
 11
79.29670635796313
 21
226.0248386851972
 31
0.0
  0
LINE
  5
8A6B
  8
0
 10
79.45372102050172
 20
226.8612277022528
 30
0.0
 11
79.9984726867772
 21
226.7152619331988
 31
0.0
  0
LINE
  5
8A6C
  8
0
 10
79.7599072383496
 20
227.0380043975495
 30
0.0
 11
80.06317744805281
 21
226.9567433897711
 31
0.0
  0
ARC
  5
8A6D
  8
0
 10
80.03082506741501
 20
226.8360026614851
 30
0.0
 40
0.1249999999999206
 50
254.9999999999891
 51
74.99999999999544
  0
LINE
  5
8A6E
  8
0
 10
79.30372102050185
 20
227.1210353233881
 30
0.0
 11
79.44968678955573
 21
227.6657869896635
 31
0.0
  0
LINE
  5
8A6F
  8
0
 10
76.0994270264994
 20
225.2710353233881
 30
0.0
 11
75.49320924385032
 21
224.9210353233881
 31
0.0
1001
GENIUS_GENODEF_13
1002
{
1000
HIER
1070
     0
1002
}
1002
{
1000
MANEDIT
1070
     0
1002
}
1002
{
1000
NOSEL
1070
     0
1002
}
1002
{
1000
BEHIND
1070
     0
1002
}
1002
{
1000
OTHER
1070
     0
1002
}
1002
{
1000
REACTOR
1002
}
1001
GENIUS_GENOBJ-N-CEN_13
1002
{
1000
OWNER
1000
GEN
1002
}
1001
GENIUS_GENCEN_19
1002
{
1040
3.0
1002
}
  0
ARC
  5
8A70
  8
0
 10
76.27529753586285
 20
224.4247650557232
 30
0.0
 40
0.1767766952966168
 50
164.9999999999747
 51
345.000000000024
  0
LINE
  5
8A71
  8
0
 10
76.0994270264994
 20
225.2710353233881
 30
0.0
 11
75.55871755544288
 21
225.4159179894975
 31
0.0
  0
ARC
  5
8A72
  8
0
 10
80.1581438839078
 20
227.4411315128204
 30
0.0
 40
0.1499999999999773
 50
300.0000000000254
 51
120.0000000000254
  0
LINE
  5
8A73
  8
0
 10
78.41449053596037
 20
226.2612277022528
 30
0.0
 11
78.07459014484974
 21
226.0649861199473
 31
0.0
1001
GENIUS_GENODEF_13
1002
{
1000
HIER
1070
     0
1002
}
1002
{
1000
MANEDIT
1070
     0
1002
}
1002
{
1000
NOSEL
1070
     0
1002
}
1002
{
1000
BEHIND
1070
     0
1002
}
1002
{
1000
OTHER
1070
     0
1002
}
1002
{
1000
REACTOR
1002
}
1001
GENIUS_GENOBJ-N-CEN_13
1002
{
1000
OWNER
1000
GEN
1002
}
1001
GENIUS_GENCEN_19
1002
{
1040
3.0
1002
}
  0
LINE
  5
8A74
  8
0
 10
78.2644905359605
 20
226.5210353233881
 30
0.0
 11
77.92459014484987
 21
226.3247937410827
 31
0.0
1001
GENIUS_GENODEF_13
1002
{
1000
HIER
1070
     0
1002
}
1002
{
1000
MANEDIT
1070
     0
1002
}
1002
{
1000
NOSEL
1070
     0
1002
}
1002
{
1000
BEHIND
1070
     0
1002
}
1002
{
1000
OTHER
1070
     0
1002
}
1002
{
1000
REACTOR
1002
}
1001
GENIUS_GENOBJ-N-CEN_13
1002
{
1000
OWNER
1000
GEN
1002
}
1001
GENIUS_GENCEN_19
1002
{
1040
3.0
1002
}
  0
LINE
  5
8A75
  8
0
 10
76.24942702649926
 20
225.0112277022528
 30
0.0
 11
76.10454436038984
 21
224.4705182311964
 31
0.0
  0
LINE
  5
8A76
  8
0
 10
76.68243972839153
 20
225.2612277022528
 30
0.0
 11
76.44605071133608
 21
224.3790118802502
 31
0.0
  0
LINE
  5
8A77
  8
0
 10
80.23314388390784
 20
227.3112277022528
 30
0.0
 11
79.7599072383496
 21
227.0380043975495
 31
0.0
1001
GENIUS_GENODEF_13
1002
{
1000
HIER
1070
     0
1002
}
1002
{
1000
MANEDIT
1070
     0
1002
}
1002
{
1000
NOSEL
1070
     0
1002
}
1002
{
1000
BEHIND
1070
     0
1002
}
1002
{
1000
OTHER
1070
     0
1002
}
1002
{
1000
REACTOR
1002
}
1001
GENIUS_GENOBJ-N-CEN_13
1002
{
1000
OWNER
1000
GEN
1002
}
1001
GENIUS_GENCEN_19
1002
{
1040
3.0
1002
}
  0
ARC
  5
8A78
  8
0
 10
74.78878638044424
 20
224.3411315128204
 30
0.0
 40
0.1499999999999773
 50
120.0000000000348
 51
300.0000000000254
  0
ARC
  5
8A79
  8
0
 10
75.60447073091589
 20
225.5866711649705
 30
0.0
 40
0.1767766952966168
 50
75.0000000000127
 51
255.0000000000038
  0
LINE
  5
8A7A
  8
0
 10
80.08314388390775
 20
227.5710353233882
 30
0.0
 11
79.60990723834973
 21
227.2978120186848
 31
0.0
1001
GENIUS_GENODEF_13
1002
{
1000
HIER
1070
     0
1002
}
1002
{
1000
MANEDIT
1070
     0
1002
}
1002
{
1000
NOSEL
1070
     0
1002
}
1002
{
1000
BEHIND
1070
     0
1002
}
1002
{
1000
OTHER
1070
     0
1002
}
1002
{
1000
REACTOR
1002
}
1001
GENIUS_GENOBJ-N-CEN_13
1002
{
1000
OWNER
1000
GEN
1002
}
1001
GENIUS_GENCEN_19
1002
{
1040
3.0
1002
}
  0
LINE
  5
8A7B
  8
0
 10
79.30372102050185
 20
227.1210353233881
 30
0.0
 11
78.69750323785277
 21
226.7710353233881
 31
0.0
1001
GENIUS_GENODEF_13
1002
{
1000
HIER
1070
     0
1002
}
1002
{
1000
MANEDIT
1070
     0
1002
}
1002
{
1000
NOSEL
1070
     0
1002
}
1002
{
1000
BEHIND
1070
     0
1002
}
1002
{
1000
OTHER
1070
     0
1002
}
1002
{
1000
REACTOR
1002
}
1001
GENIUS_GENOBJ-N-CEN_13
1002
{
1000
OWNER
1000
GEN
1002
}
1001
GENIUS_GENCEN_19
1002
{
1040
3.0
1002
}
  0
LINE
  5
8A7C
  8
0
 10
75.18702302600244
 20
224.7442586280915
 30
0.0
 11
74.71378638044419
 21
224.4710353233882
 31
0.0
1001
GENIUS_GENODEF_13
1002
{
1000
HIER
1070
     0
1002
}
1002
{
1000
MANEDIT
1070
     0
1002
}
1002
{
1000
NOSEL
1070
     0
1002
}
1002
{
1000
BEHIND
1070
     0
1002
}
1002
{
1000
OTHER
1070
     0
1002
}
1002
{
1000
REACTOR
1002
}
1001
GENIUS_GENOBJ-N-CEN_13
1002
{
1000
OWNER
1000
GEN
1002
}
1001
GENIUS_GENCEN_19
1002
{
1040
3.0
1002
}
  0
LINE
  5
8A7D
  8
0
 10
79.45372102050172
 20
226.8612277022528
 30
0.0
 11
78.84750323785264
 21
226.5112277022528
 31
0.0
1001
GENIUS_GENODEF_13
1002
{
1000
HIER
1070
     0
1002
}
1002
{
1000
MANEDIT
1070
     0
1002
}
1002
{
1000
NOSEL
1070
     0
1002
}
1002
{
1000
BEHIND
1070
     0
1002
}
1002
{
1000
OTHER
1070
     0
1002
}
1002
{
1000
REACTOR
1002
}
1001
GENIUS_GENOBJ-N-CEN_13
1002
{
1000
OWNER
1000
GEN
1002
}
1001
GENIUS_GENCEN_19
1002
{
1040
3.0
1002
}
  0
LINE
  5
8A7E
  8
0
 10
75.64320924385018
 20
224.6612277022527
 30
0.0
 11
75.4972434747963
 21
224.1164760359774
 31
0.0
  0
LINE
  5
8A7F
  8
0
 10
75.3370230260023
 20
224.4844510069562
 30
0.0
 11
75.25576201822403
 21
224.1811807972531
 31
0.0
  0
ARC
  5
8A80
  8
0
 10
75.37650274650994
 20
224.1488284166152
 30
0.0
 40
0.1249999999999206
 50
164.9999999999954
 51
345.0000000001154
  0
LINE
  5
8A81
  8
0
 10
75.49320924385032
 20
224.9210353233881
 30
0.0
 11
74.94845757757483
 21
225.0670010924421
 31
0.0
  0
LINE
  5
8A82
  8
0
 10
75.18702302600244
 20
224.7442586280915
 30
0.0
 11
74.88375281629922
 21
224.8255196358698
 31
0.0
  0
LINE
  5
8A83
  8
0
 10
76.24942702649926
 20
225.0112277022528
 30
0.0
 11
75.64320924385018
 21
224.6612277022527
 31
0.0
1001
GENIUS_GENODEF_13
1002
{
1000
HIER
1070
     0
1002
}
1002
{
1000
MANEDIT
1070
     0
1002
}
1002
{
1000
NOSEL
1070
     0
1002
}
1002
{
1000
BEHIND
1070
     0
1002
}
1002
{
1000
OTHER
1070
     0
1002
}
1002
{
1000
REACTOR
1002
}
1001
GENIUS_GENOBJ-N-CEN_13
1002
{
1000
OWNER
1000
GEN
1002
}
1001
GENIUS_GENCEN_19
1002
{
1040
3.0
1002
}
  0
LINE
  5
8A84
  8
0
 10
76.53243972839167
 20
225.5210353233881
 30
0.0
 11
75.6502239063889
 21
225.7574243404437
 31
0.0
  0
ARC
  5
8A85
  8
0
 10
74.91610519693702
 20
224.9462603641558
 30
0.0
 40
0.1249999999999206
 50
74.99999999999544
 51
254.9999999999828
  0
LINE
  5
8A86
  8
0
 10
78.84750323785264
 20
226.5112277022528
 30
0.0
 11
79.38821270890915
 21
226.3663450361433
 31
0.0
  0
ARC
  5
8A87
  8
0
 10
79.34245953343614
 20
226.1955918606703
 30
0.0
 40
0.1767766952966168
 50
255.0000000000038
 51
75.0000000000127
  0
LINE
  5
8A88
  8
0
 10
78.2644905359605
 20
226.5210353233881
 30
0.0
 11
78.50087955301618
 21
227.4032511453906
 31
0.0
  0
LINE
  5
8A89
  8
0
 10
77.32346513217593
 20
224.8911315128205
 30
0.0
 11
77.32346513217593
 21
225.2836146774312
 31
0.0
1001
GENIUS_GENODEF_13
1002
{
1000
HIER
1070
     0
1002
}
1002
{
1000
MANEDIT
1070
     0
1002
}
1002
{
1000
NOSEL
1070
     0
1002
}
1002
{
1000
BEHIND
1070
     0
1002
}
1002
{
1000
OTHER
1070
     0
1002
}
1002
{
1000
REACTOR
1002
}
1001
GENIUS_GENOBJ-N-CEN_13
1002
{
1000
OWNER
1000
GEN
1002
}
1001
GENIUS_GENCEN_19
1002
{
1040
3.0
1002
}
  0
LINE
  5
8A8A
  8
0
 10
79.60990723834973
 20
227.2978120186848
 30
0.0
 11
79.691168246128
 21
227.6010822283878
 31
0.0
  0
ARC
  5
8A8B
  8
0
 10
79.57042751784209
 20
227.6334346090257
 30
0.0
 40
0.1249999999999206
 50
345.0000000000223
 51
165.0000000001046
  0
LINE
  5
8A8C
  8
0
 10
75.3370230260023
 20
227.2978120186848
 30
0.0
 11
75.25576201822403
 21
227.6010822283879
 31
0.0
  0
LINE
  5
8A8D
  8
0
 10
75.49320924385032
 20
226.8612277022528
 30
0.0
 11
74.94845757757483
 21
226.7152619331988
 31
0.0
  0
LINE
  5
8A8E
  8
0
 10
75.18702302600244
 20
227.0380043975495
 30
0.0
 11
74.88375281629922
 21
226.9567433897712
 31
0.0
  0
LINE
  5
8A8F
  8
0
 10
79.30372102050185
 20
224.6612277022529
 30
0.0
 11
78.69750323785277
 21
225.0112277022529
 31
0.0
1001
GENIUS_GENODEF_13
1002
{
1000
HIER
1070
     0
1002
}
1002
{
1000
MANEDIT
1070
     0
1002
}
1002
{
1000
NOSEL
1070
     0
1002
}
1002
{
1000
BEHIND
1070
     0
1002
}
1002
{
1000
OTHER
1070
     0
1002
}
1002
{
1000
REACTOR
1002
}
1001
GENIUS_GENOBJ-N-CEN_13
1002
{
1000
OWNER
1000
GEN
1002
}
1001
GENIUS_GENCEN_19
1002
{
1040
3.0
1002
}
  0
LINE
  5
8A90
  8
0
 10
79.45372102050172
 20
224.9210353233882
 30
0.0
 11
78.84750323785264
 21
225.2710353233882
 31
0.0
1001
GENIUS_GENODEF_13
1002
{
1000
HIER
1070
     0
1002
}
1002
{
1000
MANEDIT
1070
     0
1002
}
1002
{
1000
NOSEL
1070
     0
1002
}
1002
{
1000
BEHIND
1070
     0
1002
}
1002
{
1000
OTHER
1070
     0
1002
}
1002
{
1000
REACTOR
1002
}
1001
GENIUS_GENOBJ-N-CEN_13
1002
{
1000
OWNER
1000
GEN
1002
}
1001
GENIUS_GENCEN_19
1002
{
1040
3.0
1002
}
  0
ARC
  5
8A91
  8
0
 10
75.37650274650994
 20
227.6334346090257
 30
0.0
 40
0.1249999999999206
 50
14.99999999995087
 51
194.9999999999509
  0
ARC
  5
8A92
  8
0
 10
74.91610519693702
 20
226.8360026614851
 30
0.0
 40
0.1249999999999206
 50
105.0000000000172
 51
285.0000000000046
  0
LINE
  5
8A93
  8
0
 10
78.2644905359605
 20
225.2612277022529
 30
0.0
 11
77.92459014484987
 21
225.4574692845582
 31
0.0
1001
GENIUS_GENODEF_13
1002
{
1000
HIER
1070
     0
1002
}
1002
{
1000
MANEDIT
1070
     0
1002
}
1002
{
1000
NOSEL
1070
     0
1002
}
1002
{
1000
BEHIND
1070
     0
1002
}
1002
{
1000
OTHER
1070
     0
1002
}
1002
{
1000
REACTOR
1002
}
1001
GENIUS_GENOBJ-N-CEN_13
1002
{
1000
OWNER
1000
GEN
1002
}
1001
GENIUS_GENCEN_19
1002
{
1040
3.0
1002
}
  0
LINE
  5
8A94
  8
0
 10
75.3370230260023
 20
227.2978120186848
 30
0.0
 11
74.86378638044428
 21
227.5710353233882
 31
0.0
1001
GENIUS_GENODEF_13
1002
{
1000
HIER
1070
     0
1002
}
1002
{
1000
MANEDIT
1070
     0
1002
}
1002
{
1000
NOSEL
1070
     0
1002
}
1002
{
1000
BEHIND
1070
     0
1002
}
1002
{
1000
OTHER
1070
     0
1002
}
1002
{
1000
REACTOR
1002
}
1001
GENIUS_GENOBJ-N-CEN_13
1002
{
1000
OWNER
1000
GEN
1002
}
1001
GENIUS_GENCEN_19
1002
{
1040
3.0
1002
}
  0
LINE
  5
8A95
  8
0
 10
76.24942702649926
 20
226.7710353233882
 30
0.0
 11
76.10454436038984
 21
227.3117447944446
 31
0.0
  0
LINE
  5
8A96
  8
0
 10
78.41449053596037
 20
225.5210353233882
 30
0.0
 11
79.29670635796313
 21
225.7574243404437
 31
0.0
  0
ARC
  5
8A97
  8
0
 10
76.27529753586285
 20
227.3574979699176
 30
0.0
 40
0.1767766952966168
 50
15.00000000002528
 51
194.999999999976
  0
LINE
  5
8A98
  8
0
 10
80.08314388390775
 20
224.2112277022528
 30
0.0
 11
79.60990723834973
 21
224.4844510069562
 31
0.0
1001
GENIUS_GENODEF_13
1002
{
1000
HIER
1070
     0
1002
}
1002
{
1000
MANEDIT
1070
     0
1002
}
1002
{
1000
NOSEL
1070
     0
1002
}
1002
{
1000
BEHIND
1070
     0
1002
}
1002
{
1000
OTHER
1070
     0
1002
}
1002
{
1000
REACTOR
1002
}
1001
GENIUS_GENOBJ-N-CEN_13
1002
{
1000
OWNER
1000
GEN
1002
}
1001
GENIUS_GENCEN_19
1002
{
1040
3.0
1002
}
  0
LINE
  5
8A99
  8
0
 10
76.53243972839167
 20
226.2612277022529
 30
0.0
 11
75.6502239063889
 21
226.0248386851973
 31
0.0
  0
LINE
  5
8A9A
  8
0
 10
78.41449053596037
 20
225.5210353233882
 30
0.0
 11
78.07459014484974
 21
225.7172769056936
 31
0.0
1001
GENIUS_GENODEF_13
1002
{
1000
HIER
1070
     0
1002
}
1002
{
1000
MANEDIT
1070
     0
1002
}
1002
{
1000
NOSEL
1070
     0
1002
}
1002
{
1000
BEHIND
1070
     0
1002
}
1002
{
1000
OTHER
1070
     0
1002
}
1002
{
1000
REACTOR
1002
}
1001
GENIUS_GENOBJ-N-CEN_13
1002
{
1000
OWNER
1000
GEN
1002
}
1001
GENIUS_GENCEN_19
1002
{
1040
3.0
1002
}
  0
LINE
  5
8A9B
  8
0
 10
80.23314388390784
 20
224.4710353233882
 30
0.0
 11
79.7599072383496
 21
224.7442586280915
 31
0.0
1001
GENIUS_GENODEF_13
1002
{
1000
HIER
1070
     0
1002
}
1002
{
1000
MANEDIT
1070
     0
1002
}
1002
{
1000
NOSEL
1070
     0
1002
}
1002
{
1000
BEHIND
1070
     0
1002
}
1002
{
1000
OTHER
1070
     0
1002
}
1002
{
1000
REACTOR
1002
}
1001
GENIUS_GENOBJ-N-CEN_13
1002
{
1000
OWNER
1000
GEN
1002
}
1001
GENIUS_GENCEN_19
1002
{
1040
3.0
1002
}
  0
LINE
  5
8A9C
  8
0
 10
75.64320924385018
 20
227.1210353233881
 30
0.0
 11
75.4972434747963
 21
227.6657869896635
 31
0.0
  0
ARC
  5
8A9D
  8
0
 10
75.60447073091589
 20
226.1955918606703
 30
0.0
 40
0.1767766952966168
 50
104.9999999999962
 51
284.9999999999873
  0
ARC
  5
8A9E
  8
0
 10
74.78878638044424
 20
227.4411315128206
 30
0.0
 40
0.1499999999999773
 50
59.99999999997465
 51
239.9999999999598
  0
LINE
  5
8A9F
  8
0
 10
78.84750323785264
 20
225.2710353233882
 30
0.0
 11
79.38821270890915
 21
225.4159179894975
 31
0.0
  0
LINE
  5
8AA0
  8
0
 10
76.24942702649926
 20
226.7710353233882
 30
0.0
 11
75.64320924385018
 21
227.1210353233881
 31
0.0
1001
GENIUS_GENODEF_13
1002
{
1000
HIER
1070
     0
1002
}
1002
{
1000
MANEDIT
1070
     0
1002
}
1002
{
1000
NOSEL
1070
     0
1002
}
1002
{
1000
BEHIND
1070
     0
1002
}
1002
{
1000
OTHER
1070
     0
1002
}
1002
{
1000
REACTOR
1002
}
1001
GENIUS_GENOBJ-N-CEN_13
1002
{
1000
OWNER
1000
GEN
1002
}
1001
GENIUS_GENCEN_19
1002
{
1040
3.0
1002
}
  0
ARC
  5
8AA1
  8
0
 10
80.1581438839078
 20
224.3411315128205
 30
0.0
 40
0.1499999999999773
 50
239.9999999999746
 51
59.99999999997465
  0
ARC
  5
8AA2
  8
0
 10
79.34245953343614
 20
225.5866711649707
 30
0.0
 40
0.1767766952966168
 50
284.9999999999873
 51
104.9999999999962
  0
LINE
  5
8AA3
  8
0
 10
78.2644905359605
 20
225.2612277022529
 30
0.0
 11
78.50087955301618
 21
224.3790118802502
 31
0.0
  0
LINE
  5
8AA4
  8
0
 10
75.18702302600244
 20
227.0380043975495
 30
0.0
 11
74.71378638044419
 21
227.3112277022528
 31
0.0
1001
GENIUS_GENODEF_13
1002
{
1000
HIER
1070
     0
1002
}
1002
{
1000
MANEDIT
1070
     0
1002
}
1002
{
1000
NOSEL
1070
     0
1002
}
1002
{
1000
BEHIND
1070
     0
1002
}
1002
{
1000
OTHER
1070
     0
1002
}
1002
{
1000
REACTOR
1002
}
1001
GENIUS_GENOBJ-N-CEN_13
1002
{
1000
OWNER
1000
GEN
1002
}
1001
GENIUS_GENCEN_19
1002
{
1040
3.0
1002
}
  0
LINE
  5
8AA5
  8
0
 10
78.69750323785277
 20
225.0112277022529
 30
0.0
 11
78.8423859039622
 21
224.4705182311964
 31
0.0
  0
LINE
  5
8AA6
  8
0
 10
76.0994270264994
 20
226.5112277022529
 30
0.0
 11
75.55871755544288
 21
226.3663450361435
 31
0.0
  0
LINE
  5
8AA7
  8
0
 10
76.68243972839153
 20
226.5210353233882
 30
0.0
 11
76.44605071133608
 21
227.4032511453908
 31
0.0
  0
ARC
  5
8AA8
  8
0
 10
78.67163272848919
 20
224.4247650557234
 30
0.0
 40
0.1767766952966168
 50
195.0000000000253
 51
14.99999999998613
  0
LINE
  5
8AA9
  8
0
 10
76.0994270264994
 20
226.5112277022529
 30
0.0
 11
75.49320924385032
 21
226.8612277022528
 31
0.0
1001
GENIUS_GENODEF_13
1002
{
1000
HIER
1070
     0
1002
}
1002
{
1000
MANEDIT
1070
     0
1002
}
1002
{
1000
NOSEL
1070
     0
1002
}
1002
{
1000
BEHIND
1070
     0
1002
}
1002
{
1000
OTHER
1070
     0
1002
}
1002
{
1000
REACTOR
1002
}
1001
GENIUS_GENOBJ-N-CEN_13
1002
{
1000
OWNER
1000
GEN
1002
}
1001
GENIUS_GENCEN_19
1002
{
1040
3.0
1002
}
  0
POLYLINE
  5
8AAA
  8
0
 66
     1
 10
0.0
 20
0.0
 30
0.0
  0
VERTEX
  5
9E87
  8
0
 10
77.92459014484987
 20
226.3247937410827
 30
0.0
  0
VERTEX
  5
9E88
  8
0
 10
77.62346513217611
 20
226.4986483482097
 30
0.0
  0
SEQEND
  5
9EA0
  8
0
  0
POLYLINE
  5
8AAB
  8
0
 66
     1
 10
0.0
 20
0.0
 30
0.0
  0
VERTEX
  5
9E89
  8
0
 10
77.02234011950216
 20
225.4574692845581
 30
0.0
  0
VERTEX
  5
9E8A
  8
0
 10
77.32346513217593
 20
225.2836146774312
 30
0.0
  0
SEQEND
  5
9EA1
  8
0
  0
POLYLINE
  5
8AAC
  8
0
 66
     1
 10
0.0
 20
0.0
 30
0.0
  0
VERTEX
  5
9E8B
  8
0
 10
77.62346513217611
 20
225.2836146774312
 30
0.0
  0
VERTEX
  5
9E8C
  8
0
 10
77.92459014484987
 20
225.4574692845582
 30
0.0
  0
SEQEND
  5
9EA2
  8
0
  0
POLYLINE
  5
8AAD
  8
0
 66
     1
 10
0.0
 20
0.0
 30
0.0
  0
VERTEX
  5
9E8D
  8
0
 10
78.07459014484974
 20
225.7172769056936
 30
0.0
  0
VERTEX
  5
9E8E
  8
0
 10
78.07459014484974
 20
226.0649861199473
 30
0.0
  0
SEQEND
  5
9EA3
  8
0
  0
POLYLINE
  5
8AAE
  8
0
 66
     1
 10
0.0
 20
0.0
 30
0.0
  0
VERTEX
  5
9E8F
  8
0
 10
76.8723401195023
 20
226.0649861199474
 30
0.0
  0
VERTEX
  5
9E90
  8
0
 10
76.8723401195023
 20
225.7172769056934
 30
0.0
  0
SEQEND
  5
9EA4
  8
0
  0
LINE
  5
8AAF
  8
0
 10
76.8723401195023
 20
226.0649861199474
 30
0.0
 11
76.53243972839167
 21
226.2612277022529
 31
0.0
1001
GENIUS_GENODEF_13
1002
{
1000
HIER
1070
     0
1002
}
1002
{
1000
MANEDIT
1070
     0
1002
}
1002
{
1000
NOSEL
1070
     0
1002
}
1002
{
1000
BEHIND
1070
     0
1002
}
1002
{
1000
OTHER
1070
     0
1002
}
1002
{
1000
REACTOR
1002
}
1001
GENIUS_GENOBJ-N-CEN_13
1002
{
1000
OWNER
1000
GEN
1002
}
1001
GENIUS_GENCEN_19
1002
{
1040
3.0
1002
}
  0
LINE
  5
8AB0
  8
0
 10
77.02234011950216
 20
225.4574692845581
 30
0.0
 11
76.68243972839153
 21
225.2612277022528
 31
0.0
1001
GENIUS_GENODEF_13
1002
{
1000
HIER
1070
     0
1002
}
1002
{
1000
MANEDIT
1070
     0
1002
}
1002
{
1000
NOSEL
1070
     0
1002
}
1002
{
1000
BEHIND
1070
     0
1002
}
1002
{
1000
OTHER
1070
     0
1002
}
1002
{
1000
REACTOR
1002
}
1001
GENIUS_GENOBJ-N-CEN_13
1002
{
1000
OWNER
1000
GEN
1002
}
1001
GENIUS_GENCEN_19
1002
{
1040
3.0
1002
}
  0
LINE
  5
8AB1
  8
0
 10
77.62346513217611
 20
226.4986483482097
 30
0.0
 11
77.62346513217611
 21
226.8911315128205
 31
0.0
1001
GENIUS_GENODEF_13
1002
{
1000
HIER
1070
     0
1002
}
1002
{
1000
MANEDIT
1070
     0
1002
}
1002
{
1000
NOSEL
1070
     0
1002
}
1002
{
1000
BEHIND
1070
     0
1002
}
1002
{
1000
OTHER
1070
     0
1002
}
1002
{
1000
REACTOR
1002
}
1001
GENIUS_GENOBJ-N-CEN_13
1002
{
1000
OWNER
1000
GEN
1002
}
1001
GENIUS_GENCEN_19
1002
{
1040
3.0
1002
}
  0
LINE
  5
8AB2
  8
0
 10
76.8723401195023
 20
225.7172769056934
 30
0.0
 11
76.53243972839167
 21
225.5210353233881
 31
0.0
1001
GENIUS_GENODEF_13
1002
{
1000
HIER
1070
     0
1002
}
1002
{
1000
MANEDIT
1070
     0
1002
}
1002
{
1000
NOSEL
1070
     0
1002
}
1002
{
1000
BEHIND
1070
     0
1002
}
1002
{
1000
OTHER
1070
     0
1002
}
1002
{
1000
REACTOR
1002
}
1001
GENIUS_GENOBJ-N-CEN_13
1002
{
1000
OWNER
1000
GEN
1002
}
1001
GENIUS_GENCEN_19
1002
{
1040
3.0
1002
}
  0
LINE
  5
8AB3
  8
0
 10
77.02234011950239
 20
226.3247937410828
 30
0.0
 11
76.68243972839153
 21
226.5210353233882
 31
0.0
1001
GENIUS_GENODEF_13
1002
{
1000
HIER
1070
     0
1002
}
1002
{
1000
MANEDIT
1070
     0
1002
}
1002
{
1000
NOSEL
1070
     0
1002
}
1002
{
1000
BEHIND
1070
     0
1002
}
1002
{
1000
OTHER
1070
     0
1002
}
1002
{
1000
REACTOR
1002
}
1001
GENIUS_GENOBJ-N-CEN_13
1002
{
1000
OWNER
1000
GEN
1002
}
1001
GENIUS_GENCEN_19
1002
{
1040
3.0
1002
}
  0
LINE
  5
8AB4
  8
0
 10
77.32346513217593
 20
226.4986483482097
 30
0.0
 11
77.32346513217593
 21
226.8911315128205
 31
0.0
1001
GENIUS_GENODEF_13
1002
{
1000
HIER
1070
     0
1002
}
1002
{
1000
MANEDIT
1070
     0
1002
}
1002
{
1000
NOSEL
1070
     0
1002
}
1002
{
1000
BEHIND
1070
     0
1002
}
1002
{
1000
OTHER
1070
     0
1002
}
1002
{
1000
REACTOR
1002
}
1001
GENIUS_GENOBJ-N-CEN_13
1002
{
1000
OWNER
1000
GEN
1002
}
1001
GENIUS_GENCEN_19
1002
{
1040
3.0
1002
}
  0
POINT
  5
8AB5
  8
0
 10
77.47346513217602
 20
225.8911315128205
 30
0.0
  0
LINE
  5
9570
  8
0
 10
49.82185095648173
 20
245.2411315128211
 30
0.0
 11
54.82185095648173
 21
245.2411315128211
 31
0.0
  0
ARC
  5
9C67
  8
0
 10
57.65746901629375
 20
237.9020867384633
 30
0.0
 40
2.818784487207035
 50
42.10643774613582
 51
72.54963860556856
  0
ARC
  5
9C68
  8
0
 10
57.66203586108382
 20
237.8940137078544
 30
0.0
 40
2.825124600724308
 50
72.68709389380213
 51
114.8350808121767
  0
ARC
  5
9C69
  8
0
 10
57.66886064054776
 20
237.8951187940895
 30
0.0
 40
2.82699601279636
 50
114.9700164788607
 51
159.7658782060661
  0
ARC
  5
9C6A
  8
0
 10
57.67023346591208
 20
237.9019354796877
 30
0.0
 40
2.825934871198894
 50
159.905183900427
 51
208.1033156220139
  0
ARC
  5
9C6B
  8
0
 10
57.66700331075307
 20
237.9059711529718
 30
0.0
 40
2.824991178843034
 50
208.2063768521136
 51
252.9917058831041
  0
ARC
  5
9C6C
  8
0
 10
57.66113285920839
 20
237.8985027237355
 30
0.0
 40
2.816134321775382
 50
253.0614728184792
 51
303.6104044070932
  0
ARC
  5
9C6D
  8
0
 10
57.65197275224086
 20
237.9078066014478
 30
0.0
 40
2.828954381084524
 50
303.6606050060742
 51
336.6888212394869
  0
ARC
  5
9C6E
  8
0
 10
57.67301748305009
 20
237.8961953370606
 30
0.0
 40
2.805033656979198
 50
336.7365264644543
 51
352.0115546408769
  0
ARC
  5
9C6F
  8
0
 10
60.88196056544551
 20
237.4395075626185
 30
0.0
 40
0.4362831274249897
 50
124.9417661980038
 51
171.1843733476157
  0
ARC
  5
9C70
  8
0
 10
60.9585827019686
 20
237.3812862462608
 30
0.0
 40
0.5287156028486799
 50
68.4989425064667
 51
128.1363643025119
  0
ARC
  5
9C71
  8
0
 10
60.95743981099494
 20
237.3781478468388
 30
0.0
 40
0.5320545012467646
 50
21.1786845759318
 51
68.50830305575624
  0
ARC
  5
9C72
  8
0
 10
60.90062314054757
 20
237.3654610239828
 30
0.0
 40
0.589681274627146
 50
351.3677592453784
 51
20.3336515506318
  0
ARC
  5
9C73
  8
0
 10
57.68343249312154
 20
237.8923664839285
 30
0.0
 40
3.849700154783129
 50
329.2955579547443
 51
350.8012500119645
  0
ARC
  5
9C74
  8
0
 10
57.66066396052013
 20
237.9020091236917
 30
0.0
 40
3.874201887614873
 50
272.110292872708
 51
329.3448789643533
  0
ARC
  5
9C75
  8
0
 10
57.65755038598455
 20
237.8871156558698
 30
0.0
 40
3.859434907830362
 50
228.1538869054162
 51
272.1646262877288
  0
ARC
  5
9C76
  8
0
 10
57.65899930550933
 20
237.9001785316079
 30
0.0
 40
3.870140110233152
 50
191.6688789272142
 51
228.2669244735644
  0
ARC
  5
9C77
  8
0
 10
54.43289311226853
 20
239.2068346285139
 30
0.0
 40
2.164208178393929
 50
198.723963475941
 51
254.8927875963115
  0
ARC
  5
9C78
  8
0
 10
52.35567420496796
 20
239.7876014094091
 30
0.0
 40
1.275794832121307
 50
159.5889286416676
 51
271.2373210171075
  0
ARC
  5
9C79
  8
0
 10
52.3555090762941
 20
239.7874563888693
 30
0.0
 40
1.27569066216106
 50
56.35876753652801
 51
159.5802376694569
  0
ARC
  5
9C7A
  8
0
 10
52.35508392220869
 20
239.7872816523774
 30
0.0
 40
1.27607169163755
 50
300.8474340774569
 51
56.3472215566183
  0
ARC
  5
9C7B
  8
0
 10
54.43268597258393
 20
239.2057602857936
 30
0.0
 40
1.513270340059136
 50
199.8575424768347
 51
244.8702054099216
  0
ARC
  5
9C7C
  8
0
 10
57.65322468117996
 20
237.9057689214301
 30
0.0
 40
3.863814594731709
 50
128.8924189419203
 51
181.0387416655363
  0
ARC
  5
9C7D
  8
0
 10
57.65981791090308
 20
237.9092445128725
 30
0.0
 40
3.865255996170545
 50
64.08752047055657
 51
129.0008345454499
  0
ARC
  5
9C7E
  8
0
 10
57.63602564698836
 20
237.8813304762409
 30
0.0
 40
3.900771647075106
 50
41.93148962721691
 51
63.95236016528539
  0
ARC
  5
9C7F
  8
0
 10
60.1329203792286
 20
240.1416060637575
 30
0.0
 40
0.5329691384397407
 50
326.9391245431075
 51
40.53482220835337
  0
ARC
  5
9C80
  8
0
 10
60.13436758377817
 20
240.1420740386485
 30
0.0
 40
0.532012855346209
 50
288.8262582044613
 51
326.8118599153543
  0
ARC
  5
9C81
  8
0
 10
60.13889878239407
 20
240.1199589415095
 30
0.0
 40
0.5096266244015553
 50
220.0392534532336
 51
289.1464231932406
  0
ARC
  5
9C82
  8
0
 10
52.35555441773686
 20
239.7874903402425
 30
0.0
 40
0.5333610920542913
 50
358.2903179254369
 51
182.8871640299775
  0
ARC
  5
9C83
  8
0
 10
52.35555669541014
 20
239.7872686867855
 30
0.0
 40
0.533352248318835
 50
182.8633706346291
 51
358.3141113207849
  0
ARC
  5
9C84
  8
0
 10
56.41441952728321
 20
238.3677720757542
 30
0.0
 40
0.6197235851139764
 50
269.9860909562865
 51
92.215844524471
  0
ARC
  5
9C85
  8
0
 10
56.41454285113991
 20
238.3677744457764
 30
0.0
 40
0.619725997344469
 50
92.2272460800959
 51
269.9746892990934
  0
ARC
  5
9C86
  8
0
 10
58.91025071915526
 20
238.3677651322521
 30
0.0
 40
0.6197167624590886
 50
269.9616101028838
 51
89.98977670141691
  0
ARC
  5
9C87
  8
0
 10
58.90991589087904
 20
238.3677652742963
 30
0.0
 40
0.6197167706109338
 50
89.95882022245952
 51
269.9925665818412
  0
ARC
  5
9C88
  8
0
 10
57.66213124023701
 20
238.3884275478143
 30
0.0
 40
1.621966970399848
 50
233.6417470358276
 51
306.8838773871507
  0
ARC
  5
9C89
  8
0
 10
58.78581495103037
 20
236.8818266251354
 30
0.0
 40
0.2575808481740123
 50
48.75225273409504
 51
125.6665677964157
  0
ARC
  5
9C8A
  8
0
 10
58.78543221184288
 20
236.8815647687301
 30
0.0
 40
0.2580301008803177
 50
350.2089239138174
 51
48.72668974044582
  0
ARC
  5
9C8B
  8
0
 10
58.78227931515412
 20
236.8818081582764
 30
0.0
 40
0.2611786316846578
 50
302.7722891929776
 51
350.273929821677
  0
ARC
  5
9C8C
  8
0
 10
57.65846150505964
 20
238.3944608458953
 30
0.0
 40
2.145096291517153
 50
279.580629416799
 51
306.1433603622944
  0
ARC
  5
9C8D
  8
0
 10
57.6620449038565
 20
238.3875982406895
 30
0.0
 40
2.137734336466047
 50
255.4417152635177
 51
279.5165392426289
  0
ARC
  5
9C8E
  8
0
 10
57.66299456259031
 20
238.385398582639
 30
0.0
 40
2.135844522087935
 50
232.8702473643658
 51
255.4022254017396
  0
ARC
  5
9C8F
  8
0
 10
56.53944427631563
 20
236.8814569731271
 30
0.0
 40
0.25887643170293
 50
155.1529278431441
 51
230.2048092005848
  0
ARC
  5
9C90
  8
0
 10
56.53824277974947
 20
236.8818965470093
 30
0.0
 40
0.2576014684421306
 50
103.7622011258897
 51
155.1293551933427
  0
ARC
  5
9C91
  8
0
 10
56.53856804342702
 20
236.8821367348384
 30
0.0
 40
0.2574458242313935
 50
51.00202248787202
 51
103.845228473221
  0
ARC
  5
9C92
  8
0
 10
49.67809064750811
 20
234.8563952601355
 30
0.0
 40
0.9091768622367206
 50
133.222959671733
 51
270.1894734199499
  0
ARC
  5
9C93
  8
0
 10
49.67851599511528
 20
234.8560115711406
 30
0.0
 40
0.9087918676904274
 50
270.1627370543721
 51
50.19893912908906
  0
ARC
  5
9C94
  8
0
 10
49.65783751832708
 20
241.2524817267613
 30
0.0
 40
0.6024320394943272
 50
2.835526177202197
 51
174.3732816204337
  0
ARC
  5
9C95
  8
0
 10
49.65787348470544
 20
241.252403637796
 30
0.0
 40
0.2295028634559424
 50
358.9188453068101
 51
179.9730971000994
  0
ARC
  5
9C96
  8
0
 10
46.78492787284529
 20
235.9457468806744
 30
0.0
 40
0.0873768611613766
 50
87.47256260673397
 51
234.0891406317526
  0
ARC
  5
9C97
  8
0
 10
48.19600764582928
 20
235.9466603613784
 30
0.0
 40
0.0863646317370953
 50
317.9031549580241
 51
87.18148688827209
  0
ARC
  5
9C98
  8
0
 10
47.49016425175029
 20
235.2405619922266
 30
0.0
 40
0.086253216996548
 50
226.0322552542306
 51
315.2107938570516
  0
LINE
  5
9C99
  8
0
 10
49.42837064654894
 20
241.2525113995262
 30
0.0
 11
49.42837064654894
 21
237.728800462026
 31
0.0
  0
LINE
  5
9C9A
  8
0
 10
49.42837064654894
 20
237.728800462026
 30
0.0
 11
49.88733549029938
 21
237.728800462026
 31
0.0
  0
LINE
  5
9C9B
  8
0
 10
49.88733549029938
 20
237.728800462026
 30
0.0
 11
49.88733549029938
 21
241.2480732425155
 31
0.0
  0
LINE
  5
9C9C
  8
0
 10
50.25953197383068
 20
241.2822834788157
 30
0.0
 11
50.26025541217403
 21
235.5542106182757
 31
0.0
  0
LINE
  5
9C9D
  8
0
 10
49.05545072467429
 20
235.5189072172503
 30
0.0
 11
49.05545072467429
 21
237.4994059307756
 31
0.0
  0
LINE
  5
9C9E
  8
0
 10
49.05545072467429
 20
237.4994059307756
 30
0.0
 11
46.59222806842398
 21
237.4994059307756
 31
0.0
  0
LINE
  5
9C9F
  8
0
 10
46.59222806842398
 20
237.4994059307756
 30
0.0
 11
46.59222806842398
 21
237.7287165184194
 31
0.0
  0
LINE
  5
9CA0
  8
0
 10
46.59222806842398
 20
237.7287165184194
 30
0.0
 11
49.05545072467429
 21
237.728800462026
 31
0.0
  0
LINE
  5
9CA1
  8
0
 10
49.05545072467429
 20
237.728800462026
 30
0.0
 11
49.05830812498503
 21
241.3115483732566
 31
0.0
  0
LINE
  5
9CA2
  8
0
 10
46.7336790829156
 20
235.874977696723
 30
0.0
 11
47.43028267116388
 21
235.1784828995405
 31
0.0
  0
LINE
  5
9CA3
  8
0
 10
47.55137845904936
 20
235.1797965557762
 30
0.0
 11
48.26009130428809
 21
235.888762741966
 31
0.0
  0
LINE
  5
9CA4
  8
0
 10
48.20025441035862
 20
236.0329205179173
 30
0.0
 11
47.81909330279903
 21
236.033038743276
 31
0.0
  0
LINE
  5
9CA5
  8
0
 10
47.81909330279903
 20
236.033038743276
 30
0.0
 11
47.81909330279903
 21
237.0471688125406
 31
0.0
  0
LINE
  5
9CA6
  8
0
 10
47.81909330279903
 20
237.0471688125406
 30
0.0
 11
47.16114408404927
 21
237.0472965557756
 31
0.0
  0
LINE
  5
9CA7
  8
0
 10
47.16114408404927
 20
237.0472965557756
 30
0.0
 11
47.16114408404927
 21
236.033038743276
 31
0.0
  0
LINE
  5
9CA8
  8
0
 10
47.16114408404927
 20
236.033038743276
 30
0.0
 11
46.78878100014234
 21
236.033038743276
 31
0.0
  0
LINE
  5
9CA9
  8
0
 10
48.38809720904918
 20
239.623898118276
 30
0.0
 11
48.18735502154912
 21
239.7397379620261
 31
0.0
  0
LINE
  5
9CAA
  8
0
 10
48.18735502154912
 20
239.7397379620261
 30
0.0
 11
47.69103666217414
 21
239.4532145245258
 31
0.0
  0
LINE
  5
9CAB
  8
0
 10
47.69103666217414
 20
239.4532145245258
 30
0.0
 11
47.69094877154929
 21
240.0264371807762
 31
0.0
  0
LINE
  5
9CAC
  8
0
 10
47.69094877154929
 20
240.0264371807762
 30
0.0
 11
47.49020658404923
 21
240.1422770245259
 31
0.0
  0
LINE
  5
9CAD
  8
0
 10
47.49020658404923
 20
240.1422770245259
 30
0.0
 11
47.28937650592432
 21
240.0264371807762
 31
0.0
  0
LINE
  5
9CAE
  8
0
 10
47.28937650592432
 20
240.0264371807762
 30
0.0
 11
47.28937650592432
 21
239.4532145245258
 31
0.0
  0
LINE
  5
9CAF
  8
0
 10
47.28937650592432
 20
239.4532145245258
 30
0.0
 11
46.79297025592403
 21
239.7397379620261
 31
0.0
  0
LINE
  5
9CB0
  8
0
 10
46.79297025592403
 20
239.7397379620261
 30
0.0
 11
46.59222806842398
 21
239.623898118276
 31
0.0
  0
LINE
  5
9CB1
  8
0
 10
46.59222806842398
 20
239.623898118276
 30
0.0
 11
46.59222806842398
 21
239.3920426495261
 31
0.0
  0
LINE
  5
9CB2
  8
0
 10
46.59222806842398
 20
239.3920426495261
 30
0.0
 11
47.08863431842427
 21
239.1055192120257
 31
0.0
  0
LINE
  5
9CB3
  8
0
 10
47.08863431842427
 20
239.1055192120257
 30
0.0
 11
46.59222806842398
 21
238.8188199932757
 31
0.0
  0
LINE
  5
9CB4
  8
0
 10
46.59222806842398
 20
238.8188199932757
 30
0.0
 11
46.59222806842398
 21
238.5869645245257
 31
0.0
  0
LINE
  5
9CB5
  8
0
 10
46.59222806842398
 20
238.5869645245257
 30
0.0
 11
46.79297025592403
 21
238.4711246807756
 31
0.0
  0
LINE
  5
9CB6
  8
0
 10
46.79297025592403
 20
238.4711246807756
 30
0.0
 11
47.28937650592432
 21
238.757648118276
 31
0.0
  0
LINE
  5
9CB7
  8
0
 10
47.28937650592432
 20
238.757648118276
 30
0.0
 11
47.28946439654918
 21
238.184425462026
 31
0.0
  0
LINE
  5
9CB8
  8
0
 10
47.28946439654918
 20
238.184425462026
 30
0.0
 11
47.49020658404923
 21
238.0685856182759
 31
0.0
  0
LINE
  5
9CB9
  8
0
 10
47.49020658404923
 20
238.0685856182759
 30
0.0
 11
47.69103666217414
 21
238.184425462026
 31
0.0
  0
LINE
  5
9CBA
  8
0
 10
47.69103666217414
 20
238.184425462026
 30
0.0
 11
47.69094877154929
 21
238.757648118276
 31
0.0
  0
LINE
  5
9CBB
  8
0
 10
47.69094877154929
 20
238.757648118276
 30
0.0
 11
48.18735502154912
 21
238.4711246807756
 31
0.0
  0
LINE
  5
9CBC
  8
0
 10
48.18735502154912
 20
238.4711246807756
 30
0.0
 11
48.38809720904918
 21
238.5869645245257
 31
0.0
  0
LINE
  5
9CBD
  8
0
 10
48.38809720904918
 20
238.5869645245257
 30
0.0
 11
48.38809720904918
 21
238.8188199932757
 31
0.0
  0
LINE
  5
9CBE
  8
0
 10
48.38809720904918
 20
238.8188199932757
 30
0.0
 11
47.8917788496742
 21
239.1055192120257
 31
0.0
  0
LINE
  5
9CBF
  8
0
 10
47.8917788496742
 20
239.1055192120257
 30
0.0
 11
48.38809720904918
 21
239.3920426495261
 31
0.0
  0
LINE
  5
9CC0
  8
0
 10
48.38809720904918
 20
239.3920426495261
 30
0.0
 11
48.38809720904918
 21
239.623898118276
 31
0.0
  0
ARC
  5
9CC1
  8
0
 10
43.12195478708365
 20
230.2040397355777
 30
0.0
 40
0.3670849884844836
 50
88.43595018400146
 51
181.5907611346543
  0
ARC
  5
9CC2
  8
0
 10
43.1163537722755
 20
230.1781446609876
 30
0.0
 40
0.3616836161732613
 50
177.5113831094955
 51
272.4752596742406
  0
ARC
  5
9CC3
  8
0
 10
47.84987530444287
 20
228.8144587429334
 30
0.0
 40
1.757421872517575
 50
58.63205765538193
 51
91.82624667791212
  0
ARC
  5
9CC4
  8
0
 10
48.03109981520701
 20
229.1539844167572
 30
0.0
 40
1.373363550070809
 50
357.3646905701011
 51
57.71432541069638
  0
ARC
  5
9CC5
  8
0
 10
47.37222150099019
 20
229.1492358787411
 30
0.0
 40
2.031628876196131
 50
312.3580077297276
 51
358.3528725601312
  0
ARC
  5
9CC6
  8
0
 10
46.53428259649784
 20
230.2833955543346
 30
0.0
 40
3.437343882281632
 50
279.6428930056555
 51
309.9410387066555
  0
ARC
  5
9CC7
  8
0
 10
45.82932603886917
 20
233.0637998100602
 30
0.0
 40
6.30072093565917
 50
275.4117803201625
 51
281.7281302859267
  0
ARC
  5
9CC8
  8
0
 10
46.41897313966313
 20
226.6870042265029
 30
0.0
 40
0.104260725704256
 50
87.4752300347481
 51
163.7199139015231
  0
ARC
  5
9CC9
  8
0
 10
46.61712378401308
 20
226.6564024290631
 30
0.0
 40
0.3041729537229
 50
168.6561978748385
 51
200.0889648778359
  0
ARC
  5
9CCA
  8
0
 10
46.25954925444671
 20
225.9016393657923
 30
0.0
 40
0.2537512839947012
 50
261.3372320245579
 51
20.62119432797275
  0
ARC
  5
9CCB
  8
0
 10
45.89215582039026
 20
227.3439414042283
 30
0.0
 40
1.693196324176135
 50
200.7119394462078
 51
269.6171287198742
  0
ARC
  5
9CCC
  8
0
 10
44.01206817150469
 20
228.5589389144411
 30
0.0
 40
0.2418104089398966
 50
78.56434552526832
 51
205.2442294015707
  0
ARC
  5
9CCD
  8
0
 10
45.20962626165606
 20
228.251171863453
 30
0.0
 40
0.5454708950328662
 50
22.03436718337224
 51
87.10976279916946
  0
ARC
  5
9CCE
  8
0
 10
46.42806731645197
 20
228.072215084284
 30
0.0
 40
0.5575982287956304
 50
198.5615711856641
 51
231.4697421334256
  0
ARC
  5
9CCF
  8
0
 10
46.27522352434922
 20
227.9079672950116
 30
0.0
 40
0.3343453227859988
 50
234.4274826077689
 51
282.9237961332864
  0
ARC
  5
9CD0
  8
0
 10
45.9641165333037
 20
228.9255348960525
 30
0.0
 40
1.397765155718417
 50
286.0259576150772
 51
322.7723331413743
  0
ARC
  5
9CD1
  8
0
 10
45.45649809226563
 20
229.3733380754987
 30
0.0
 40
2.073453716718684
 50
321.405557856657
 51
357.0055140470168
  0
ARC
  5
9CD2
  8
0
 10
46.98166101339642
 20
229.3036498078928
 30
0.0
 40
0.5468257340680802
 50
355.949160792519
 51
43.9861427071242
  0
ARC
  5
9CD3
  8
0
 10
46.98970115444689
 20
229.2031004435183
 30
0.0
 40
0.6158215084356161
 50
51.25619189844242
 51
94.75943482914414
  0
ARC
  5
9CD4
  8
0
 10
50.95033060708237
 20
228.110792947273
 30
0.0
 40
0.9170993127764647
 50
90.00286747961208
 51
268.2497146487426
  0
ARC
  5
9CD5
  8
0
 10
50.95025402573551
 20
228.11079411516
 30
0.0
 40
0.9170981442542538
 50
268.2544990708273
 51
89.99808305752734
  0
ARC
  5
9CD6
  8
0
 10
53.00544288092313
 20
230.1893335975781
 30
0.0
 40
0.3770840596473977
 50
89.9884213680942
 51
178.6192995487076
  0
ARC
  5
9CD7
  8
0
 10
54.17348586405448
 20
230.1893335769578
 30
0.0
 40
0.3770841082509337
 50
1.380703407340469
 51
90.02492579868495
  0
ARC
  5
9CD8
  8
0
 10
54.17356316724521
 20
227.6231586765653
 30
0.0
 40
0.3768973543141036
 50
269.9633102497762
 51
0.0233356470828619
  0
ARC
  5
9CD9
  8
0
 10
53.00536554733364
 20
227.6231586440606
 30
0.0
 40
0.3768972758079303
 50
179.9766594067293
 51
270.0233405932998
  0
ARC
  5
9CDA
  8
0
 10
56.6734813806387
 20
230.1899654155122
 30
0.0
 40
0.3765533069000618
 50
91.32755171042443
 51
178.7135156246359
  0
ARC
  5
9CDB
  8
0
 10
57.84184129374265
 20
230.1892481904647
 30
0.0
 40
0.3772853742403397
 50
1.39293758417252
 51
88.57968746194234
  0
ARC
  5
9CDC
  8
0
 10
55.35469610331688
 20
227.333410333762
 30
0.0
 40
0.9424222807007966
 50
270.2596160298706
 51
359.1847732707243
  0
ARC
  5
9CDD
  8
0
 10
55.08760404498661
 20
226.0185612042133
 30
0.0
 40
0.3724651062386549
 50
89.29017710179693
 51
270.7098228982031
  0
ARC
  5
9CDE
  8
0
 10
56.02877657737009
 20
227.7815106434925
 30
0.0
 40
2.135678174171317
 50
269.0521856153052
 51
304.9431031995392
  0
ARC
  5
9CDF
  8
0
 10
55.98387637645668
 20
227.8864396814274
 30
0.0
 40
2.247528607778139
 50
304.3492687691318
 51
342.0336073987834
  0
ARC
  5
9CE0
  8
0
 10
55.96984566801927
 20
227.8474158701065
 30
0.0
 40
2.249219839620582
 50
343.0895187182542
 51
0.3832968636579526
  0
ARC
  5
9CE1
  8
0
 10
59.44662856806191
 20
230.2030338604637
 30
0.0
 40
0.3724661917305334
 50
89.27682506750826
 51
270.7231749324918
  0
ARC
  5
9CE2
  8
0
 10
59.21691674985979
 20
228.5260807354633
 30
0.0
 40
0.3541906372867973
 50
86.29944766479187
 51
273.7005523352082
  0
ARC
  5
9CE3
  8
0
 10
60.42079314574053
 20
229.2378736728351
 30
0.0
 40
0.358803858625055
 50
267.0887535299613
 51
356.4733133196503
  0
ARC
  5
9CE4
  8
0
 10
60.44140078005829
 20
229.4931551252943
 30
0.0
 40
0.3396690833730922
 50
354.8685998202262
 51
96.56439594170052
  0
ARC
  5
9CE5
  8
0
 10
64.74309232623636
 20
230.2030338604637
 30
0.0
 40
0.3724651062386495
 50
269.2901771018636
 51
90.7098228981364
  0
ARC
  5
9CE6
  8
0
 10
63.0788616410831
 20
229.4537000924922
 30
0.0
 40
0.3768972758071489
 50
89.97665940658239
 51
180.0233405934893
  0
ARC
  5
9CE7
  8
0
 10
63.03670587449977
 20
229.2116161635421
 30
0.0
 40
0.3347676534002981
 50
179.2835006658344
 51
277.2606919210987
  0
ARC
  5
9CE8
  8
0
 10
63.06765195233454
 20
227.8065061173645
 30
0.0
 40
0.3662987656052747
 50
88.22229995736356
 51
176.6896381244135
  0
ARC
  5
9CE9
  8
0
 10
63.61358516569899
 20
227.2567626249743
 30
0.0
 40
0.9125541393853733
 50
182.5916258786893
 51
271.6600393676819
  0
ARC
  5
9CEA
  8
0
 10
64.76529648926065
 20
225.9953580792135
 30
0.0
 40
0.3502616083451314
 50
265.608746066266
 51
94.39125393373403
  0
ARC
  5
9CEB
  8
0
 10
62.96167516080705
 20
227.8729572171733
 30
0.0
 40
2.227259321723195
 50
225.0349285396396
 51
271.1216669202527
  0
ARC
  5
9CEC
  8
0
 10
62.70745711069019
 20
227.702433102207
 30
0.0
 40
1.927871578424823
 50
179.3527648258316
 51
226.7994771726991
  0
ARC
  5
9CED
  8
0
 10
60.60007797962206
 20
227.9573438249193
 30
0.0
 40
0.1798521029892861
 50
357.1558279388276
 51
48.65700890603938
  0
ARC
  5
9CEE
  8
0
 10
60.52983576839905
 20
227.8613008769903
 30
0.0
 40
0.2985497565163959
 50
50.7122642471553
 51
78.58034235835271
  0
ARC
  5
9CEF
  8
0
 10
60.41502939208011
 20
227.3581798000145
 30
0.0
 40
0.8145440850389851
 50
77.67158325142975
 51
90.87644874463575
  0
ARC
  5
9CF0
  8
0
 10
64.94826808204535
 20
228.55234431113
 30
0.0
 40
0.3797198155434018
 50
270.2659772238895
 51
356.0405792706824
  0
ARC
  5
9CF1
  8
0
 10
64.96166160765668
 20
228.5141001643469
 30
0.0
 40
0.365617762344841
 50
1.884695911894787
 51
91.822965253088
  0
LINE
  5
9CF2
  8
0
 10
43.13197416217416
 20
230.5709879620259
 30
0.0
 11
47.79386869342441
 21
230.5709879620259
 31
0.0
  0
LINE
  5
9CF3
  8
0
 10
46.93860502154938
 20
229.8167985089013
 30
0.0
 11
43.13197416217416
 21
229.8167985089013
 31
0.0
  0
LINE
  5
9CF4
  8
0
 10
44.06001127154921
 20
228.7959488995257
 30
0.0
 11
45.23713041217387
 21
228.7959488995257
 31
0.0
  0
LINE
  5
9CF5
  8
0
 10
45.71525541217441
 20
228.4558121807759
 30
0.0
 11
45.89947416217409
 21
227.8947184307759
 31
0.0
  0
LINE
  5
9CF6
  8
0
 10
43.79335111529915
 20
228.4558121807759
 30
0.0
 11
44.30839017779952
 21
226.7451090557761
 31
0.0
  0
LINE
  5
9CF7
  8
0
 10
45.88084134967401
 20
225.6507828839013
 30
0.0
 11
46.22132963092416
 21
225.6507828839013
 31
0.0
  0
LINE
  5
9CF8
  8
0
 10
46.49704252154923
 20
225.991007493276
 30
0.0
 11
46.33145658404919
 21
226.5519254620258
 31
0.0
  0
LINE
  5
9CF9
  8
0
 10
52.62846830279885
 20
230.1984196026506
 30
0.0
 11
52.62846830279885
 21
227.6233121807759
 31
0.0
  0
LINE
  5
9CFA
  8
0
 10
53.00551908404894
 20
227.2462613995258
 30
0.0
 11
54.17332181842401
 21
227.2462613995258
 31
0.0
  0
LINE
  5
9CFB
  8
0
 10
54.55046049029941
 20
227.6233121807759
 30
0.0
 11
54.55046049029941
 21
230.1984196026506
 31
0.0
  0
LINE
  5
9CFC
  8
0
 10
54.17332181842401
 20
230.5664176495257
 30
0.0
 11
53.00551908404894
 21
230.5664176495257
 31
0.0
  0
LINE
  5
9CFD
  8
0
 10
56.29702299029894
 20
230.1984196026506
 30
0.0
 11
56.29702299029894
 21
227.3200016339006
 31
0.0
  0
LINE
  5
9CFE
  8
0
 10
55.35896634967411
 20
226.3909977276508
 30
0.0
 11
55.0922183027992
 21
226.3909977276508
 31
0.0
  0
LINE
  5
9CFF
  8
0
 10
55.0922183027992
 20
225.6461246807758
 30
0.0
 11
55.99344877154952
 21
225.6461246807758
 31
0.0
  0
LINE
  5
9D00
  8
0
 10
58.21901517779905
 20
227.8624625714011
 30
0.0
 11
58.21901517779905
 21
230.1984196026506
 31
0.0
  0
LINE
  5
9D01
  8
0
 10
57.85119291217414
 20
230.5664176495257
 30
0.0
 11
56.66475736529945
 21
230.5664176495257
 31
0.0
  0
LINE
  5
9D02
  8
0
 10
59.45132963092418
 20
230.5754703839012
 30
0.0
 11
64.73847806842421
 21
230.5754703839012
 31
0.0
  0
LINE
  5
9D03
  8
0
 10
64.73847806842421
 20
229.8305973370262
 30
0.0
 11
63.07901517779918
 21
229.8305973370262
 31
0.0
  0
LINE
  5
9D04
  8
0
 10
62.70196439654909
 20
229.4535465557756
 30
0.0
 11
62.70196439654909
 21
229.2158024151509
 31
0.0
  0
LINE
  5
9D05
  8
0
 10
63.07901517779918
 20
228.8795328839005
 30
0.0
 11
64.9500308027991
 21
228.8795328839006
 31
0.0
  0
LINE
  5
9D06
  8
0
 10
64.9500308027991
 20
228.1726285870259
 30
0.0
 11
63.07901517779918
 21
228.1726285870259
 31
0.0
  0
LINE
  5
9D07
  8
0
 10
62.70196439654909
 20
227.8276578839009
 30
0.0
 11
62.70196439654909
 21
227.2154996807758
 31
0.0
  0
LINE
  5
9D08
  8
0
 10
63.64002103717438
 20
226.3445914776512
 30
0.0
 11
64.73847806842421
 21
226.3445914776512
 31
0.0
  0
LINE
  5
9D09
  8
0
 10
64.73847806842421
 20
225.6461246807758
 30
0.0
 11
63.00527494342394
 21
225.6461246807758
 31
0.0
  0
LINE
  5
9D0A
  8
0
 10
60.77970853717441
 20
227.7242106182758
 30
0.0
 11
60.77970853717441
 21
227.9484196026506
 31
0.0
  0
LINE
  5
9D0B
  8
0
 10
60.40256986529901
 20
228.1726285870259
 30
0.0
 11
59.23977689654929
 21
228.1726285870259
 31
0.0
  0
LINE
  5
9D0C
  8
0
 10
59.23977689654929
 20
228.8795328839006
 30
0.0
 11
60.40256986529901
 21
228.8795328839006
 31
0.0
  0
LINE
  5
9D0D
  8
0
 10
60.77891752154937
 20
229.2158024151509
 30
0.0
 11
60.77970853717441
 21
229.4627750714008
 31
0.0
  0
LINE
  5
9D0E
  8
0
 10
60.40256986529901
 20
229.8305973370261
 30
0.0
 11
59.45132963092418
 21
229.8305973370262
 31
0.0
  0
LINE
  5
9D12
  8
0
 10
44.90033353717398
 20
232.450968430776
 30
0.0
 11
44.01843900592438
 21
232.450968430776
 31
0.0
  0
LINE
  5
9D13
  8
0
 10
44.01843900592438
 20
232.450968430776
 30
0.0
 11
44.01843900592438
 21
232.6163785870258
 31
0.0
  0
LINE
  5
9D14
  8
0
 10
44.01843900592438
 20
232.6163785870258
 30
0.0
 11
45.09386869342414
 21
232.6163785870258
 31
0.0
  0
LINE
  5
9D15
  8
0
 10
45.09386869342414
 20
232.6163785870258
 30
0.0
 11
45.09386869342414
 21
232.450968430776
 31
0.0
  0
LINE
  5
9D16
  8
0
 10
44.47476713092418
 20
232.0305875714012
 30
0.0
 11
44.32403470904909
 21
232.2360758526511
 31
0.0
  0
LINE
  5
9D17
  8
0
 10
44.32403470904909
 20
232.2360758526511
 30
0.0
 11
44.17057767779941
 21
232.133419602651
 31
0.0
  0
LINE
  5
9D18
  8
0
 10
44.57083158404929
 20
231.5636246807763
 30
0.0
 11
44.72824369342423
 21
231.6623258526507
 31
0.0
  0
LINE
  5
9D19
  8
0
 10
44.72824369342423
 20
231.6623258526507
 30
0.0
 11
44.58014799029887
 21
231.8811735089012
 31
0.0
  0
ARC
  5
9D1A
  8
0
 10
34.35775182455326
 20
224.8148977270581
 30
0.0
 40
12.24141795992888
 50
33.45643062216249
 51
36.71601240395405
  0
ARC
  5
9D1B
  8
0
 10
44.07173874484918
 20
232.8641858444727
 30
0.0
 40
0.9259146617534648
 50
295.8028544447355
 51
333.4947229782731
  0
ARC
  5
9D1C
  8
0
 10
44.14461293910703
 20
232.7903268897991
 30
0.0
 40
1.008092580477948
 50
295.5970136290768
 51
340.3280553328837
  0
LINE
  5
9D1D
  8
0
 10
45.86774564654887
 20
232.1560074932759
 30
0.0
 11
45.86774564654887
 21
231.5796207745262
 31
0.0
  0
LINE
  5
9D1E
  8
0
 10
45.86774564654887
 20
231.5796207745262
 30
0.0
 11
46.05987455279909
 21
231.5796207745262
 31
0.0
  0
LINE
  5
9D1F
  8
0
 10
46.05987455279909
 20
231.5796207745262
 30
0.0
 11
46.05987455279909
 21
232.2481168682762
 31
0.0
  0
LINE
  5
9D20
  8
0
 10
46.44545072467416
 20
232.5283121807761
 30
0.0
 11
46.33602689654934
 21
232.6537321026508
 31
0.0
  0
LINE
  5
9D21
  8
0
 10
45.33802884967416
 20
232.1800895245261
 30
0.0
 11
45.36606595904912
 21
232.0159977276508
 31
0.0
  0
ARC
  5
9D22
  8
0
 10
45.09474539729399
 20
233.9809519182469
 30
0.0
 40
1.817221010036674
 50
277.6936667564446
 51
313.0836814663463
  0
ARC
  5
9D23
  8
0
 10
45.27396205279747
 20
233.7350023132487
 30
0.0
 40
1.681810567258462
 50
297.8592692614841
 51
314.1519780416271
  0
ARC
  5
9D24
  8
0
 10
45.08145436047096
 20
234.004619580208
 30
0.0
 40
2.008885420952019
 50
278.1448623061169
 51
293.0420589932965
  0
LINE
  5
9D25
  8
0
 10
47.17529447467403
 20
232.2467985089007
 30
0.0
 11
47.17529447467403
 21
232.2774723370258
 31
0.0
  0
LINE
  5
9D26
  8
0
 10
47.17529447467403
 20
232.2774723370258
 30
0.0
 11
46.66025541217412
 21
232.2774723370258
 31
0.0
  0
LINE
  5
9D27
  8
0
 10
46.66025541217412
 20
232.2774723370258
 30
0.0
 11
46.66025541217412
 21
232.4469254620263
 31
0.0
  0
LINE
  5
9D28
  8
0
 10
46.66025541217412
 20
232.4469254620263
 30
0.0
 11
47.17529447467403
 21
232.4469254620263
 31
0.0
  0
LINE
  5
9D29
  8
0
 10
47.17529447467403
 20
232.4469254620263
 30
0.0
 11
47.17529447467403
 21
232.6963590557762
 31
0.0
  0
LINE
  5
9D2A
  8
0
 10
47.17529447467403
 20
232.6963590557762
 30
0.0
 11
47.36206205279903
 21
232.6963590557762
 31
0.0
  0
LINE
  5
9D2B
  8
0
 10
47.36206205279903
 20
232.6963590557762
 30
0.0
 11
47.36206205279903
 21
232.4469254620263
 31
0.0
  0
LINE
  5
9D2C
  8
0
 10
47.36206205279903
 20
232.4469254620263
 30
0.0
 11
47.78903470904923
 21
232.4469254620263
 31
0.0
  0
LINE
  5
9D2D
  8
0
 10
47.78903470904923
 20
232.4469254620263
 30
0.0
 11
47.78903470904923
 21
232.2774723370258
 31
0.0
  0
LINE
  5
9D2E
  8
0
 10
47.78903470904923
 20
232.2774723370258
 30
0.0
 11
47.36206205279903
 21
232.2774723370258
 31
0.0
  0
LINE
  5
9D2F
  8
0
 10
47.36206205279903
 20
232.2774723370258
 30
0.0
 11
47.36206205279903
 21
232.2467985089007
 31
0.0
  0
LINE
  5
9D30
  8
0
 10
46.82970853717414
 20
231.583575852651
 30
0.0
 11
46.77363431842421
 21
231.7490738995257
 31
0.0
  0
ARC
  5
9D31
  8
0
 10
46.40236595510976
 20
232.2322929771924
 30
0.0
 40
0.7730646200712835
 50
342.2910204567376
 51
1.075142363622295
  0
ARC
  5
9D32
  8
0
 10
46.84883452808674
 20
232.0961080143085
 30
0.0
 40
0.3063876798952075
 50
304.2370088981581
 51
341.1546735930816
  0
ARC
  5
9D33
  8
0
 10
46.67686578165877
 20
232.378476943396
 30
0.0
 40
0.6367985092080606
 50
278.7405863986843
 51
302.7346045229082
  0
ARC
  5
9D34
  8
0
 10
46.70441475244645
 20
232.3594325198372
 30
0.0
 40
0.7859084555523594
 50
279.173547062458
 51
305.3414915022681
  0
ARC
  5
9D35
  8
0
 10
46.85359478995767
 20
232.1064493762428
 30
0.0
 40
0.4938678410143298
 50
308.2022886499759
 51
350.7296062183676
  0
ARC
  5
9D36
  8
0
 10
46.30947299409075
 20
232.2365915969364
 30
0.0
 40
1.05263854554364
 50
348.508946732466
 51
0.5555773579723515
  0
LINE
  5
9D37
  8
0
 10
48.78712064654927
 20
232.460284837026
 30
0.0
 11
48.13198392779894
 21
232.460284837026
 31
0.0
  0
LINE
  5
9D38
  8
0
 10
48.13198392779894
 20
232.460284837026
 30
0.0
 11
48.13198392779894
 21
232.6243766339012
 31
0.0
  0
LINE
  5
9D39
  8
0
 10
48.13198392779894
 20
232.6243766339012
 30
0.0
 11
48.98584134967403
 21
232.6243766339012
 31
0.0
  0
LINE
  5
9D3A
  8
0
 10
48.98584134967403
 20
232.6243766339012
 30
0.0
 11
48.98584134967403
 21
232.460284837026
 31
0.0
  0
LINE
  5
9D3B
  8
0
 10
49.10062650592452
 20
231.715675462026
 30
0.0
 11
48.97784330279909
 21
231.594298508901
 31
0.0
  0
LINE
  5
9D3C
  8
0
 10
48.09454252154909
 20
231.6022965557759
 30
0.0
 11
48.01447416217387
 21
231.7490738995257
 31
0.0
  0
ARC
  5
9D3D
  8
0
 10
47.31555077397638
 20
233.2836713514542
 30
0.0
 40
1.686263099876902
 50
294.4866134087317
 51
330.7717068869524
  0
ARC
  5
9D3E
  8
0
 10
47.24978421645627
 20
233.4126686313816
 30
0.0
 40
1.997764662355422
 50
295.0147624386637
 51
312.8436054073329
  0
ARC
  5
9D3F
  8
0
 10
41.37531117720589
 20
224.0177707213584
 30
0.0
 40
10.73323194737177
 50
44.90184257982877
 51
47.63246263973684
  0
ARC
  5
9D40
  8
0
 10
42.14617436577083
 20
224.713854117401
 30
0.0
 40
9.868632464113261
 50
45.19446774917355
 51
48.17612407225278
  0
ARC
  5
9D41
  8
0
 10
47.61264365866052
 20
233.0846614400926
 30
0.0
 40
1.508482032064661
 50
317.6232793949262
 51
335.5492736743415
  0
LINE
  5
9D42
  8
0
 10
49.64765775592421
 20
232.6590934307761
 30
0.0
 11
49.47284330279898
 21
232.6790446026508
 31
0.0
  0
LINE
  5
9D43
  8
0
 10
49.47284330279898
 20
231.574259446401
 30
0.0
 11
49.64765775592421
 21
231.594298508901
 31
0.0
  0
ARC
  5
9D44
  8
0
 10
51.82399217972167
 20
232.1266959698385
 30
0.0
 40
2.24050855401593
 50
166.2536808747335
 51
193.7463191252665
  0
ARC
  5
9D45
  8
0
 10
51.72626853823901
 20
232.1266520245259
 30
0.0
 40
2.320142851654927
 50
166.2264222050919
 51
193.7735777949081
  0
LINE
  5
9D46
  8
0
 10
49.85578275592432
 20
232.420206712026
 30
0.0
 11
49.85578275592432
 21
232.5763004620258
 31
0.0
  0
LINE
  5
9D47
  8
0
 10
49.85578275592432
 20
232.5763004620258
 30
0.0
 11
50.42953275592434
 21
232.5763004620258
 31
0.0
  0
LINE
  5
9D48
  8
0
 10
50.42953275592434
 20
232.5763004620258
 30
0.0
 11
50.42953275592434
 21
232.420206712026
 31
0.0
  0
LINE
  5
9D49
  8
0
 10
50.42953275592434
 20
232.420206712026
 30
0.0
 11
49.85578275592432
 21
232.420206712026
 31
0.0
  0
LINE
  5
9D4A
  8
0
 10
50.03595853717387
 20
232.0827067120259
 30
0.0
 11
49.91045072467385
 21
232.1828141339011
 31
0.0
  0
LINE
  5
9D4B
  8
0
 10
50.44148588092411
 20
231.8238688214006
 30
0.0
 11
50.46556791217425
 21
231.6690934307763
 31
0.0
  0
ARC
  5
9D4C
  8
0
 10
50.27005895323342
 20
231.7648523068157
 30
0.0
 40
0.5513711698559726
 50
130.708220238404
 51
157.703625479385
  0
ARC
  5
9D4D
  8
0
 10
49.96061401023908
 20
231.891713979969
 30
0.0
 40
0.2169312572480087
 50
157.6967650917142
 51
205.3984993646999
  0
ARC
  5
9D4E
  8
0
 10
50.02698408057299
 20
231.9460113158492
 30
0.0
 40
0.3008800009813904
 50
209.3210192654115
 51
257.5935048122165
  0
ARC
  5
9D4F
  8
0
 10
50.15961076894364
 20
232.4579945290266
 30
0.0
 40
0.8296316180790294
 50
256.2444659394042
 51
275.2215523672216
  0
ARC
  5
9D50
  8
0
 10
50.1572398087046
 20
232.843897364511
 30
0.0
 40
1.214590672657983
 50
273.6760364924776
 51
284.7056607611161
  0
ARC
  5
9D51
  8
0
 10
50.14567974560487
 20
233.0665329310182
 30
0.0
 40
1.277386143272562
 50
270.1640623199838
 51
283.3896060448867
  0
ARC
  5
9D52
  8
0
 10
50.12692186703484
 20
232.15920145785
 30
0.0
 40
0.3707277183708511
 50
242.6706422703897
 51
273.4664302047655
  0
ARC
  5
9D53
  8
0
 10
50.00639728876975
 20
231.9008880143817
 30
0.0
 40
0.0866823147437489
 50
154.8854560630789
 51
235.0327799996414
  0
ARC
  5
9D54
  8
0
 10
50.34544559512309
 20
231.7393698144231
 30
0.0
 40
0.4622363727478137
 50
132.0317914832259
 51
154.5946083240115
  0
LINE
  5
9D55
  8
0
 10
50.90185697467403
 20
232.3976188214011
 30
0.0
 11
50.71640775592412
 21
232.3976188214011
 31
0.0
  0
LINE
  5
9D56
  8
0
 10
50.71640775592412
 20
232.3976188214011
 30
0.0
 11
50.71640775592412
 21
232.5496696026512
 31
0.0
  0
LINE
  5
9D57
  8
0
 10
50.71640775592412
 20
232.5496696026512
 30
0.0
 11
50.94457181842425
 21
232.5496696026512
 31
0.0
  0
LINE
  5
9D58
  8
0
 10
50.99124174029929
 20
232.7378434307757
 30
0.0
 11
51.15137845904927
 21
232.7164860089006
 31
0.0
  0
LINE
  5
9D59
  8
0
 10
51.11130033404923
 20
232.5496696026512
 30
0.0
 11
51.33419095904945
 21
232.5496696026512
 31
0.0
  0
LINE
  5
9D5A
  8
0
 10
51.33419095904945
 20
232.5496696026512
 30
0.0
 11
51.33419095904945
 21
232.3976188214011
 31
0.0
  0
LINE
  5
9D5B
  8
0
 10
51.33419095904945
 20
232.3976188214011
 30
0.0
 11
51.07131009967405
 21
232.3976188214011
 31
0.0
  0
LINE
  5
9D5C
  8
0
 10
50.84042142779934
 20
231.729122727651
 30
0.0
 11
50.68573392779898
 21
231.7811539776513
 31
0.0
  0
LINE
  5
9D5D
  8
0
 10
51.4689272871742
 20
232.5496696026512
 30
0.0
 11
51.4689272871742
 21
232.0479899151506
 31
0.0
  0
LINE
  5
9D5E
  8
0
 10
51.63838041217421
 20
232.3934879620256
 30
0.0
 11
51.63838041217421
 21
231.9651969464012
 31
0.0
  0
LINE
  5
9D5F
  8
0
 10
51.88790189654945
 20
232.5229508526509
 30
0.0
 11
51.86786283404898
 21
232.3708121807759
 31
0.0
  0
LINE
  5
9D60
  8
0
 10
51.89449369342445
 20
231.7650699932756
 30
0.0
 11
51.78911283404885
 21
231.6477360089012
 31
0.0
  0
LINE
  5
9D61
  8
0
 10
51.78911283404885
 20
231.6477360089012
 30
0.0
 11
51.63038236529927
 21
231.7798356182757
 31
0.0
  0
ARC
  5
9D62
  8
0
 10
42.92107503663418
 20
234.6394910591727
 30
0.0
 40
8.291191369612257
 50
345.4009556896889
 51
346.740746954867
  0
ARC
  5
9D63
  8
0
 10
44.37677798867253
 20
234.3390935481511
 30
0.0
 40
6.807788178855744
 50
337.9301136346513
 51
343.4301309136037
  0
ARC
  5
9D64
  8
0
 10
45.15534402838605
 20
234.0667852629228
 30
0.0
 40
6.146931849803847
 50
337.647891114247
 51
344.2437969395151
  0
ARC
  5
9D65
  8
0
 10
48.22944958263234
 20
233.3302652426343
 30
0.0
 40
2.985698127172701
 50
344.84418349645
 51
348.136949894858
  0
ARC
  5
9D66
  8
0
 10
51.49143441157297
 20
229.604288782169
 30
0.0
 40
2.945466813310544
 50
82.26435931630408
 51
90.43781711643568
  0
ARC
  5
9D67
  8
0
 10
51.58569678687596
 20
230.6877847713258
 30
0.0
 40
1.706516609687102
 50
80.48265313058977
 51
88.23088210500025
  0
ARC
  5
9D68
  8
0
 10
50.67110998206039
 20
230.4633842014474
 30
0.0
 40
1.786352038619028
 50
46.77616557053221
 51
57.2156866531281
  0
ARC
  5
9D69
  8
0
 10
51.40024934312316
 20
231.8102616980389
 30
0.0
 40
0.2321356375605922
 50
300.4982959066377
 51
352.4685567394949
  0
ARC
  5
9D6A
  8
0
 10
51.3298449578266
 20
232.0140029056924
 30
0.0
 40
0.4454740180557357
 50
260.8493170262734
 51
294.9930070723727
  0
ARC
  5
9D6B
  8
0
 10
51.27328949288379
 20
231.8483506032172
 30
0.0
 40
0.274524516799522
 50
210.6191600754503
 51
267.0164240300838
  0
ARC
  5
9D6C
  8
0
 10
51.27264519402124
 20
231.821695019675
 30
0.0
 40
0.2613734309622749
 50
147.2334581988806
 51
205.6564160796825
  0
ARC
  5
9D6D
  8
0
 10
51.27761373680236
 20
231.78293138577
 30
0.0
 40
0.2880874616600608
 50
91.03111037243933
 51
141.2747978514547
  0
ARC
  5
9D6E
  8
0
 10
51.32023854906488
 20
231.6282219532967
 30
0.0
 40
0.4453240198322287
 50
70.49501453936077
 51
96.16302987731919
  0
ARC
  5
9D6F
  8
0
 10
51.32305862059093
 20
231.6381887270235
 30
0.0
 40
0.2902930385304879
 50
59.83528150936421
 51
103.2201440558064
  0
ARC
  5
9D70
  8
0
 10
51.27815708736006
 20
231.8243220686566
 30
0.0
 40
0.0988304488869036
 50
102.5568170755454
 51
180.262765637224
  0
ARC
  5
9D71
  8
0
 10
51.28045160824396
 20
231.8211023442013
 30
0.0
 40
0.1011617650333014
 50
178.4329333203594
 51
256.0701828760615
  0
ARC
  5
9D72
  8
0
 10
51.32721745769196
 20
231.9739712758386
 30
0.0
 40
0.2609345439815814
 50
254.1836782918791
 51
287.6043484841652
  0
ARC
  5
9D73
  8
0
 10
51.37698586546003
 20
231.8044023140765
 30
0.0
 40
0.0843426031298885
 50
290.2187264652961
 51
350.7581622463694
  0
ARC
  5
9D74
  8
0
 10
51.10226641263958
 20
231.8720523494013
 30
0.0
 40
0.3670603004158596
 50
347.2201738930314
 51
2.67316898487712
  0
LINE
  5
9D75
  8
0
 10
52.2094058027992
 20
232.157325852651
 30
0.0
 11
52.17741361529941
 21
232.3095524151509
 31
0.0
  0
LINE
  5
9D76
  8
0
 10
52.36549955279905
 20
231.7638395245258
 30
0.0
 11
52.37754056842412
 21
231.611612962026
 31
0.0
  0
ARC
  5
9D77
  8
0
 10
52.79608019318626
 20
229.9765893143517
 30
0.0
 40
2.413600042319521
 50
93.0330778001963
 51
104.852125248309
  0
ARC
  5
9D78
  8
0
 10
52.69342768260388
 20
231.8599904863768
 30
0.0
 40
0.5274133454568837
 50
60.91960556758053
 51
92.72310713201327
  0
ARC
  5
9D79
  8
0
 10
52.79619141305923
 20
232.0883606424777
 30
0.0
 40
0.2786914630822537
 50
9.671194361801408
 51
56.55959162043377
  0
ARC
  5
9D7A
  8
0
 10
52.63619194764136
 20
232.0478735729132
 30
0.0
 40
0.4434101722744036
 50
333.9597813248128
 51
11.35547973600755
  0
ARC
  5
9D7B
  8
0
 10
52.70757050148215
 20
232.0389200180228
 30
0.0
 40
0.3760688166287614
 50
291.9740011095546
 51
330.4090690351002
  0
ARC
  5
9D7C
  8
0
 10
52.52202859308831
 20
232.4326019932316
 30
0.0
 40
0.8109562744615367
 50
277.5911083880274
 51
293.7231081887235
  0
ARC
  5
9D7D
  8
0
 10
52.38884557672172
 20
233.3011186217219
 30
0.0
 40
1.689543481937406
 50
269.6166218252729
 51
278.1772037059889
  0
ARC
  5
9D7E
  8
0
 10
52.40409458862493
 20
232.9172493409735
 30
0.0
 40
1.154055363259622
 50
268.0835017580472
 51
287.3544714703422
  0
ARC
  5
9D7F
  8
0
 10
52.68169383921047
 20
232.0315262737452
 30
0.0
 40
0.2258508101221847
 50
287.1599817388461
 51
352.3121354184231
  0
ARC
  5
9D80
  8
0
 10
52.70757293224901
 20
232.0373166409124
 30
0.0
 40
0.2011894179017752
 50
349.6911030936221
 51
46.3182034235858
  0
ARC
  5
9D81
  8
0
 10
52.67569239809343
 20
231.9157892632429
 30
0.0
 40
0.3169953313446048
 50
57.39040451094466
 51
96.72424011120249
  0
ARC
  5
9D82
  8
0
 10
52.85522731874703
 20
229.6683346458352
 30
0.0
 40
2.571412580288827
 50
94.83313718967965
 51
104.5458325788219
  0
LINE
  5
9D83
  8
0
 10
53.61038236529929
 20
232.420206712026
 30
0.0
 11
53.4288882246742
 21
232.420206712026
 31
0.0
  0
LINE
  5
9D84
  8
0
 10
53.4288882246742
 20
232.420206712026
 30
0.0
 11
53.4288882246742
 21
232.5710270245259
 31
0.0
  0
LINE
  5
9D85
  8
0
 10
53.4288882246742
 20
232.5710270245259
 30
0.0
 11
53.64105619342398
 21
232.5710270245259
 31
0.0
  0
LINE
  5
9D86
  8
0
 10
53.64105619342398
 20
232.5710270245259
 30
0.0
 11
53.66909330279894
 21
232.732482102651
 31
0.0
  0
LINE
  5
9D87
  8
0
 10
53.66909330279894
 20
232.732482102651
 30
0.0
 11
53.83863431842427
 21
232.7177164776509
 31
0.0
  0
LINE
  5
9D88
  8
0
 10
53.83863431842427
 20
232.7177164776509
 30
0.0
 11
53.81323392779903
 21
232.5710270245259
 31
0.0
  0
LINE
  5
9D89
  8
0
 10
53.81323392779903
 20
232.5710270245259
 30
0.0
 11
54.27896634967418
 21
232.5710270245259
 31
0.0
  0
LINE
  5
9D8A
  8
0
 10
54.27896634967418
 20
232.5710270245259
 30
0.0
 11
54.27896634967418
 21
232.420206712026
 31
0.0
  0
LINE
  5
9D8B
  8
0
 10
54.27896634967418
 20
232.420206712026
 30
0.0
 11
53.78396634967429
 21
232.420206712026
 31
0.0
  0
LINE
  5
9D8C
  8
0
 10
53.55703275592394
 20
231.5689860089006
 30
0.0
 11
53.38889799029901
 21
231.6076578839011
 31
0.0
  0
LINE
  5
9D8D
  8
0
 10
53.94129056842438
 20
232.133419602651
 30
0.0
 11
53.93065580279925
 21
232.2827457745262
 31
0.0
  0
LINE
  5
9D8E
  8
0
 10
54.48032377154912
 20
232.3135074932762
 30
0.0
 11
54.48032377154912
 21
232.1640934307762
 31
0.0
  0
LINE
  5
9D8F
  8
0
 10
54.08006986529925
 20
231.9626481182759
 30
0.0
 11
53.95869291217421
 21
232.0399039776512
 31
0.0
  0
LINE
  5
9D90
  8
0
 10
54.49104642779911
 20
231.7704313214008
 30
0.0
 11
54.51108549029912
 21
231.6196988995262
 31
0.0
  0
ARC
  5
9D91
  8
0
 10
47.01143429323655
 20
233.7824859841855
 30
0.0
 40
6.738094721294446
 50
341.1697144444025
 51
348.3357808241415
  0
ARC
  5
9D92
  8
0
 10
47.03051018746626
 20
233.7648031277636
 30
0.0
 40
6.886008252687487
 50
341.4047346856015
 51
348.7397953124075
  0
ARC
  5
9D93
  8
0
 10
54.46813895862088
 20
227.6049611532515
 30
0.0
 40
4.708562105975219
 50
89.85172986605279
 51
96.5546104840503
  0
ARC
  5
9D94
  8
0
 10
54.46915146235956
 20
227.6088552412594
 30
0.0
 40
4.555251890260736
 50
89.85947499256585
 51
96.65436322543621
  0
ARC
  5
9D95
  8
0
 10
54.18684976006861
 20
231.7252705226156
 30
0.0
 40
0.3886512038689388
 50
125.9477923082765
 51
153.9456213275426
  0
ARC
  5
9D96
  8
0
 10
53.9997843315893
 20
231.8312923158397
 30
0.0
 40
0.1745196541164178
 50
158.2451995748845
 51
211.937738790848
  0
ARC
  5
9D97
  8
0
 10
54.10853448892642
 20
231.9253993356973
 30
0.0
 40
0.3173766808952333
 50
215.9728103304899
 51
258.577083270988
  0
ARC
  5
9D98
  8
0
 10
54.22195615382932
 20
232.3136837796944
 30
0.0
 40
0.7212479843673572
 50
255.8532185042195
 51
272.6578213791558
  0
ARC
  5
9D99
  8
0
 10
54.22575534681678
 20
233.1267042497233
 30
0.0
 40
1.533779128917274
 50
271.1075186277241
 51
280.7212356446171
  0
ARC
  5
9D9A
  8
0
 10
54.21304546682936
 20
233.2109097402432
 30
0.0
 40
1.467059170398629
 50
270.0695624886666
 51
280.923337658684
  0
ARC
  5
9D9B
  8
0
 10
54.20864561637803
 20
232.1111495699872
 30
0.0
 40
0.3680274217404644
 50
240.6869572496387
 51
273.2459162436446
  0
ARC
  5
9D9C
  8
0
 10
54.06796597682474
 20
231.8536606714829
 30
0.0
 40
0.074711058388821
 50
182.4248820533392
 51
238.082482720991
  0
ARC
  5
9D9D
  8
0
 10
54.07650813473248
 20
231.8455344757226
 30
0.0
 40
0.0833343655532817
 50
131.1757227927974
 51
176.5841957139149
  0
ARC
  5
9D9E
  8
0
 10
54.53985340838986
 20
231.4101497904203
 30
0.0
 40
0.7187873877436253
 50
129.7668863169349
 51
136.1330162188036
  0
LINE
  5
9D9F
  8
0
 10
54.99940580279916
 20
232.6604117901507
 30
0.0
 11
54.98077299029909
 21
232.5095914776512
 31
0.0
  0
LINE
  5
9DA0
  8
0
 10
55.63450345904901
 20
232.6203336651507
 30
0.0
 11
55.63450345904901
 21
232.4695133526512
 31
0.0
  0
LINE
  5
9DA1
  8
0
 10
55.0526675215492
 20
232.3934879620256
 30
0.0
 11
54.87934720904921
 21
232.4069352276511
 31
0.0
  0
LINE
  5
9DA2
  8
0
 10
54.87934720904921
 20
232.4069352276511
 30
0.0
 11
54.81255033404885
 21
231.9892789776509
 31
0.0
  0
LINE
  5
9DA3
  8
0
 10
54.81255033404885
 20
231.9892789776509
 30
0.0
 11
54.97145658404905
 21
231.9545621807757
 31
0.0
  0
LINE
  5
9DA4
  8
0
 10
55.01812650592409
 20
232.1373746807758
 30
0.0
 11
55.0526675215492
 21
232.3934879620256
 31
0.0
  0
LINE
  5
9DA5
  8
0
 10
54.92601713092425
 20
231.7503922589013
 30
0.0
 11
54.91406400592403
 21
231.597023118276
 31
0.0
  0
ARC
  5
9DA6
  8
0
 10
55.43399515924196
 20
231.5431159473233
 30
0.0
 40
0.725320742221686
 50
82.7383955307303
 51
124.9847424284259
  0
ARC
  5
9DA7
  8
0
 10
55.51424387789367
 20
231.969153164232
 30
0.0
 40
0.2936885684487056
 50
25.47750666320868
 51
87.76921556057754
  0
ARC
  5
9DA8
  8
0
 10
55.4463843032644
 20
231.9625797380772
 30
0.0
 40
0.3585317338785675
 50
321.3543299701645
 51
21.75842031571825
  0
ARC
  5
9DA9
  8
0
 10
55.37076195803655
 20
232.0944458448791
 30
0.0
 40
0.5030455772132802
 50
274.9636499740987
 51
314.989839151749
  0
ARC
  5
9DAA
  8
0
 10
55.17878291725719
 20
233.5507898072313
 30
0.0
 40
1.971618719957279
 50
262.2838934043664
 51
276.8602022226234
  0
ARC
  5
9DAB
  8
0
 10
55.23958882851088
 20
234.4587358296299
 30
0.0
 40
2.726435788097946
 50
263.3957068302936
 51
271.0732963894559
  0
ARC
  5
9DAC
  8
0
 10
55.29777153189817
 20
232.1218380330802
 30
0.0
 40
0.3891246493399197
 50
268.9526659567916
 51
311.9026700510424
  0
ARC
  5
9DAD
  8
0
 10
55.42184360819238
 20
231.9532926708101
 30
0.0
 40
0.1819431806139916
 50
318.2838146029565
 51
32.76134975180928
  0
ARC
  5
9DAE
  8
0
 10
55.42042708882729
 20
231.902910659188
 30
0.0
 40
0.2144715613892272
 50
43.94597849543317
 51
93.25534829104993
  0
ARC
  5
9DAF
  8
0
 10
55.39829111939273
 20
231.5990210908776
 30
0.0
 40
0.518110737832
 50
88.89882867160388
 51
112.7433476052045
  0
ARC
  5
9DB0
  8
0
 10
55.64190045527519
 20
230.9835356106241
 30
0.0
 40
1.179994739142887
 50
112.0984440204114
 51
124.6230820154886
  0
ARC
  5
9DB1
  8
0
 10
55.6324694797047
 20
237.6401760111769
 30
0.0
 40
5.019842758098118
 50
262.7550085222148
 51
270.023215555127
  0
ARC
  5
9DB2
  8
0
 10
55.63385020878053
 20
237.8105277173072
 30
0.0
 40
5.341014404604963
 50
262.9765318468749
 51
270.0070077480808
  0
LINE
  5
9DB3
  8
0
 10
56.20025541217409
 20
232.055987962026
 30
0.0
 11
56.20025541217409
 21
232.656368821401
 31
0.0
  0
LINE
  5
9DB4
  8
0
 10
56.20025541217409
 20
232.656368821401
 30
0.0
 11
56.38702299029909
 21
232.656368821401
 31
0.0
  0
LINE
  5
9DB5
  8
0
 10
56.38702299029909
 20
232.656368821401
 30
0.0
 11
56.38702299029909
 21
232.055987962026
 31
0.0
  0
LINE
  5
9DB6
  8
0
 10
56.38702299029909
 20
232.055987962026
 30
0.0
 11
56.20025541217409
 21
232.055987962026
 31
0.0
  0
LINE
  5
9DB7
  8
0
 10
56.87130033404945
 20
232.2868766339007
 30
0.0
 11
56.87130033404945
 21
232.656368821401
 31
0.0
  0
LINE
  5
9DB8
  8
0
 10
56.87130033404945
 20
232.656368821401
 30
0.0
 11
57.06219877154898
 21
232.656368821401
 31
0.0
  0
LINE
  5
9DB9
  8
0
 10
57.06219877154898
 20
232.656368821401
 30
0.0
 11
57.06219877154898
 21
232.290831712026
 31
0.0
  0
LINE
  5
9DBA
  8
0
 10
56.36566556842398
 20
231.5663492901509
 30
0.0
 11
56.32831205279898
 21
231.7304410870257
 31
0.0
  0
LINE
  5
9DBB
  8
0
 10
57.76128080279885
 20
231.930480149526
 30
0.0
 11
57.76128080279885
 21
232.073302415151
 31
0.0
  0
LINE
  5
9DBC
  8
0
 10
57.76128080279885
 20
232.073302415151
 30
0.0
 11
57.39178861529898
 21
232.073302415151
 31
0.0
  0
LINE
  5
9DBD
  8
0
 10
57.39178861529898
 20
232.073302415151
 30
0.0
 11
57.39178861529898
 21
232.233439133901
 31
0.0
  0
LINE
  5
9DBE
  8
0
 10
57.39178861529898
 20
232.233439133901
 30
0.0
 11
57.76128080279885
 21
232.233439133901
 31
0.0
  0
LINE
  5
9DBF
  8
0
 10
57.76128080279885
 20
232.233439133901
 30
0.0
 11
57.76128080279885
 21
232.4695133526512
 31
0.0
  0
LINE
  5
9DC0
  8
0
 10
57.76128080279885
 20
232.4695133526512
 30
0.0
 11
57.50771634967394
 21
232.4695133526512
 31
0.0
  0
LINE
  5
9DC1
  8
0
 10
57.50771634967394
 20
232.4695133526512
 30
0.0
 11
57.50771634967394
 21
232.6337809307761
 31
0.0
  0
LINE
  5
9DC2
  8
0
 10
57.50771634967394
 20
232.6337809307761
 30
0.0
 11
58.42309720904903
 21
232.6337809307761
 31
0.0
  0
LINE
  5
9DC3
  8
0
 10
58.42309720904903
 20
232.6337809307761
 30
0.0
 11
58.42309720904903
 21
232.4695133526512
 31
0.0
  0
LINE
  5
9DC4
  8
0
 10
58.42309720904903
 20
232.4695133526512
 30
0.0
 11
57.95613431842411
 21
232.4695133526512
 31
0.0
  0
LINE
  5
9DC5
  8
0
 10
57.95613431842411
 20
232.4695133526512
 30
0.0
 11
57.95613431842411
 21
232.233439133901
 31
0.0
  0
LINE
  5
9DC6
  8
0
 10
57.95613431842411
 20
232.233439133901
 30
0.0
 11
58.53920072467416
 21
232.233439133901
 31
0.0
  0
LINE
  5
9DC7
  8
0
 10
58.53920072467416
 20
232.233439133901
 30
0.0
 11
58.53920072467416
 21
232.073302415151
 31
0.0
  0
LINE
  5
9DC8
  8
0
 10
58.53920072467416
 20
232.073302415151
 30
0.0
 11
57.95613431842411
 21
232.073302415151
 31
0.0
  0
LINE
  5
9DC9
  8
0
 10
57.95613431842411
 20
232.073302415151
 30
0.0
 11
57.95613431842411
 21
231.9358414776507
 31
0.0
  0
LINE
  5
9DCA
  8
0
 10
58.4364565840492
 20
231.7757047589012
 30
0.0
 11
58.44173002154911
 21
231.6103824932762
 31
0.0
  0
ARC
  5
9DCB
  8
0
 10
56.066028443672
 20
232.2696545659874
 30
0.0
 40
0.8054560304915982
 50
340.9437882329723
 51
1.225178000018496
  0
ARC
  5
9DCC
  8
0
 10
56.5033091407319
 20
232.1275775406559
 30
0.0
 40
0.345855307889423
 50
291.670576553406
 51
339.5389467977661
  0
ARC
  5
9DCD
  8
0
 10
56.22617177357238
 20
232.7816485459668
 30
0.0
 40
1.056158017710445
 50
275.5497072742328
 51
292.5397602820191
  0
ARC
  5
9DCE
  8
0
 10
56.2935203920106
 20
232.6144500473638
 30
0.0
 40
1.050580850648829
 50
273.9376978144313
 51
296.3652409231708
  0
ARC
  5
9DCF
  8
0
 10
56.50690869780609
 20
232.1494192162729
 30
0.0
 40
0.5393756653461665
 50
297.9933108679145
 51
349.2973959047169
  0
ARC
  5
9DD0
  8
0
 10
56.01233946784346
 20
232.2786532485744
 30
0.0
 40
1.049929936971548
 50
347.3794742886816
 51
0.6646064465848662
  0
ARC
  5
9DD1
  8
0
 10
58.25060798505017
 20
231.9008904334518
 30
0.0
 40
0.4902210140205808
 50
176.5395261482863
 51
206.0121964930288
  0
ARC
  5
9DD2
  8
0
 10
57.99300845514851
 20
231.838012670132
 30
0.0
 40
0.2379373016522034
 50
219.7400975832281
 51
273.8636407009164
  0
ARC
  5
9DD3
  8
0
 10
58.14657425502228
 20
235.0971609098174
 30
0.0
 40
3.499248583992225
 50
267.747489334722
 51
274.8385522250587
  0
ARC
  5
9DD4
  8
0
 10
58.13313171811363
 20
235.294764295359
 30
0.0
 40
3.532107868600457
 50
269.5594493554569
 51
274.926425743971
  0
ARC
  5
9DD5
  8
0
 10
58.10684839188109
 20
232.0980274344021
 30
0.0
 40
0.3352677379612373
 50
252.6101303751348
 51
269.8504673977251
  0
ARC
  5
9DD6
  8
0
 10
58.03116804987813
 20
231.8388738573036
 30
0.0
 40
0.0655496828836007
 50
188.1794661638701
 51
248.0315991587105
  0
ARC
  5
9DD7
  8
0
 10
58.41283353989323
 20
231.9258239744257
 30
0.0
 40
0.4568090730928223
 50
178.7434429434794
 51
192.1667740459287
  0
LINE
  5
9DD8
  8
0
 10
58.74864408404936
 20
232.0372672589011
 30
0.0
 11
58.74864408404936
 21
232.2160367901507
 31
0.0
  0
LINE
  5
9DD9
  8
0
 10
58.74864408404936
 20
232.2160367901507
 30
0.0
 11
59.85070463092414
 21
232.2160367901507
 31
0.0
  0
LINE
  5
9DDA
  8
0
 10
59.85070463092414
 20
232.2160367901507
 30
0.0
 11
59.85070463092414
 21
232.0372672589011
 31
0.0
  0
LINE
  5
9DDB
  8
0
 10
59.85070463092414
 20
232.0372672589011
 30
0.0
 11
58.74864408404936
 21
232.0372672589011
 31
0.0
  0
LINE
  5
9DDC
  8
0
 10
60.45644681842394
 20
232.121378587026
 30
0.0
 11
60.45644681842394
 21
231.5756656964009
 31
0.0
  0
LINE
  5
9DDD
  8
0
 10
60.45644681842394
 20
231.5756656964009
 30
0.0
 11
60.26967924029894
 21
231.5756656964009
 31
0.0
  0
LINE
  5
9DDE
  8
0
 10
60.26967924029894
 20
231.5756656964009
 30
0.0
 11
60.26967924029894
 21
232.677814133901
 31
0.0
  0
LINE
  5
9DDF
  8
0
 10
60.26967924029894
 20
232.677814133901
 30
0.0
 11
60.45644681842394
 21
232.677814133901
 31
0.0
  0
LINE
  5
9DE0
  8
0
 10
60.45644681842394
 20
232.677814133901
 30
0.0
 11
60.45644681842394
 21
232.3041031964013
 31
0.0
  0
LINE
  5
9DE1
  8
0
 10
61.18224759967414
 20
232.0813004620259
 30
0.0
 11
61.12626127154952
 21
231.9132535870258
 31
0.0
  0
ARC
  5
9DE2
  8
0
 10
58.86105079463878
 20
225.8133677896955
 30
0.0
 40
6.683931073296139
 50
69.67895110286432
 51
76.19068882595862
  0
ARC
  5
9DE3
  8
0
 10
58.91329954185421
 20
225.9731212524173
 30
0.0
 40
6.338956678330691
 50
69.56741481783094
 51
75.9104163881585
  0
LINE
  5
9DE4
  8
0
 10
61.52379056842436
 20
231.7304410870257
 30
0.0
 11
61.52379056842436
 21
231.906573899526
 31
0.0
  0
LINE
  5
9DE5
  8
0
 10
61.52379056842436
 20
231.906573899526
 30
0.0
 11
61.41849759967452
 21
231.8838981182762
 31
0.0
  0
LINE
  5
9DE6
  8
0
 10
61.41849759967452
 20
231.8838981182762
 30
0.0
 11
61.40645658404945
 21
232.0399039776512
 31
0.0
  0
LINE
  5
9DE7
  8
0
 10
61.40645658404945
 20
232.0399039776512
 30
0.0
 11
61.52379056842436
 21
232.0639860089009
 31
0.0
  0
LINE
  5
9DE8
  8
0
 10
61.52379056842436
 20
232.0639860089009
 30
0.0
 11
61.52379056842436
 21
232.3535856182762
 31
0.0
  0
LINE
  5
9DE9
  8
0
 10
61.52379056842436
 20
232.3535856182762
 30
0.0
 11
61.40786283404894
 21
232.3535856182762
 31
0.0
  0
LINE
  5
9DEA
  8
0
 10
61.40786283404894
 20
232.3535856182762
 30
0.0
 11
61.40786283404894
 21
232.5002750714012
 31
0.0
  0
LINE
  5
9DEB
  8
0
 10
61.40786283404894
 20
232.5002750714012
 30
0.0
 11
61.52379056842436
 21
232.5002750714012
 31
0.0
  0
LINE
  5
9DEC
  8
0
 10
61.52379056842436
 20
232.5002750714012
 30
0.0
 11
61.52379056842436
 21
232.731075852651
 31
0.0
  0
LINE
  5
9DED
  8
0
 10
61.52379056842436
 20
232.731075852651
 30
0.0
 11
61.69201322467414
 21
232.731075852651
 31
0.0
  0
LINE
  5
9DEE
  8
0
 10
61.69201322467414
 20
232.731075852651
 30
0.0
 11
61.69201322467414
 21
232.5002750714012
 31
0.0
  0
LINE
  5
9DEF
  8
0
 10
61.69201322467414
 20
232.5002750714012
 30
0.0
 11
61.80407377154914
 21
232.5002750714012
 31
0.0
  0
LINE
  5
9DF0
  8
0
 10
61.80407377154914
 20
232.5002750714012
 30
0.0
 11
61.80407377154914
 21
232.3695817120261
 31
0.0
  0
LINE
  5
9DF1
  8
0
 10
61.80407377154914
 20
232.3695817120261
 30
0.0
 11
62.19237455279925
 21
232.3695817120261
 31
0.0
  0
LINE
  5
9DF2
  8
0
 10
62.19237455279925
 20
232.3695817120261
 30
0.0
 11
62.19237455279925
 21
232.0866617901511
 31
0.0
  0
LINE
  5
9DF3
  8
0
 10
62.19237455279925
 20
232.0866617901511
 30
0.0
 11
62.23236478717398
 21
232.0866617901511
 31
0.0
  0
LINE
  5
9DF4
  8
0
 10
62.23236478717398
 20
232.0866617901511
 30
0.0
 11
62.23236478717398
 21
232.3695817120261
 31
0.0
  0
LINE
  5
9DF5
  8
0
 10
62.23236478717398
 20
232.3695817120261
 30
0.0
 11
62.63525541217403
 21
232.3695817120261
 31
0.0
  0
LINE
  5
9DF6
  8
0
 10
62.63525541217403
 20
232.3695817120261
 30
0.0
 11
62.63525541217403
 21
232.053263352651
 31
0.0
  0
LINE
  5
9DF7
  8
0
 10
62.63525541217403
 20
232.053263352651
 30
0.0
 11
62.29643705279885
 21
232.053263352651
 31
0.0
  0
LINE
  5
9DF8
  8
0
 10
62.29643705279885
 20
232.053263352651
 30
0.0
 11
62.29643705279885
 21
232.0039567120257
 31
0.0
  0
LINE
  5
9DF9
  8
0
 10
62.29643705279885
 20
232.0039567120257
 30
0.0
 11
62.65793119342423
 21
232.0039567120257
 31
0.0
  0
LINE
  5
9DFA
  8
0
 10
62.65793119342423
 20
232.0039567120257
 30
0.0
 11
62.65793119342423
 21
231.866495774526
 31
0.0
  0
LINE
  5
9DFB
  8
0
 10
62.65793119342423
 20
231.866495774526
 30
0.0
 11
62.38986478717423
 21
231.866495774526
 31
0.0
  0
LINE
  5
9DFC
  8
0
 10
62.03223783404927
 20
231.866495774526
 30
0.0
 11
61.7587222090492
 21
231.866495774526
 31
0.0
  0
LINE
  5
9DFD
  8
0
 10
61.7587222090492
 20
231.866495774526
 30
0.0
 11
61.7587222090492
 21
231.9745133526513
 31
0.0
  0
LINE
  5
9DFE
  8
0
 10
61.7587222090492
 20
231.9745133526513
 30
0.0
 11
61.69201322467414
 21
231.953243821401
 31
0.0
  0
LINE
  5
9DFF
  8
0
 10
61.69201322467414
 20
231.953243821401
 30
0.0
 11
61.69201322467414
 21
231.743712571401
 31
0.0
  0
LINE
  5
9E00
  8
0
 10
61.72005033404911
 20
231.679728196401
 30
0.0
 11
61.7960757246742
 21
231.5449039776509
 31
0.0
  0
LINE
  5
9E01
  8
0
 10
62.12302884967401
 20
231.7784293682762
 30
0.0
 11
62.12302884967401
 21
231.528907883901
 31
0.0
  0
LINE
  5
9E02
  8
0
 10
62.12302884967401
 20
231.528907883901
 30
0.0
 11
62.29643705279885
 21
231.528907883901
 31
0.0
  0
LINE
  5
9E03
  8
0
 10
62.29643705279885
 20
231.528907883901
 30
0.0
 11
62.29643705279885
 21
231.7811539776513
 31
0.0
  0
LINE
  5
9E04
  8
0
 10
62.67928861529934
 20
231.679728196401
 30
0.0
 11
62.59930814654898
 21
231.5449039776509
 31
0.0
  0
LINE
  5
9E05
  8
0
 10
61.86814603717401
 20
232.7177164776509
 30
0.0
 11
62.57531400592414
 21
232.7177164776509
 31
0.0
  0
LINE
  5
9E06
  8
0
 10
62.57531400592414
 20
232.7177164776509
 30
0.0
 11
62.57531400592414
 21
232.4055289776507
 31
0.0
  0
LINE
  5
9E07
  8
0
 10
62.57531400592414
 20
232.4055289776507
 30
0.0
 11
61.86814603717401
 21
232.4055289776507
 31
0.0
  0
LINE
  5
9E08
  8
0
 10
61.86814603717401
 20
232.4055289776507
 30
0.0
 11
61.86814603717401
 21
232.7177164776509
 31
0.0
  0
LINE
  5
9E09
  8
0
 10
62.03083158404932
 20
232.5829801495257
 30
0.0
 11
62.03083158404932
 21
232.524269212026
 31
0.0
  0
LINE
  5
9E0A
  8
0
 10
62.03083158404932
 20
232.524269212026
 30
0.0
 11
62.40577299029927
 21
232.524269212026
 31
0.0
  0
LINE
  5
9E0B
  8
0
 10
62.40577299029927
 20
232.524269212026
 30
0.0
 11
62.40577299029927
 21
232.5829801495257
 31
0.0
  0
LINE
  5
9E0C
  8
0
 10
62.40577299029927
 20
232.5829801495257
 30
0.0
 11
62.03083158404932
 21
232.5829801495257
 31
0.0
  0
LINE
  5
9E0D
  8
0
 10
61.69201322467414
 20
232.1080192120262
 30
0.0
 11
61.69201322467414
 21
232.3535856182762
 31
0.0
  0
LINE
  5
9E0E
  8
0
 10
61.69201322467414
 20
232.3535856182762
 30
0.0
 11
61.79071439654898
 21
232.3535856182762
 31
0.0
  0
LINE
  5
9E0F
  8
0
 10
61.79071439654898
 20
232.3535856182762
 30
0.0
 11
61.79071439654898
 21
232.140011399526
 31
0.0
  0
LINE
  5
9E10
  8
0
 10
61.79071439654898
 20
232.140011399526
 30
0.0
 11
61.69201322469024
 21
232.1080192120313
 31
0.0
  0
LINE
  5
9E11
  8
0
 10
62.12302884967401
 20
232.0039567120257
 30
0.0
 11
61.80548002154909
 21
232.0039567120257
 31
0.0
  0
LINE
  5
9E12
  8
0
 10
61.80548002154909
 20
232.0039567120257
 30
0.0
 11
61.80275541217405
 21
232.053263352651
 31
0.0
  0
LINE
  5
9E13
  8
0
 10
61.80275541217405
 20
232.053263352651
 30
0.0
 11
62.12302884967401
 21
232.053263352651
 31
0.0
  0
LINE
  5
9E14
  8
0
 10
62.12302884967401
 20
232.053263352651
 30
0.0
 11
62.12302884967401
 21
232.0039567120257
 31
0.0
  0
LINE
  5
9E15
  8
0
 10
62.05350736529907
 20
232.1734098370262
 30
0.0
 11
61.93617338092416
 21
232.1734098370262
 31
0.0
  0
LINE
  5
9E16
  8
0
 10
61.93617338092416
 20
232.1734098370262
 30
0.0
 11
61.93617338092416
 21
232.2453922589012
 31
0.0
  0
LINE
  5
9E17
  8
0
 10
61.93617338092416
 20
232.2453922589012
 30
0.0
 11
62.05350736529907
 21
232.2453922589012
 31
0.0
  0
LINE
  5
9E18
  8
0
 10
62.05350736529907
 20
232.2453922589012
 30
0.0
 11
62.05350736529907
 21
232.1734098370262
 31
0.0
  0
LINE
  5
9E19
  8
0
 10
62.36841947467427
 20
232.1734098370262
 30
0.0
 11
62.36841947467427
 21
232.2453922589012
 31
0.0
  0
LINE
  5
9E1A
  8
0
 10
62.36841947467427
 20
232.2453922589012
 30
0.0
 11
62.48452299029894
 21
232.2453922589012
 31
0.0
  0
LINE
  5
9E1B
  8
0
 10
62.48452299029894
 20
232.2453922589012
 30
0.0
 11
62.48452299029894
 21
232.1734098370262
 31
0.0
  0
LINE
  5
9E1C
  8
0
 10
62.48452299029894
 20
232.1734098370262
 30
0.0
 11
62.36841947467427
 21
232.1734098370262
 31
0.0
  0
LINE
  5
9E1D
  8
0
 10
61.41313627154885
 20
231.6757731182761
 30
0.0
 11
61.42122220904911
 21
231.5329508526511
 31
0.0
  0
ARC
  5
9E1E
  8
0
 10
61.62534805820229
 20
233.9382194762463
 30
0.0
 40
2.272377029695415
 50
264.6414777738622
 51
266.9348152461827
  0
ARC
  5
9E1F
  8
0
 10
61.50617516799236
 20
231.6914482101349
 30
0.0
 40
0.022476476334337
 50
264.03501221812
 51
306.5640674473047
  0
ARC
  5
9E20
  8
0
 10
61.50748864665266
 20
231.6820186776557
 30
0.0
 40
0.014839073681366
 50
324.4701988857918
 51
4.421974038738584
  0
ARC
  5
9E21
  8
0
 10
61.0169249031613
 20
231.7229345267351
 30
0.0
 40
0.5069212474043316
 50
355.5000960438273
 51
0.8484748777902161
  0
ARC
  5
9E22
  8
0
 10
61.63483142898473
 20
234.0666512906457
 30
0.0
 40
2.542688893344043
 50
265.1809484774698
 51
267.5208014624529
  0
ARC
  5
9E23
  8
0
 10
61.53230738655245
 20
232.2737625251021
 30
0.0
 40
0.7474574208886295
 50
269.4278258300276
 51
274.7828769779775
  0
ARC
  5
9E24
  8
0
 10
61.5819396476144
 20
231.6700891849148
 30
0.0
 40
0.1417505388387061
 50
275.1365035074422
 51
297.894765149848
  0
ARC
  5
9E25
  8
0
 10
61.61221599954878
 20
231.6041999849199
 30
0.0
 40
0.0694715375261978
 50
301.2514755256504
 51
351.3397225057918
  0
ARC
  5
9E26
  8
0
 10
61.37097527988725
 20
231.6740098472645
 30
0.0
 40
0.3201466567477245
 50
345.4792488797654
 51
359.0668339659391
  0
ARC
  5
9E27
  8
0
 10
59.49868524004475
 20
231.7335856773052
 30
0.0
 40
2.193351363129598
 50
358.3072842196231
 51
0.2645405394391241
  0
ARC
  5
9E28
  8
0
 10
61.25337562182136
 20
232.8140877868166
 30
0.0
 40
1.226603834737866
 50
292.3622304129851
 51
309.4180965652807
  0
ARC
  5
9E29
  8
0
 10
61.17969760660829
 20
232.7535219276392
 30
0.0
 40
1.356716379153855
 50
297.0209406626466
 51
314.0515009572343
  0
ARC
  5
9E2A
  8
0
 10
63.25415937731833
 20
232.696683827276
 30
0.0
 40
1.324925264474462
 50
223.7097081622024
 51
240.3793491799922
  0
ARC
  5
9E2B
  8
0
 10
63.27545780459154
 20
232.9212162082155
 30
0.0
 40
1.377211017143197
 50
229.981595629291
 51
244.349432299083
  0
LINE
  5
9E2C
  8
0
 10
63.2396792402992
 20
232.704444993276
 30
0.0
 11
63.07558744342394
 21
232.7364371807762
 31
0.0
  0
LINE
  5
9E2D
  8
0
 10
62.80075345904923
 20
232.1520524151511
 30
0.0
 11
62.87018705279887
 21
231.9732828839006
 31
0.0
  0
LINE
  5
9E2E
  8
0
 10
62.96616361529912
 20
232.102657883901
 30
0.0
 11
62.96616361529912
 21
231.522316087026
 31
0.0
  0
LINE
  5
9E2F
  8
0
 10
62.96616361529912
 20
231.522316087026
 30
0.0
 11
63.14502103717403
 21
231.522316087026
 31
0.0
  0
LINE
  5
9E30
  8
0
 10
63.14502103717403
 20
231.522316087026
 30
0.0
 11
63.14502103717403
 21
232.3882145245262
 31
0.0
  0
LINE
  5
9E31
  8
0
 10
63.15829252154934
 20
232.2187613995257
 30
0.0
 11
63.29979642779925
 21
232.1107438214013
 31
0.0
  0
LINE
  5
9E32
  8
0
 10
63.50651517779941
 20
232.4736442120257
 30
0.0
 11
63.50651517779941
 21
231.522316087026
 31
0.0
  0
LINE
  5
9E33
  8
0
 10
63.50651517779941
 20
231.522316087026
 30
0.0
 11
63.68932767779914
 21
231.522316087026
 31
0.0
  0
LINE
  5
9E34
  8
0
 10
63.68932767779914
 20
231.522316087026
 30
0.0
 11
63.68932767779914
 21
231.783790696401
 31
0.0
  0
LINE
  5
9E35
  8
0
 10
63.68932767779914
 20
231.783790696401
 30
0.0
 11
64.02287259967441
 21
231.783790696401
 31
0.0
  0
LINE
  5
9E36
  8
0
 10
64.02287259967441
 20
231.783790696401
 30
0.0
 11
64.02287259967441
 21
231.9358414776507
 31
0.0
  0
LINE
  5
9E37
  8
0
 10
64.02287259967441
 20
231.9358414776507
 30
0.0
 11
63.68932767779914
 21
231.9358414776507
 31
0.0
  0
LINE
  5
9E38
  8
0
 10
63.68932767779914
 20
231.9358414776507
 30
0.0
 11
63.68932767779914
 21
232.133419602651
 31
0.0
  0
LINE
  5
9E39
  8
0
 10
63.68932767779914
 20
232.133419602651
 30
0.0
 11
64.02287259967441
 21
232.133419602651
 31
0.0
  0
LINE
  5
9E3A
  8
0
 10
64.02287259967441
 20
232.133419602651
 30
0.0
 11
64.02287259967441
 21
232.280109055776
 31
0.0
  0
LINE
  5
9E3B
  8
0
 10
64.02287259967441
 20
232.280109055776
 30
0.0
 11
63.68932767779914
 21
232.280109055776
 31
0.0
  0
LINE
  5
9E3C
  8
0
 10
63.68932767779914
 20
232.280109055776
 30
0.0
 11
63.68932767779914
 21
232.4736442120257
 31
0.0
  0
LINE
  5
9E3D
  8
0
 10
63.68932767779914
 20
232.4736442120257
 30
0.0
 11
64.06295072467445
 21
232.4736442120257
 31
0.0
  0
LINE
  5
9E3E
  8
0
 10
64.06295072467445
 20
232.4736442120257
 30
0.0
 11
64.06295072467445
 21
232.6203336651507
 31
0.0
  0
LINE
  5
9E3F
  8
0
 10
64.06295072467445
 20
232.6203336651507
 30
0.0
 11
63.54527494342436
 21
232.6203336651507
 31
0.0
  0
LINE
  5
9E40
  8
0
 10
63.57603666217436
 20
232.7164860089006
 30
0.0
 11
63.40649564654903
 21
232.7511149151506
 31
0.0
  0
ARC
  5
9E41
  8
0
 10
61.59771796885548
 20
233.0423267562426
 30
0.0
 40
1.509194028694409
 50
335.5457096686311
 51
348.3060403035889
  0
ARC
  5
9E42
  8
0
 10
61.88908662909933
 20
232.926080038264
 30
0.0
 40
1.195932761560066
 50
319.6679218269052
 51
334.8367065032426
  0
ARC
  5
9E43
  8
0
 10
62.10095537483906
 20
232.6442232339848
 30
0.0
 40
1.020724413232922
 50
318.9043658670693
 51
327.9560510819899
  0
ARC
  5
9E44
  8
0
 10
61.96384317999522
 20
232.9140623866297
 30
0.0
 40
1.292941260989209
 50
336.0018785125658
 51
350.6697714262836
  0
ARC
  5
9E45
  8
0
 10
61.43628063739276
 20
233.3456653115981
 30
0.0
 40
2.057969231116068
 50
326.7988139724891
 51
343.207798180194
  0
ARC
  5
9E46
  8
0
 10
61.22811004577792
 20
233.4228714890165
 30
0.0
 40
2.452256813952018
 50
327.6513795623706
 51
337.2268745923164
  0
LINE
  5
9E47
  8
0
 10
63.48920072467398
 20
232.4736442120257
 30
0.0
 11
63.50651517779941
 21
232.4736442120257
 31
0.0
  0
LINE
  5
9E48
  8
0
 10
63.57603666217436
 20
232.7164860089006
 30
0.0
 11
63.56089993221396
 21
232.6679075123134
 31
0.0
  0
LINE
  5
9E49
  8
0
 10
63.56089993221396
 20
232.6679075123134
 30
0.0
 11
63.54527494342436
 21
232.6203336651507
 31
0.0
  0
VIEWPORT
  5
22
 67
     1
  8
0
 10
5.269134197284911
 20
5.545311567251436
 30
0.0
 40
11.13808705479925
 41
12.32365374410561
 68
     1
 69
     1
1001
GENIUS_GENSCREG_15
1000
PF
1040
1.0
1000
DF
1040
1.0
1000
MIN
1011
-0.2999093301147138
1021
-0.6165153048013714
1031
0.0
1021
-0.6165153048013714
1031
0.0
1000
MAX
1011
10.83817772468454
1021
11.70713843930424
1031
0.0
1021
11.70713843930424
1031
0.0
1000
FLAGS
1070
     4
1001
GENIUS_GENODEF_13
1002
{
1000
HIER
1070
     0
1002
}
1002
{
1000
MANEDIT
1070
     0
1002
}
1002
{
1000
NOSEL
1070
     0
1002
}
1002
{
1000
BEHIND
1070
     0
1002
}
1002
{
1000
OTHER
1070
     0
1002
}
1002
{
1000
REACTOR
1002
}
1001
GENIUS_GENOBJ-N-SDF_13
1002
{
1000
OWNER
1000
GEN
1002
}
1001
ACAD
1000
MVIEW
1002
{
1070
    16
1010
0.0
1020
0.0
1030
0.0
1020
0.0
1030
0.0
1010
0.0
1020
0.0
1030
1.0
1020
0.0
1030
1.0
1040
0.0
1040
12.32365374410561
1040
5.269134197284911
1040
5.545311567251436
1040
50.0
1040
0.0
1040
0.0
1070
     0
1070
   100
1070
     0
1070
     1
1070
     0
1070
     0
1070
     0
1070
     0
1040
0.0
1040
0.0
1040
0.0
1040
1.0
1040
1.0
1040
10.0
1040
10.0
1070
     0
1002
{
1002
}
1002
}
  0
ENDSEC
  0
EOF
