  0
SECTION
  2
HEADER
  9
$ACADVER
  1
AC1009
  9
$DWGCODEPAGE
  3
ansi_932
  9
$INSBASE
 10
0.0
 20
0.0
 30
0.0
  9
$EXTMIN
 10
0.0000019319777493
 20
0.0000066982815952
 30
0.0
  9
$EXTMAX
 10
229.3158562747082
 20
294.6851378947829
 30
0.0
  9
$LIMMIN
 10
0.0
 20
0.0
  9
$LIMMAX
 10
420.0
 20
420.0
  9
$ORTHOMODE
 70
     0
  9
$REGENMODE
 70
     1
  9
$FILLMODE
 70
     1
  9
$QTEXTMODE
 70
     0
  9
$MIRRTEXT
 70
     0
  9
$DRAGMODE
 70
     2
  9
$LTSCALE
 40
10.0
  9
$OSMODE
 70
   549
  9
$ATTMODE
 70
     1
  9
$TEXTSIZE
 40
1.0
  9
$TRACEWID
 40
1.0
  9
$TEXTSTYLE
  7
STANDARD
  9
$CLAYER
  8
0
  9
$CELTYPE
  6
BYLAYER
  9
$CECOLOR
 62
   256
  9
$DIMSCALE
 40
1.0
  9
$DIMASZ
 40
2.5
  9
$DIMEXO
 40
1.0
  9
$DIMDLI
 40
7.0
  9
$DIMRND
 40
0.0
  9
$DIMDLE
 40
0.0
  9
$DIMEXE
 40
1.0
  9
$DIMTP
 40
0.1
  9
$DIMTM
 40
0.1
  9
$DIMTXT
 40
3.0
  9
$DIMCEN
 40
0.0
  9
$DIMTSZ
 40
0.0
  9
$DIMTOL
 70
     0
  9
$DIMLIM
 70
     0
  9
$DIMTIH
 70
     0
  9
$DIMTOH
 70
     0
  9
$DIMSE1
 70
     0
  9
$DIMSE2
 70
     0
  9
$DIMTAD
 70
     3
  9
$DIMZIN
 70
     8
  9
$DIMBLK
  1
OPEN
  9
$DIMASO
 70
     1
  9
$DIMSHO
 70
     1
  9
$DIMPOST
  1

  9
$DIMAPOST
  1
"
  9
$DIMALT
 70
     0
  9
$DIMALTD
 70
     2
  9
$DIMALTF
 40
0.0393701
  9
$DIMLFAC
 40
1.0
  9
$DIMTOFL
 70
     1
  9
$DIMTVP
 40
0.0
  9
$DIMTIX
 70
     0
  9
$DIMSOXD
 70
     0
  9
$DIMSAH
 70
     0
  9
$DIMBLK1
  1

  9
$DIMBLK2
  1

  9
$DIMSTYLE
  2
AM_JIS
  9
$DIMCLRD
 70
   256
  9
$DIMCLRE
 70
   256
  9
$DIMCLRT
 70
     2
  9
$DIMTFAC
 40
0.71
  9
$DIMGAP
 40
1.0
  9
$LUNITS
 70
     2
  9
$LUPREC
 70
     2
  9
$SKETCHINC
 40
1.0
  9
$FILLETRAD
 40
2.5
  9
$AUNITS
 70
     0
  9
$AUPREC
 70
     0
  9
$MENU
  1
.
  9
$ELEVATION
 40
0.0
  9
$PELEVATION
 40
0.0
  9
$THICKNESS
 40
0.0
  9
$LIMCHECK
 70
     0
  9
$CHAMFERA
 40
2.5
  9
$CHAMFERB
 40
2.5
  9
$SKPOLY
 70
     1
  9
$TDCREATE
 40
2457177.655267963
  9
$TDUPDATE
 40
2460346.655513414
  9
$TDINDWG
 40
0.0067639583
  9
$TDUSRTIMER
 40
0.0067587153
  9
$USRTIMER
 70
     1
  9
$ANGBASE
 50
0.0
  9
$ANGDIR
 70
     0
  9
$PDMODE
 70
     0
  9
$PDSIZE
 40
0.0
  9
$PLINEWID
 40
0.0
  9
$COORDS
 70
     0
  9
$SPLFRAME
 70
     0
  9
$SPLINETYPE
 70
     6
  9
$SPLINESEGS
 70
     8
  9
$ATTDIA
 70
     1
  9
$ATTREQ
 70
     1
  9
$HANDLING
 70
     1
  9
$HANDSEED
  5
A882
  9
$SURFTAB1
 70
     6
  9
$SURFTAB2
 70
     6
  9
$SURFTYPE
 70
     6
  9
$SURFU
 70
     6
  9
$SURFV
 70
     6
  9
$UCSNAME
  2

  9
$UCSORG
 10
0.0
 20
0.0
 30
0.0
  9
$UCSXDIR
 10
1.0
 20
0.0
 30
0.0
  9
$UCSYDIR
 10
0.0
 20
1.0
 30
0.0
  9
$PUCSNAME
  2

  9
$PUCSORG
 10
0.0
 20
0.0
 30
0.0
  9
$PUCSXDIR
 10
1.0
 20
0.0
 30
0.0
  9
$PUCSYDIR
 10
0.0
 20
1.0
 30
0.0
  9
$USERI1
 70
     0
  9
$USERI2
 70
     0
  9
$USERI3
 70
     0
  9
$USERI4
 70
     0
  9
$USERI5
 70
     0
  9
$USERR1
 40
0.0
  9
$USERR2
 40
0.0
  9
$USERR3
 40
0.0
  9
$USERR4
 40
0.0
  9
$USERR5
 40
0.0
  9
$WORLDVIEW
 70
     1
  9
$SHADEDGE
 70
     3
  9
$SHADEDIF
 70
    70
  9
$TILEMODE
 70
     1
  9
$MAXACTVP
 70
    48
  9
$PLIMCHECK
 70
     0
  9
$PEXTMIN
 10
1.000000000000000E+20
 20
1.000000000000000E+20
 30
1.000000000000000E+20
  9
$PEXTMAX
 10
-1.000000000000000E+20
 20
-1.000000000000000E+20
 30
-1.000000000000000E+20
  9
$PLIMMIN
 10
-0.2500002402958907
 20
-0.2499999962453767
  9
$PLIMMAX
 10
10.74999951940822
 20
8.249999763458732
  9
$UNITMODE
 70
     0
  9
$VISRETAIN
 70
     1
  9
$PLINEGEN
 70
     0
  9
$PSLTSCALE
 70
     1
  0
ENDSEC
  0
SECTION
  2
TABLES
  0
TABLE
  2
VPORT
 70
     1
  0
VPORT
  2
*ACTIVE
 70
     0
 10
0.0
 20
0.0
 11
1.0
 21
1.0
 12
210.0000000000001
 22
210.0
 13
0.0
 23
0.0
 14
2.5
 24
2.5
 15
10.0
 25
10.0
 16
0.0
 26
0.0
 36
1.0
 17
0.0
 27
0.0
 37
0.0
 40
423.258971871969
 41
2.05293551491819
 42
50.0
 43
0.0
 44
0.0
 50
0.0
 51
0.0
 71
     0
 72
   100
 73
     1
 74
     3
 75
     0
 76
     0
 77
     0
 78
     0
  0
ENDTAB
  0
TABLE
  2
LTYPE
 70
    22
  0
LTYPE
  2
CONTINUOUS
 70
     0
  3
Solid line
 72
    65
 73
     0
 40
0.0
  0
LTYPE
  2
HIDDEN
 70
     0
  3
__ __ __ __ __ __ __ __ __ __ __ __ __ __ __ __
 72
    65
 73
     2
 40
0.375
 49
0.25
 49
-0.125
  0
LTYPE
  2
PHANTOM2
 70
     0
  3
___ _ _ ___ _ _ ___ _ _ ___ _ _ ___ _ _ ___ _ _
 72
    65
 73
     6
 40
1.25
 49
0.625
 49
-0.125
 49
0.125
 49
-0.125
 49
0.125
 49
-0.125
  0
LTYPE
  2
CENTER
 70
     0
  3
____ _ ____ _ ____ _ ____ _ ____ _ ____ _ ____ 
 72
    65
 73
     4
 40
2.0
 49
1.25
 49
-0.25
 49
0.25
 49
-0.25
  0
LTYPE
  2
ACJISTGB
 70
     0
  3
__ . . __ . .
 72
    65
 73
     6
 40
9.0
 49
4.0
 49
-1.0
 49
1.0
 49
-1.0
 49
1.0
 49
-1.0
  0
LTYPE
  2
ACJISTGL
 70
     0
  3
_ _ _ _ _
 72
    65
 73
     2
 40
3.0
 49
2.0
 49
-1.0
  0
LTYPE
  2
ACANSTGB
 70
     0
  3
__ . . __ . .
 72
    65
 73
     6
 40
0.35433070866
 49
0.15748031496
 49
-0.03937007874
 49
0.03937007874
 49
-0.03937007874
 49
0.03937007874
 49
-0.03937007874
  0
LTYPE
  2
ACANSTGL
 70
     0
  3
_ _ _ _ _
 72
    65
 73
     2
 40
0.11811023622
 49
0.07874015748
 49
-0.03937007874
  0
LTYPE
  2
ACISOWELD
 70
     0
  3
_ _ _ _ _
 72
    65
 73
     2
 40
2.0
 49
2.0
 49
-1.0
  0
LTYPE
  2
ACISOTGB
 70
     0
  3
__ . . __ . .
 72
    65
 73
     6
 40
9.0
 49
4.0
 49
-1.0
 49
1.0
 49
-1.0
 49
1.0
 49
-1.0
  0
LTYPE
  2
ACISOTGL
 70
     0
  3
_ _ _ _ _
 72
    65
 73
     2
 40
3.0
 49
2.0
 49
-1.0
  0
LTYPE
  2
AM_ISO02W050
 70
     0
  3
__ __ __ __ __ __ __ __ __ __ __ __ __ __ __
 72
    65
 73
     2
 40
7.5
 49
6.0
 49
-1.5
  0
LTYPE
  2
AM_ISO08W050
 70
     0
  3
____ . ____ . ____ . ____ . ____ . ____ . ____
 72
    65
 73
     4
 40
18.0
 49
12.0
 49
-1.5
 49
3.0
 49
-1.5
  0
LTYPE
  2
AM_ISO09W050
 70
     0
  3
_____ . . _____ . . _____ . . ____ .. ____
 72
    65
 73
     6
 40
22.5
 49
12.0
 49
-1.5
 49
3.0
 49
-1.5
 49
3.0
 49
-1.5
  0
LTYPE
  2
AM_ISO02W050X2
 70
     0
  3
 _ _ _ _ _ _ _ _ _ _ _ _
 72
    65
 73
     2
 40
3.75
 49
3.0
 49
-0.75
  0
LTYPE
  2
AM_ISO08W050X2
 70
     0
  3
__ . __ . __ . __ . __ . __
 72
    65
 73
     4
 40
9.0
 49
6.0
 49
-0.75
 49
1.5
 49
-0.75
  0
LTYPE
  2
AMZIGZAG
 70
     0
  3
/\/-/\/-/\/-/\/-/\/-/\/
 72
    65
 73
     2
 40
11.0001
 49
0.0001
 49
-11.0
  0
LTYPE
  2
AMCONSTR
 70
     0
  3
_______________________
 72
    65
 73
     2
 40
9999.0
 49
9999.0
 49
0.0
  0
LTYPE
  2
CENTER2
 70
     0
  3
Center (.5x) ___ _ ___ _ ___ _ ___ _ ___ _ ___
 72
    65
 73
     4
 40
1.125
 49
0.75
 49
-0.125
 49
0.125
 49
-0.125
  0
LTYPE
  2
HIDDEN2
 70
     0
  3
Hidden (.5x) _ _ _ _ _ _ _ _ _ _ _ _ _ _ _ _ _
 72
    65
 73
     2
 40
0.1875
 49
0.125
 49
-0.0625
  0
LTYPE
  2
AMZIGZAG2
 70
     0
  3
/\/-/\/-/\/-/\/-/\/-/\/
 72
    65
 73
     2
 40
0.4401
 49
0.0001
 49
-0.44
  0
LTYPE
  2
ACJISWELD
 70
     0
  3
_ _ _ _ _
 72
    65
 73
     2
 40
2.0
 49
2.0
 49
-1.0
  0
ENDTAB
  0
TABLE
  2
LAYER
 70
     5
  0
LAYER
  2
0
 70
     0
 62
     7
  6
CONTINUOUS
  0
LAYER
  2
7
 70
     0
 62
     4
  6
CENTER2
  0
LAYER
  2
10
 70
     0
 62
     2
  6
CONTINUOUS
  0
LAYER
  2
DEFPOINTS
 70
     0
 62
     7
  6
CONTINUOUS
  0
LAYER
  2
AM_0
 70
     0
 62
     7
  6
CONTINUOUS
  0
ENDTAB
  0
TABLE
  2
STYLE
 70
     7
  0
STYLE
  2
STANDARD
 70
     0
 40
0.0
 41
1.0
 50
0.0
 71
     0
 42
1.0
  3
ISOCP.SHX
  4
EXTFONT.SHX
  0
STYLE
  2
ACJISTS
 70
     0
 40
1.0
 41
1.0
 50
0.0
 71
     0
 42
3.5
  3
isocp.shx
  4
extfont.shx
  0
STYLE
  2
ACJISGDT
 70
     0
 40
0.0
 41
1.0
 50
0.0
 71
     0
 42
3.5
  3
amgdt.shx
  4
extfont.shx
  0
STYLE
  2
ACANSGDT
 70
     0
 40
0.0
 41
1.0
 50
0.0
 71
     0
 42
3.5
  3
amgdt.shx
  4
extfont.shx
  0
STYLE
  2
ACISOTS
 70
     0
 40
1.0
 41
1.0
 50
0.0
 71
     0
 42
1.0
  3
isocp.shx
  4
extfont.shx
  0
STYLE
  2
ACISOGDT
 70
     0
 40
0.0
 41
1.0
 50
0.0
 71
     0
 42
3.5
  3
amgdt.shx
  4
extfont.shx
  0
STYLE
  2

 70
     1
 40
0.0
 41
1.0
 50
0.0
 71
     0
 42
3.5
  3
ltypeshp.shx
  4

  0
ENDTAB
  0
TABLE
  2
VIEW
 70
     3
  0
VIEW
  2
AMDTVIEW1
 70
     0
 40
329.0721649484536
 10
210.0
 20
164.5360824742268
 41
420.0
 11
0.0
 21
0.0
 31
1.0
 12
0.0
 22
0.0
 32
0.0
 42
50.0
 43
0.0
 44
0.0
 50
0.0
 71
     0
  0
VIEW
  2
AMDTVIEW2
 70
     0
 40
329.0721649484536
 10
210.0
 20
164.5360824742268
 41
420.0
 11
0.0
 21
0.0
 31
1.0
 12
0.0
 22
0.0
 32
0.0
 42
50.0
 43
0.0
 44
0.0
 50
0.0
 71
     0
  0
VIEW
  2
AMDTVIEW3
 70
     0
 40
329.0721649484536
 10
210.0
 20
164.5360824742268
 41
420.0
 11
0.0
 21
0.0
 31
1.0
 12
0.0
 22
0.0
 32
0.0
 42
50.0
 43
0.0
 44
0.0
 50
0.0
 71
     0
  0
ENDTAB
  0
TABLE
  2
UCS
 70
     0
  0
ENDTAB
  0
TABLE
  2
APPID
 70
    67
  0
APPID
  2
ACAD
 70
     0
  0
APPID
  2
AD_DRAW
 70
     0
  0
APPID
  2
DESIGNERASSEMBLIES
 70
     0
  0
APPID
  2
MCAD_NO_VIS
 70
     0
  0
APPID
  2
ASURF_PCURVE_APPNAME
 70
     0
  0
APPID
  2
ACAD_TEMP_GRAPHIC
 70
     0
  0
APPID
  2
ACATTRIBSERVICES
 70
     0
  0
APPID
  2
ACADM_DIM_EDIT
 70
     0
  0
APPID
  2
GENIUS_GENDIM_13
 70
     0
  0
APPID
  2
GENIUS_GENDTOL_13
 70
     0
  0
APPID
  2
GENIUS_GE3DTOL_13
 70
     0
  0
APPID
  2
AMG_3D2D_5_0
 70
     0
  0
APPID
  2
AMDT_DM_ADJ
 70
     0
  0
APPID
  2
ACAD_PSEXT
 70
     0
  0
APPID
  2
ACAD_DSTYLE_DIMTEXT_FILL
 70
     0
  0
APPID
  2
ACAECLAYERSTANDARD
 70
     0
  0
APPID
  2
GENIUS_GENREC_14
 70
     0
  0
APPID
  2
GENIUS_GENODEF_13
 70
     0
  0
APPID
  2
GENIUS_GENOBJ-N-REC_13
 70
     0
  0
APPID
  2
DCO15
 70
     0
  0
APPID
  2
ACAD_DSTYLE_DIMJAG
 70
     0
  0
APPID
  2
ACAD_DSTYLE_DIMTALN
 70
     0
  0
APPID
  2
ACAD_MLEADERVER
 70
     0
  0
APPID
  2
GENIUS_GENSCREG_15
 70
     0
  0
APPID
  2
GENIUS_GENOBJ-N-SDF_13
 70
     0
  0
APPID
  2
ACAD_NAV_VCDISPLAY
 70
     0
  0
APPID
  2
ACAD_EXEMPT_FROM_CAD_STAND
 70
     0
  0
APPID
  2
ACCMTRANSPARENCY
 70
     0
  0
APPID
  2
GENIUS_GENOBJ-N-CEN_13
 70
     0
  0
APPID
  2
GENIUS_GENOBJ-N-FIL_13
 70
     0
  0
APPID
  2
GENIUS_GENCEN_19
 70
     0
  0
APPID
  2
ACAD_DSTYLE_DIMBREAK
 70
     0
  0
APPID
  2
PLOTTRANSPARENCY
 70
     0
  0
APPID
  2
ACAD_SPLINE_DATA
 70
     0
  0
APPID
  2
ACAD_SPLINE_DATA2
 70
     0
  0
APPID
  2
HC_SUPERPART
 70
     0
  0
APPID
  2
HC_SP4BLOCK
 70
     0
  0
APPID
  2
HC_XDATA_SPRING
 70
     0
  0
APPID
  2
HCCAD_FRAME
 70
     0
  0
APPID
  2
GENIUS_GENOLIS_13
 70
     0
  0
APPID
  2
GENIUS_GENOENT_13
 70
     0
  0
APPID
  2
GENIUS_GENOREF_13
 70
     0
  0
APPID
  2
GENIUS_GENOBJ-N-TIT_13
 70
     0
  0
APPID
  2
GENIUS_GENOBJ-N-ZOO_13
 70
     0
  0
APPID
  2
GENIUS_GENTITLE_13
 70
     0
  0
APPID
  2
GENIUS_GENSYMENT_13
 70
     0
  0
APPID
  2
GENIUS_GENSCSYM_13
 70
     0
  0
APPID
  2
GENIUS_GENOBJ-N-REV_13
 70
     0
  0
APPID
  2
GENIUS_GENOBJ-N-RSSYM_13
 70
     0
  0
APPID
  2
GENIUS_GENREV_15
 70
     0
  0
APPID
  2
HRA
 70
     0
  0
APPID
  2
HTIT
 70
     0
  0
APPID
  2
GENIUS_GENZOO_17
 70
     0
  0
APPID
  2
GENIUS_GENOBJ-N-CRS_13
 70
     0
  0
APPID
  2
GENIUS_GENCRS_20
 70
     0
  0
APPID
  2
GENIUS_GENOBJ-N-CRC_13
 70
     0
  0
APPID
  2
GENIUS_GENCRC_14
 70
     0
  0
APPID
  2
GENIUS_GENFIL_13
 70
     0
  0
APPID
  2
GENIUS_GENOBJ-N-CHA_13
 70
     0
  0
APPID
  2
GENIUS_GENHATCH_13
 70
     0
  0
APPID
  2
GENIUS_GENOBJ-N-HTC_13
 70
     0
  0
APPID
  2
GENIUS_GENOBJ-N-DIM_13
 70
     0
  0
APPID
  2
GENIUS_GENOBJ-N-DIMLI_13
 70
     0
  0
APPID
  2
GENIUS_GENOBJ-N-FITL_13
 70
     0
  0
APPID
  2
GENIUS_GENFITL_13
 70
     0
  0
APPID
  2
GENLAYCOLOR
 70
     0
  0
APPID
  2
ACADANNOTATIVE
 70
     0
  0
ENDTAB
  0
TABLE
  2
DIMSTYLE
 70
    23
  0
DIMSTYLE
  2
STANDARD
 70
     0
  3

  4

  5

  6

  7

 40
1.0
 41
2.5
 42
0.625
 43
3.75
 44
1.25
 45
0.0
 46
0.0
 47
0.0
 48
0.0
140
2.5
141
2.5
142
0.0
143
0.0394
144
1.0
145
0.0
146
1.0
147
0.625
 71
     0
 72
     0
 73
     0
 74
     0
 75
     0
 76
     0
 77
     1
 78
     8
170
     0
171
     4
172
     1
173
     0
174
     0
175
     0
176
     0
177
     0
178
     0
  0
DIMSTYLE
  2
AM_JIS
 70
     0
  3

  4
"
  5
OPEN
  6

  7

 40
1.0
 41
2.5
 42
1.0
 43
7.0
 44
1.0
 45
0.0
 46
0.0
 47
0.1
 48
0.1
140
3.0
141
0.0
142
0.0
143
0.0393701
144
1.0
145
0.0
146
0.71
147
1.0
 71
     0
 72
     0
 73
     0
 74
     0
 75
     0
 76
     0
 77
     3
 78
     8
170
     0
171
     2
172
     1
173
     0
174
     0
175
     0
176
   256
177
   256
178
     2
  0
DIMSTYLE
  2
AM_JIS$3
 70
     0
  3

  4
"
  5
OPEN
  6

  7

 40
1.0
 41
2.5
 42
1.0
 43
10.0
 44
1.0
 45
0.0
 46
0.0
 47
0.1
 48
0.1
140
3.0
141
0.0
142
0.0
143
0.0393701
144
1.0
145
0.0
146
0.71
147
1.0
 71
     0
 72
     0
 73
     0
 74
     0
 75
     0
 76
     0
 77
     3
 78
     8
170
     0
171
     2
172
     1
173
     0
174
     0
175
     0
176
   256
177
   256
178
     2
  0
DIMSTYLE
  2
AM_JIS$4
 70
     0
  3

  4
"
  5

  6
OPEN30
  7
OPEN
 40
1.0
 41
2.5
 42
1.0
 43
10.0
 44
1.0
 45
0.0
 46
0.0
 47
0.1
 48
0.1
140
3.0
141
0.0
142
0.0
143
0.0393701
144
1.0
145
0.0
146
0.71
147
1.0
 71
     0
 72
     0
 73
     0
 74
     0
 75
     0
 76
     0
 77
     3
 78
     8
170
     0
171
     2
172
     1
173
     1
174
     0
175
     0
176
   256
177
   256
178
     2
  0
DIMSTYLE
  2
AM_JIS$6
 70
     0
  3

  4
"
  5
OPEN30
  6
OPEN30
  7
OPEN30
 40
1.0
 41
2.5
 42
1.0
 43
10.0
 44
1.0
 45
0.0
 46
0.0
 47
0.1
 48
0.1
140
3.5
141
0.0
142
0.0
143
0.0393701
144
1.0
145
0.0
146
0.71
147
1.5
 71
     0
 72
     0
 73
     0
 74
     0
 75
     0
 76
     0
 77
     0
 78
     8
170
     0
171
     2
172
     1
173
     0
174
     0
175
     0
176
   256
177
   256
178
     2
  0
DIMSTYLE
  2
AM_JIS$7
 70
     0
  3

  4
"
  5
OPEN30
  6

  7

 40
1.0
 41
2.5
 42
1.0
 43
10.0
 44
1.0
 45
0.0
 46
0.0
 47
0.1
 48
0.1
140
3.0
141
0.0
142
0.0
143
0.0393701
144
1.0
145
0.0
146
0.71
147
1.0
 71
     0
 72
     0
 73
     0
 74
     0
 75
     0
 76
     0
 77
     3
 78
     8
170
     0
171
     2
172
     1
173
     0
174
     0
175
     0
176
   256
177
   256
178
     2
  0
DIMSTYLE
  2
AM_JIS$SF
 70
     0
  3

  4
"
  5
OPEN
  6

  7

 40
1.0
 41
2.5
 42
1.0
 43
7.0
 44
1.0
 45
0.0
 46
0.0
 47
0.1
 48
0.1
140
3.5
141
0.0
142
0.0
143
0.0393701
144
1.0
145
0.0
146
0.71
147
1.5
 71
     0
 72
     0
 73
     0
 74
     0
 75
     1
 76
     1
 77
     3
 78
     8
170
     0
171
     2
172
     1
173
     0
174
     0
175
     0
176
   256
177
   256
178
     2
  0
DIMSTYLE
  2
AM_JIS$SH
 70
     0
  3

  4
"
  5

  6
GENAXEH
  7
OPEN
 40
1.0
 41
2.5
 42
1.0
 43
7.0
 44
1.0
 45
0.0
 46
0.0
 47
0.1
 48
0.1
140
3.5
141
0.0
142
0.0
143
0.0393701
144
2.0
145
0.0
146
0.71
147
1.5
 71
     0
 72
     0
 73
     0
 74
     0
 75
     1
 76
     1
 77
     3
 78
     8
170
     0
171
     2
172
     1
173
     1
174
     0
175
     0
176
   256
177
   256
178
     2
  0
DIMSTYLE
  2
AM_ANSI
 70
     0
  3

  4
mm
  5

  6

  7

 40
1.0
 41
0.1
 42
0.05
 43
0.5
 44
0.1
 45
0.0
 46
0.0
 47
0.1
 48
0.1
140
0.12
141
0.0
142
0.0
143
25.4
144
1.0
145
0.0
146
0.71
147
0.06
 71
     0
 72
     0
 73
     1
 74
     1
 75
     0
 76
     0
 77
     0
 78
     7
170
     0
171
     2
172
     0
173
     0
174
     0
175
     0
176
   256
177
   256
178
     2
  0
DIMSTYLE
  2
AM_ANSI$3
 70
     0
  3

  4
mm
  5

  6

  7

 40
1.0
 41
0.1
 42
0.05
 43
0.5
 44
0.1
 45
0.0
 46
0.0
 47
0.1
 48
0.1
140
0.12
141
0.0
142
0.0
143
25.4
144
1.0
145
0.0
146
0.71
147
0.06
 71
     0
 72
     0
 73
     1
 74
     1
 75
     0
 76
     0
 77
     0
 78
     7
170
     0
171
     2
172
     0
173
     0
174
     0
175
     0
176
   256
177
   256
178
     2
  0
DIMSTYLE
  2
AM_ANSI$4
 70
     0
  3

  4
mm
  5

  6

  7

 40
1.0
 41
0.1
 42
0.05
 43
0.5
 44
0.1
 45
0.0
 46
0.0
 47
0.1
 48
0.1
140
0.12
141
0.0
142
0.0
143
25.4
144
1.0
145
0.0
146
0.71
147
0.06
 71
     0
 72
     0
 73
     1
 74
     1
 75
     0
 76
     0
 77
     0
 78
     7
170
     0
171
     2
172
     0
173
     0
174
     0
175
     0
176
   256
177
   256
178
     2
  0
DIMSTYLE
  2
AM_ANSI$7
 70
     0
  3

  4
mm
  5

  6

  7

 40
1.0
 41
0.1
 42
0.05
 43
0.5
 44
0.1
 45
0.0
 46
0.0
 47
0.1
 48
0.1
140
0.24
141
0.0
142
0.0
143
25.4
144
1.0
145
0.0
146
0.71
147
0.06
 71
     0
 72
     0
 73
     1
 74
     1
 75
     0
 76
     0
 77
     0
 78
     7
170
     0
171
     2
172
     0
173
     0
174
     0
175
     0
176
   256
177
   256
178
     2
  0
DIMSTYLE
  2
AM_ANSI$SF
 70
     0
  3

  4
mm
  5

  6

  7

 40
1.0
 41
0.1
 42
0.05
 43
0.5
 44
0.1
 45
0.0
 46
0.0
 47
0.1
 48
0.1
140
0.12
141
0.0
142
0.0
143
25.4
144
1.0
145
0.0
146
0.71
147
0.06
 71
     0
 72
     0
 73
     1
 74
     1
 75
     1
 76
     1
 77
     0
 78
     7
170
     0
171
     2
172
     0
173
     0
174
     0
175
     0
176
   256
177
   256
178
     2
  0
DIMSTYLE
  2
AM_ANSI$SH
 70
     0
  3

  4
mm
  5

  6
GENAXEH
  7

 40
1.0
 41
0.1
 42
0.05
 43
0.5
 44
0.1
 45
0.0
 46
0.0
 47
0.1
 48
0.1
140
0.12
141
0.0
142
0.0
143
25.4
144
1.0
145
0.0
146
0.71
147
0.06
 71
     0
 72
     0
 73
     1
 74
     1
 75
     1
 76
     1
 77
     0
 78
     7
170
     0
171
     2
172
     0
173
     1
174
     0
175
     0
176
   256
177
   256
178
     2
  0
DIMSTYLE
  2
AM_ISO
 70
     0
  3

  4
"
  5

  6

  7

 40
1.0
 41
2.5
 42
1.0
 43
10.0
 44
1.0
 45
0.0
 46
0.0
 47
0.1
 48
0.1
140
3.5
141
0.0
142
0.0
143
0.0393701
144
1.0
145
0.0
146
0.71
147
1.5
 71
     0
 72
     0
 73
     0
 74
     0
 75
     0
 76
     0
 77
     1
 78
     8
170
     0
171
     2
172
     1
173
     0
174
     0
175
     0
176
   256
177
   256
178
     2
  0
DIMSTYLE
  2
AM_ISO$3
 70
     0
  3

  4
"
  5

  6

  7

 40
1.0
 41
2.5
 42
1.0
 43
10.0
 44
1.0
 45
0.0
 46
0.0
 47
0.1
 48
0.1
140
3.5
141
0.0
142
0.0
143
0.0393701
144
1.0
145
0.0
146
0.71
147
1.5
 71
     0
 72
     0
 73
     0
 74
     1
 75
     0
 76
     0
 77
     1
 78
     8
170
     0
171
     2
172
     0
173
     0
174
     0
175
     0
176
   256
177
   256
178
     2
  0
DIMSTYLE
  2
AM_ISO$4
 70
     0
  3

  4
"
  5

  6

  7

 40
1.0
 41
2.5
 42
1.0
 43
10.0
 44
1.0
 45
0.0
 46
0.0
 47
0.1
 48
0.1
140
3.5
141
0.0
142
0.0
143
0.0393701
144
1.0
145
0.0
146
0.71
147
1.5
 71
     0
 72
     0
 73
     0
 74
     1
 75
     0
 76
     0
 77
     1
 78
     8
170
     0
171
     2
172
     0
173
     0
174
     0
175
     0
176
   256
177
   256
178
     2
  0
DIMSTYLE
  2
AM_ISO$6
 70
     0
  3

  4
"
  5

  6

  7

 40
1.0
 41
2.5
 42
1.0
 43
10.0
 44
1.0
 45
0.0
 46
0.0
 47
0.1
 48
0.1
140
3.5
141
0.0
142
0.0
143
0.0393701
144
1.0
145
0.0
146
0.71
147
1.5
 71
     0
 72
     0
 73
     0
 74
     0
 75
     0
 76
     0
 77
     0
 78
     8
170
     0
171
     2
172
     1
173
     0
174
     0
175
     0
176
   256
177
   256
178
     2
  0
DIMSTYLE
  2
AM_ISO$7
 70
     0
  3

  4
"
  5

  6

  7

 40
1.0
 41
2.5
 42
1.0
 43
10.0
 44
1.0
 45
0.0
 46
0.0
 47
0.1
 48
0.1
140
5.0
141
0.0
142
0.0
143
0.0393701
144
1.0
145
0.0
146
0.71
147
1.5
 71
     0
 72
     0
 73
     0
 74
     0
 75
     0
 76
     0
 77
     1
 78
     8
170
     0
171
     2
172
     1
173
     0
174
     0
175
     0
176
   256
177
   256
178
     2
  0
DIMSTYLE
  2
AM_ISO$SF
 70
     0
  3

  4
"
  5

  6

  7

 40
1.0
 41
2.5
 42
1.0
 43
10.0
 44
1.0
 45
0.0
 46
0.0
 47
0.1
 48
0.1
140
3.5
141
0.0
142
0.0
143
0.0393701
144
1.0
145
0.0
146
0.71
147
1.5
 71
     0
 72
     0
 73
     0
 74
     0
 75
     1
 76
     1
 77
     1
 78
     8
170
     0
171
     2
172
     1
173
     0
174
     0
175
     0
176
   256
177
   256
178
     2
  0
DIMSTYLE
  2
AM_ISO$SH
 70
     0
  3

  4
"
  5

  6
GENAXEH
  7

 40
1.0
 41
2.5
 42
1.0
 43
10.0
 44
1.0
 45
0.0
 46
0.0
 47
0.1
 48
0.1
140
3.5
141
0.0
142
0.0
143
0.0393701
144
2.0
145
0.0
146
0.71
147
1.5
 71
     0
 72
     0
 73
     0
 74
     0
 75
     1
 76
     1
 77
     1
 78
     8
170
     0
171
     2
172
     1
173
     1
174
     0
175
     0
176
   256
177
   256
178
     2
  0
DIMSTYLE
  2
AM_JIS$2
 70
     0
  3

  4
"
  5
OPEN
  6

  7

 40
1.0
 41
2.5
 42
1.0
 43
7.0
 44
1.0
 45
0.0
 46
0.0
 47
0.1
 48
0.1
140
3.0
141
0.0
142
0.0
143
0.0393701
144
1.0
145
0.0
146
0.71
147
1.0
 71
     0
 72
     0
 73
     0
 74
     0
 75
     0
 76
     0
 77
     3
 78
     8
170
     0
171
     2
172
     1
173
     0
174
     0
175
     0
176
   256
177
   256
178
     2
  0
DIMSTYLE
  2
AM_JIS$0
 70
     0
  3

  4
"
  5
OPEN
  6

  7

 40
1.0
 41
2.5
 42
1.0
 43
7.0
 44
1.0
 45
0.0
 46
0.0
 47
0.1
 48
0.1
140
3.0
141
0.0
142
0.0
143
0.0393701
144
1.0
145
0.0
146
0.71
147
1.0
 71
     0
 72
     0
 73
     0
 74
     0
 75
     0
 76
     0
 77
     3
 78
     8
170
     0
171
     2
172
     1
173
     0
174
     0
175
     0
176
   256
177
   256
178
     2
  0
ENDTAB
  0
ENDSEC
  0
SECTION
  2
BLOCKS
  0
BLOCK
  8
0
  2
$MODEL_SPACE
 70
     0
 10
0.0
 20
0.0
 30
0.0
  3
$MODEL_SPACE
  1

  0
ENDBLK
  5
1C
  8
0
  0
BLOCK
 67
     1
  8
0
  2
$PAPER_SPACE
 70
     0
 10
0.0
 20
0.0
 30
0.0
  3
$PAPER_SPACE
  1

  0
ENDBLK
  5
19
 67
     1
  8
0
  0
BLOCK
  8
0
  2
_OPEN30
 70
     0
 10
0.0
 20
0.0
 30
0.0
  3
_OPEN30
  1

  0
LINE
  5
2EF
  8
0
  6
BYBLOCK
 62
     0
 10
-1.0
 20
0.26794919
 30
0.0
 11
0.0
 21
0.0
 31
0.0
  0
LINE
  5
2F0
  8
0
  6
BYBLOCK
 62
     0
 10
0.0
 20
0.0
 30
0.0
 11
-1.0
 21
-0.26794919
 31
0.0
  0
LINE
  5
2F1
  8
0
  6
BYBLOCK
 62
     0
 10
0.0
 20
0.0
 30
0.0
 11
-1.0
 21
0.0
 31
0.0
  0
ENDBLK
  5
2F3
  8
0
  0
BLOCK
  8
0
  2
GENAXEH
 70
     0
 10
0.0
 20
0.0
 30
0.0
  3
GENAXEH
  1

  0
LINE
  5
2F5
  8
0
 10
-1.0
 20
0.0
 30
0.0
 11
1.0
 21
0.0
 31
0.0
  0
ENDBLK
  5
2F7
  8
0
  0
BLOCK
  8
0
  2
_OPEN
 70
     0
 10
0.0
 20
0.0
 30
0.0
  3
_OPEN
  1

  0
LINE
  5
597
  8
0
  6
BYBLOCK
 62
     0
 10
-1.0
 20
0.1666666666666667
 30
0.0
 11
0.0
 21
0.0
 31
0.0
  0
LINE
  5
598
  8
0
  6
BYBLOCK
 62
     0
 10
-1.0
 20
-0.1666666666666667
 30
0.0
 11
0.0
 21
0.0
 31
0.0
  0
LINE
  5
599
  8
0
  6
BYBLOCK
 62
     0
 10
0.0
 20
0.0
 30
0.0
 11
-1.0
 21
0.0
 31
0.0
  0
ENDBLK
  5
59B
  8
0
  0
BLOCK
  8
0
  2
_TAGCIRCLE
 70
     2
 10
0.0
 20
0.0
 30
0.0
  3
_TAGCIRCLE
  1

  0
CIRCLE
  5
1151
  8
0
  6
BYBLOCK
 62
     0
 10
0.0
 20
0.0
 30
0.0
 40
4.0
  0
ATTDEF
  5
1152
  8
0
 62
     0
 10
-7.1
 20
-1.5
 30
0.0
 40
3.0
  1
タグ番号
 72
     1
 11
0.0
 21
-1.5
 31
0.0
  3
タグ番号を入力
  2
タグ番号
 70
     0
  0
ENDBLK
  5
1154
  8
0
  0
BLOCK
  8
0
  2
_ACMFILLED15
 70
     0
 10
0.0
 20
0.0
 30
0.0
  3
_ACMFILLED15
  1
Acad:XRef
  0
TRACE
  5
8271
  8
AM_0
 62
     0
 10
-1.0
 20
0.1316524975873958
 30
0.0
 11
-1.0
 21
-0.1316524975873958
 31
0.0
 12
0.0
 22
0.0
 32
0.0
 13
0.0
 23
0.0
 33
0.0
  0
ENDBLK
  5
826F
  8
0
  0
BLOCK
  8
0
  2
_ACMOPEN30
 70
     0
 10
0.0
 20
0.0
 30
0.0
  3
_ACMOPEN30
  1
Acad:XRef
  0
LINE
  5
827B
  8
AM_0
 62
     0
 10
-1.0
 20
0.0
 30
0.0
 11
0.0
 21
0.0
 31
0.0
  0
LINE
  5
827C
  8
AM_0
 62
     0
 10
-1.0
 20
-0.2679491924311227
 30
0.0
 11
0.0
 21
0.0
 31
0.0
  0
LINE
  5
827D
  8
AM_0
 62
     0
 10
-1.0
 20
0.2679491924311227
 30
0.0
 11
0.0
 21
0.0
 31
0.0
  0
ENDBLK
  5
827A
  8
0
  0
BLOCK
  8
0
  2
_ACMFILLEDHALF
 70
     0
 10
0.0
 20
0.0
 30
0.0
  3
_ACMFILLEDHALF
  1

  0
TRACE
  5
8286
  8
0
 62
     0
 10
-0.8
 20
0.0
 30
0.0
 11
-1.0
 21
0.166666666
 31
0.0
 12
0.0
 22
0.0
 32
0.0
 13
0.0
 23
0.0
 33
0.0
  0
LINE
  5
8287
  8
0
 62
     0
 10
-1.0
 20
0.0
 30
0.0
 11
-0.8
 21
0.0
 31
0.0
  0
ENDBLK
  5
8288
  8
0
  0
BLOCK
  8
0
  2
_ACMOPEN15
 70
     0
 10
0.0
 20
0.0
 30
0.0
  3
_ACMOPEN15
  1
Acad:XRef
  0
LINE
  5
8295
  8
AM_0
 62
     0
 10
-1.0
 20
0.0
 30
0.0
 11
0.0
 21
0.0
 31
0.0
  0
LINE
  5
8296
  8
AM_0
 62
     0
 10
-1.0
 20
-0.1316524975873958
 30
0.0
 11
0.0
 21
0.0
 31
0.0
  0
LINE
  5
8297
  8
AM_0
 62
     0
 10
-1.0
 20
0.1316524975873958
 30
0.0
 11
0.0
 21
0.0
 31
0.0
  0
ENDBLK
  5
8294
  8
0
  0
BLOCK
  8
0
  2
*X9
 70
     1
 10
0.0
 20
0.0
 30
0.0
  3
*X9
  1
Acad:XRef
  0
TEXT
  5
A857
  8
0
 62
     7
 10
69.35712706503354
 20
206.638447727807
 30
0.0
 40
1.9
  1
凍結
  0
TEXT
  5
A858
  8
0
 62
     7
 10
69.34302687950479
 20
203.3143289894026
 30
0.0
 40
1.9
  1
予防
  0
ENDBLK
  5
A878
  8
0
  0
ENDSEC
  0
SECTION
  2
ENTITIES
  0
TEXT
  5
17F0
  8
10
 10
-1.499998068022251
 20
0.0000066982815952
 30
0.0
 40
10.0
  1
2024.02.01 EV1 1台単独 露出型
 11
-1.499998068022251
 21
0.0000066982815952
 31
0.0
 73
     1
  0
LINE
  5
4599
  8
0
 10
25.52185615177359
 20
289.8911378947829
 30
0.0
 11
125.5218561517736
 21
289.8911378947827
 31
0.0
  0
LINE
  5
459A
  8
0
 10
25.52185615177359
 20
169.8911378947828
 30
0.0
 11
125.5218561517736
 21
169.8911378947828
 31
0.0
  0
ARC
  5
459B
  8
0
 10
25.52185615177359
 20
281.8911378947829
 30
0.0
 40
8.0
 50
90.0
 51
180.0
  0
LINE
  5
459C
  8
0
 10
21.27921546465427
 20
286.133778581902
 30
0.0
 11
29.52185615177359
 21
277.8911378947829
 31
0.0
  0
LINE
  5
459D
  8
0
 10
31.52185615177359
 20
181.8911378947827
 30
0.0
 11
119.5218561517736
 21
181.8911378947829
 31
0.0
  0
LINE
  5
459E
  8
0
 10
31.52185615177359
 20
277.8911378947829
 30
0.0
 11
119.5218561517736
 21
277.8911378947828
 31
0.0
  0
LINE
  5
45A1
  8
0
 10
29.52185615177359
 20
275.8911378947829
 30
0.0
 11
29.52185615177359
 21
183.8911378947828
 31
0.0
  0
LINE
  5
45A3
  8
0
 10
17.52185615177359
 20
281.8911378947829
 30
0.0
 11
17.52185615177359
 21
177.8911378947828
 31
0.0
  0
LINE
  5
45A4
  8
0
 10
21.2792154646545
 20
173.6484972076634
 30
0.0
 11
29.52185615177359
 21
181.8911378947828
 31
0.0
  0
ARC
  5
45A5
  8
0
 10
25.52185615177359
 20
177.8911378947828
 30
0.0
 40
8.0
 50
180.0
 51
270.0
  0
ARC
  5
45A9
  8
0
 10
125.5218561517736
 20
281.8911378947827
 30
0.0
 40
8.0
 50
0.0
 51
90.0
  0
LINE
  5
45AA
  8
0
 10
129.7644968388929
 20
286.133778581902
 30
0.0
 11
121.5218561517736
 21
277.8911378947827
 31
0.0
  0
LINE
  5
45AC
  8
0
 10
121.5218561517736
 20
275.8911378947828
 30
0.0
 11
121.5218561517736
 21
183.8911378947829
 31
0.0
  0
LINE
  5
45AD
  8
0
 10
133.5218561517736
 20
281.8911378947827
 30
0.0
 11
133.5218561517736
 21
177.8911378947828
 31
0.0
  0
LINE
  5
45AE
  8
0
 10
121.5218561517736
 20
181.8911378947829
 30
0.0
 11
129.7644968388929
 21
173.6484972076633
 31
0.0
  0
ARC
  5
45AF
  8
0
 10
125.5218561517736
 20
177.8911378947828
 30
0.0
 40
8.0
 50
270.0
 51
0.0
  0
LINE
  5
6DD8
  8
0
 10
25.52185615177359
 20
290.5544378947828
 30
0.0
 11
125.5218561517736
 21
290.5544378947826
 31
0.0
  0
ARC
  5
6DD9
  8
0
 10
25.52185615177359
 20
281.8911378947828
 30
0.0
 40
8.6633
 50
90.0
 51
180.0
  0
LINE
  5
6DDA
  8
0
 10
16.85855615177366
 20
281.8911378947828
 30
0.0
 11
16.85855615177366
 21
177.8911378947828
 31
0.0
  0
ARC
  5
6DDB
  8
0
 10
25.52185615177359
 20
177.8911378947828
 30
0.0
 40
8.6633
 50
180.0
 51
270.0
  0
LINE
  5
6DDC
  8
0
 10
25.52185615177359
 20
169.2278378947828
 30
0.0
 11
125.5218561517736
 21
169.2278378947828
 31
0.0
  0
ARC
  5
6DDD
  8
0
 10
125.5218561517736
 20
177.8911378947828
 30
0.0
 40
8.6633
 50
270.0
 51
0.0
  0
LINE
  5
6DDE
  8
0
 10
134.1851561517735
 20
281.8911378947826
 30
0.0
 11
134.1851561517735
 21
177.8911378947828
 31
0.0
  0
ARC
  5
6DDF
  8
0
 10
125.5218561517736
 20
281.8911378947826
 30
0.0
 40
8.6633
 50
0.0
 51
90.0
  0
LINE
  5
81AA
  8
0
 10
178.9776239078599
 20
280.4759233190127
 30
0.0
 11
180.2735099621405
 21
287.8252583389501
 31
0.0
  0
LINE
  5
81AB
  8
0
 10
184.021856498226
 20
169.891137894783
 30
0.0
 11
184.021856498226
 21
289.891137894783
 31
0.0
  0
LINE
  5
81AC
  8
0
 10
178.521856498226
 20
184.5157978005605
 30
0.0
 11
178.521856498226
 21
275.2664779890049
 31
0.0
  0
LINE
  5
81AD
  8
0
 10
178.9776239078599
 20
179.3063524705527
 30
0.0
 11
180.2735099621403
 21
171.9570174506158
 31
0.0
  0
ARC
  5
81AE
  8
0
 10
182.7355293446709
 20
172.3911378947831
 30
0.0
 40
2.5
 50
190.0000000000002
 51
270.0
  0
LINE
  5
81AF
  8
0
 10
184.021856498226
 20
169.8911378947831
 30
0.0
 11
182.7355293446708
 21
169.8911378947831
 31
0.0
  0
ARC
  5
81B0
  8
0
 10
208.521856498226
 20
184.5157978005605
 30
0.0
 40
30.0
 50
180.0
 51
190.0000000000002
  0
ARC
  5
81B1
  8
0
 10
208.521856498226
 20
275.2664779890049
 30
0.0
 40
30.0
 50
169.9999999999998
 51
180.0
  0
ARC
  5
81B2
  8
0
 10
182.735529344671
 20
287.3911378947828
 30
0.0
 40
2.5
 50
90.0
 51
169.9999999999998
  0
LINE
  5
81B3
  8
0
 10
184.0218564982194
 20
289.891137894783
 30
0.0
 11
182.7355293446642
 21
289.891137894783
 31
0.0
  0
ARC
  5
81B4
  8
0
 10
175.8218564982255
 20
259.691137894783
 30
0.0
 40
1.0
 50
90.0
 51
180.0
  0
LINE
  5
81B5
  8
0
 10
175.8218564982255
 20
260.691137894783
 30
0.0
 11
178.5218564982256
 21
260.691137894783
 31
0.0
  0
LINE
  5
81B6
  8
0
 10
175.8218564982255
 20
253.691137894783
 30
0.0
 11
178.5218564982256
 21
253.691137894783
 31
0.0
  0
LINE
  5
81B7
  8
0
 10
174.8218564982255
 20
259.691137894783
 30
0.0
 11
174.8218564982255
 21
254.691137894783
 31
0.0
  0
ARC
  5
81B8
  8
0
 10
175.8218564982255
 20
254.691137894783
 30
0.0
 40
1.0
 50
180.0
 51
270.0
  0
LINE
  5
81B9
  8
0
 10
125.5218568968317
 20
144.5475070587735
 30
0.0
 11
25.52185540671559
 21
144.5475070587735
 31
0.0
  0
LINE
  5
81BA
  8
0
 10
125.5218568968317
 20
140.5475072180297
 30
0.0
 11
25.52185540671559
 21
140.5475072180297
 31
0.0
  0
LINE
  5
81BB
  8
0
 10
17.5218578207037
 20
140.5475072180297
 30
0.0
 11
17.5218578207037
 21
144.5475070587735
 31
0.0
  0
LINE
  5
81BC
  8
0
 10
25.52185540671559
 20
144.5475070587735
 30
0.0
 11
17.5218578207037
 21
144.5475070587735
 31
0.0
  0
LINE
  5
81BD
  8
0
 10
25.52185540671559
 20
140.5475072180297
 30
0.0
 11
17.5218578207037
 21
140.5475072180297
 31
0.0
  0
LINE
  5
81BE
  8
0
 10
133.5218544828435
 20
140.5475072180297
 30
0.0
 11
133.5218544828435
 21
144.5475070587735
 31
0.0
  0
LINE
  5
81BF
  8
0
 10
133.5218544828435
 20
144.5475070587735
 30
0.0
 11
125.5218568968317
 21
144.5475070587735
 31
0.0
  0
LINE
  5
81C0
  8
0
 10
133.5218544828435
 20
140.5475072180297
 30
0.0
 11
125.5218568968317
 21
140.5475072180297
 31
0.0
  0
LINE
  5
81C1
  8
0
 10
18.62185781474324
 20
144.5475070587735
 30
0.0
 11
18.62185781474324
 21
145.0475070587706
 31
0.0
  0
LINE
  5
81C2
  8
0
 10
132.421854488804
 20
144.5475070587735
 30
0.0
 11
132.421854488804
 21
145.0475070587706
 31
0.0
  0
LINE
  5
81C3
  8
0
 10
39.02185668821545
 20
150.5475069945122
 30
0.0
 11
112.0218556153318
 21
150.5475069945122
 31
0.0
  0
LINE
  5
81C4
  8
0
 10
52.96668634991812
 20
153.7471397298764
 30
0.0
 11
51.96668634991835
 21
153.7471397298764
 31
0.0
  0
LINE
  5
81C5
  8
0
 10
53.96668634991835
 20
154.2471397298764
 30
0.0
 11
52.96668634991835
 21
154.2471397298764
 31
0.0
  0
LINE
  5
81C6
  8
0
 10
51.96668634991835
 20
154.2471397298764
 30
0.0
 11
50.96668634991835
 21
154.2471397298764
 31
0.0
  0
LINE
  5
81C7
  8
0
 10
51.96668634991835
 20
154.2471397298764
 30
0.0
 11
51.96668634991835
 21
153.7471397298764
 31
0.0
  0
LINE
  5
81C8
  8
0
 10
54.96668634991835
 20
154.2471397298764
 30
0.0
 11
54.96668634991835
 21
153.7471397298764
 31
0.0
  0
LINE
  5
81C9
  8
0
 10
52.96668634991835
 20
154.2471397298764
 30
0.0
 11
52.96668634991812
 21
153.7471397298764
 31
0.0
  0
LINE
  5
81CA
  8
0
 10
53.96668634991835
 20
154.2471397298764
 30
0.0
 11
53.96668634991835
 21
153.7471397298764
 31
0.0
  0
LINE
  5
81CB
  8
0
 10
54.96668634991835
 20
153.7471397298764
 30
0.0
 11
53.96668634991835
 21
153.7471397298764
 31
0.0
  0
LINE
  5
81CC
  8
0
 10
56.96668634991829
 20
150.5475069945122
 30
0.0
 11
56.96668634991806
 21
153.2471397298764
 31
0.0
  0
ARC
  5
81CD
  8
0
 10
55.96668634991812
 20
153.2471397298764
 30
0.0
 40
1.0
 50
0.0
 51
90.0
  0
LINE
  5
81CE
  8
0
 10
55.96668634991812
 20
154.2471397298764
 30
0.0
 11
54.96668634991835
 21
154.2471397298764
 31
0.0
  0
LINE
  5
81CF
  8
0
 10
49.96668634991835
 20
150.5475069945122
 30
0.0
 11
49.96668634991835
 21
153.2471397298764
 31
0.0
  0
ARC
  5
81D0
  8
0
 10
50.96668634991835
 20
153.2471397298764
 30
0.0
 40
1.0
 50
90.0
 51
180.0
  0
LINE
  5
81D1
  8
0
 10
133.5218561517734
 20
145.0475070587706
 30
0.0
 11
17.52185615177319
 21
145.0475070587706
 31
0.0
  0
ARC
  5
81D2
  8
0
 10
118.8971962459959
 20
120.5475070587706
 30
0.0
 40
30.0
 50
80.00000000000146
 51
90.0
  0
LINE
  5
81D3
  8
0
 10
118.8971962459959
 20
150.5475070587706
 30
0.0
 11
32.14651605755131
 21
150.5475070587706
 31
0.0
  0
ARC
  5
81D4
  8
0
 10
131.0218561517734
 20
146.3338342123258
 30
0.0
 40
2.5
 50
0.0
 51
80.00000000000146
  0
LINE
  5
81D5
  8
0
 10
133.5218561517734
 20
145.0475070587706
 30
0.0
 11
133.5218561517734
 21
146.3338342123258
 31
0.0
  0
LINE
  5
81D6
  8
0
 10
124.1066415760038
 20
150.0917396491368
 30
0.0
 11
131.4559765959407
 21
148.7958535948563
 31
0.0
  0
ARC
  5
81D7
  8
0
 10
32.14651605755131
 20
120.5475070587706
 30
0.0
 40
30.0
 50
90.0
 51
99.99999999999855
  0
ARC
  5
81D8
  8
0
 10
20.02185615177342
 20
146.3338342123257
 30
0.0
 40
2.5
 50
99.99999999999855
 51
180.0
  0
LINE
  5
81D9
  8
0
 10
26.93707072754347
 20
150.0917396491368
 30
0.0
 11
19.5877357076061
 21
148.7958535948563
 31
0.0
  0
LINE
  5
81DA
  8
0
 10
17.52185615177319
 20
145.0475070587772
 30
0.0
 11
17.52185615177319
 21
146.3338342123324
 31
0.0
  0
LINE
  5
81DB
  8
0
 10
188.5218562747082
 20
290.0161358756765
 30
0.0
 11
184.5218564339643
 21
290.0161358756765
 31
0.0
  0
LINE
  5
81DC
  8
0
 10
184.5218564339643
 20
290.0161358756765
 30
0.0
 11
184.5218564339643
 21
282.0161382896646
 31
0.0
  0
LINE
  5
81DD
  8
0
 10
188.5218562747082
 20
290.0161358756765
 30
0.0
 11
188.5218562747082
 21
282.0161382896646
 31
0.0
  0
LINE
  5
81DE
  8
0
 10
184.5218564339643
 20
282.0161382896646
 30
0.0
 11
184.5218564339643
 21
178.0161361438974
 31
0.0
  0
LINE
  5
81DF
  8
0
 10
188.5218562747082
 20
282.0161382896646
 30
0.0
 11
188.5218562747082
 21
178.0161361438974
 31
0.0
  0
LINE
  5
81E0
  8
0
 10
188.5218562747082
 20
170.0161385578855
 30
0.0
 11
184.5218564339643
 21
170.0161385578855
 31
0.0
  0
LINE
  5
81E1
  8
0
 10
184.5218564339643
 20
178.0161361438974
 30
0.0
 11
184.5218564339643
 21
170.0161385578855
 31
0.0
  0
LINE
  5
81E2
  8
0
 10
188.5218562747082
 20
178.0161361438974
 30
0.0
 11
188.5218562747082
 21
170.0161385578855
 31
0.0
  0
LINE
  5
81E3
  8
0
 10
184.5218564339643
 20
171.116138551925
 30
0.0
 11
184.021856498226
 21
171.1161385519251
 31
0.0
  0
LINE
  5
81E4
  8
0
 10
184.5218564339643
 20
288.9161358816369
 30
0.0
 11
184.021856498226
 21
288.9161358816369
 31
0.0
  0
LINE
  5
81E5
  8
0
 10
188.5218562747082
 20
290.0161372167809
 30
0.0
 11
188.5218562747082
 21
170.0161372167811
 31
0.0
  0
LINE
  5
81E6
  8
0
 10
226.5218562747084
 20
290.6794296840533
 30
0.0
 11
226.5218562747081
 21
169.3528447495087
 31
0.0
  0
LINE
  5
81E7
  8
0
 10
188.5218562747082
 20
170.0161372167811
 30
0.0
 11
226.5218562747081
 21
169.3528447495087
 31
0.0
  0
LINE
  5
81E8
  8
0
 10
188.5218562747082
 20
290.0161372167809
 30
0.0
 11
226.5218562747084
 21
290.6794296840533
 31
0.0
  0
LINE
  5
81E9
  8
0
 10
133.5218561517738
 20
140.5475072180297
 30
0.0
 11
134.1851486190458
 21
102.5475072180297
 31
0.0
  0
LINE
  5
81EA
  8
0
 10
17.52185615177353
 20
140.5475072180297
 30
0.0
 11
16.85856368450112
 21
102.5475072180297
 31
0.0
  0
ARC
  5
81EB
  8
0
 10
70.02185615177336
 20
106.5475072180297
 30
0.0
 40
4.0
 50
0.0
 51
90.0
  0
ARC
  5
81EC
  8
0
 10
70.02185615177336
 20
106.5475072180297
 30
0.0
 40
3.0
 50
0.0
 51
180.0
  0
LINE
  5
81ED
  8
0
 10
16.85856368450112
 20
102.5475072180297
 30
0.0
 11
134.1851486190458
 21
102.5475072180297
 31
0.0
  0
LINE
  5
81EE
  8
0
 10
66.02185615177336
 20
102.5475072180297
 30
0.0
 11
66.02185615177336
 21
106.5475072180297
 31
0.0
  0
LINE
  5
81EF
  8
0
 10
67.02185615177336
 20
102.5475072180297
 30
0.0
 11
67.02185615177336
 21
106.5475072180297
 31
0.0
  0
LINE
  5
81F0
  8
0
 10
55.52185615177342
 20
102.5475072180297
 30
0.0
 11
55.52185615177342
 21
106.5475072180297
 31
0.0
  0
LINE
  5
81F1
  8
0
 10
56.52185615177336
 20
102.5475072180297
 30
0.0
 11
56.52185615177336
 21
106.5475072180297
 31
0.0
  0
LINE
  5
81F2
  8
0
 10
63.52185615177336
 20
106.5475072180297
 30
0.0
 11
63.52185615177336
 21
102.5475072180297
 31
0.0
  0
LINE
  5
81F3
  8
0
 10
62.52185615177336
 20
106.5475072180297
 30
0.0
 11
62.52185615177336
 21
102.5475072180297
 31
0.0
  0
ARC
  5
81F4
  8
0
 10
59.52185615177336
 20
106.5475072180297
 30
0.0
 40
4.0
 50
0.0
 51
48.5903778907312
  0
ARC
  5
81F5
  8
0
 10
59.52185615177336
 20
106.5475072180297
 30
0.0
 40
3.0
 50
0.0
 51
180.0
  0
LINE
  5
81F6
  8
0
 10
62.16760746283808
 20
109.5475072180297
 30
0.0
 11
67.37610484070888
 21
109.5475072180297
 31
0.0
  0
ARC
  5
81F7
  8
0
 10
70.02185615177336
 20
106.5475072180297
 30
0.0
 40
4.0
 50
131.4096221092688
 51
180.0
  0
ARC
  5
81F8
  8
0
 10
59.52185615177336
 20
106.5475072180297
 30
0.0
 40
4.0
 50
90.0
 51
180.0
  0
LINE
  5
81F9
  8
0
 10
59.52185615177336
 20
110.5475072180297
 30
0.0
 11
70.02185615177336
 21
110.5475072180297
 31
0.0
  0
LINE
  5
81FA
  8
0
 10
94.52185615177336
 20
106.5475072180297
 30
0.0
 11
94.52185615177336
 21
102.5475072180297
 31
0.0
  0
LINE
  5
81FB
  8
0
 10
95.52185615177336
 20
106.5475072180297
 30
0.0
 11
95.52185615177336
 21
102.5475072180297
 31
0.0
  0
LINE
  5
81FC
  8
0
 10
88.52185615177336
 20
102.5475072180297
 30
0.0
 11
88.52185615177336
 21
106.5475072180297
 31
0.0
  0
LINE
  5
81FD
  8
0
 10
87.52185615177336
 20
102.5475072180297
 30
0.0
 11
87.52185615177336
 21
106.5475072180297
 31
0.0
  0
LINE
  5
81FE
  8
0
 10
74.02185615177336
 20
106.5475072180297
 30
0.0
 11
74.02185615177336
 21
102.5475072180297
 31
0.0
  0
LINE
  5
81FF
  8
0
 10
73.02185615177336
 20
106.5475072180297
 30
0.0
 11
73.02185615177336
 21
102.5475072180297
 31
0.0
  0
LINE
  5
8200
  8
0
 10
77.02185615177336
 20
102.5475072180297
 30
0.0
 11
77.02185615177336
 21
106.5475072180297
 31
0.0
  0
LINE
  5
8201
  8
0
 10
78.02185615177336
 20
102.5475072180297
 30
0.0
 11
78.02185615177336
 21
106.5475072180297
 31
0.0
  0
LINE
  5
8202
  8
0
 10
85.02185615177336
 20
106.5475072180297
 30
0.0
 11
85.02185615177336
 21
102.5475072180297
 31
0.0
  0
LINE
  5
8203
  8
0
 10
84.02185615177336
 20
106.5475072180297
 30
0.0
 11
84.02185615177336
 21
102.5475072180297
 31
0.0
  0
LINE
  5
8204
  8
0
 10
81.02185615177336
 20
110.5475072180297
 30
0.0
 11
91.52185615177336
 21
110.5475072180297
 31
0.0
  0
ARC
  5
8205
  8
0
 10
91.52185615177336
 20
106.5475072180297
 30
0.0
 40
4.0
 50
131.4096221092688
 51
180.0
  0
LINE
  5
8206
  8
0
 10
83.66760746283785
 20
109.5475072180297
 30
0.0
 11
88.87610484070888
 21
109.5475072180297
 31
0.0
  0
ARC
  5
8207
  8
0
 10
81.02185615177336
 20
106.5475072180297
 30
0.0
 40
4.0
 50
0.0
 51
48.5903778907312
  0
ARC
  5
8208
  8
0
 10
81.02185615177336
 20
106.5475072180297
 30
0.0
 40
3.0
 50
0.0
 51
180.0
  0
ARC
  5
8209
  8
0
 10
81.02185615177336
 20
106.5475072180297
 30
0.0
 40
4.0
 50
90.0
 51
180.0
  0
ARC
  5
820A
  8
0
 10
91.52185615177336
 20
106.5475072180297
 30
0.0
 40
3.0
 50
0.0
 51
180.0
  0
ARC
  5
820B
  8
0
 10
91.52185615177336
 20
106.5475072180297
 30
0.0
 40
4.0
 50
0.0
 51
90.0
  0
LINE
  5
820C
  8
0
 10
17.52185615177353
 20
140.5475072180297
 30
0.0
 11
133.5218561517738
 21
140.5475072180297
 31
0.0
  0
LINE
  5
820D
  8
7
 10
12.72785615177349
 20
229.8911378947828
 30
0.0
 11
138.3158561517735
 21
229.8911378947825
 31
0.0
1001
GENIUS_GENOBJ-N-CEN_13
1002
{
1000
OWNER
1000
GEN
1002
}
1001
GENIUS_GENODEF_13
1002
{
1000
HIER
1070
     0
1002
}
1002
{
1000
MANEDIT
1070
     0
1002
}
1002
{
1000
NOSEL
1070
     0
1002
}
1002
{
1000
BEHIND
1070
     0
1002
}
1002
{
1000
OTHER
1070
     0
1002
}
1002
{
1000
REACTOR
1002
}
1001
GENIUS_GENCEN_19
1002
{
1040
2.794
1002
}
  0
LINE
  5
820E
  8
7
 10
75.52185615177359
 20
294.6851378947829
 30
0.0
 11
75.52185615177359
 21
165.0971378947827
 31
0.0
1001
GENIUS_GENOBJ-N-CEN_13
1002
{
1000
OWNER
1000
GEN
1002
}
1001
GENIUS_GENODEF_13
1002
{
1000
HIER
1070
     0
1002
}
1002
{
1000
MANEDIT
1070
     0
1002
}
1002
{
1000
NOSEL
1070
     0
1002
}
1002
{
1000
BEHIND
1070
     0
1002
}
1002
{
1000
OTHER
1070
     0
1002
}
1002
{
1000
REACTOR
1002
}
1001
GENIUS_GENCEN_19
1002
{
1040
2.794
1002
}
  0
LINE
  5
820F
  8
7
 10
75.52185615177359
 20
153.3415070587706
 30
0.0
 11
75.52185615177359
 21
99.7535072180297
 31
0.0
1001
GENIUS_GENOBJ-N-CEN_13
1002
{
1000
OWNER
1000
GEN
1002
}
1001
GENIUS_GENODEF_13
1002
{
1000
HIER
1070
     0
1002
}
1002
{
1000
MANEDIT
1070
     0
1002
}
1002
{
1000
NOSEL
1070
     0
1002
}
1002
{
1000
BEHIND
1070
     0
1002
}
1002
{
1000
OTHER
1070
     0
1002
}
1002
{
1000
REACTOR
1002
}
1001
GENIUS_GENCEN_19
1002
{
1040
2.794
1002
}
  0
LINE
  5
8210
  8
7
 10
175.7278564982261
 20
229.8911378947823
 30
0.0
 11
229.3158562747082
 21
229.8911378947822
 31
0.0
1001
GENIUS_GENODEF_13
1002
{
1000
HIER
1070
     0
1002
}
1002
{
1000
MANEDIT
1070
     0
1002
}
1002
{
1000
NOSEL
1070
     0
1002
}
1002
{
1000
BEHIND
1070
     0
1002
}
1002
{
1000
OTHER
1070
     0
1002
}
1002
{
1000
REACTOR
1002
}
1001
GENIUS_GENOBJ-N-CEN_13
1002
{
1000
OWNER
1000
GEN
1002
}
1001
GENIUS_GENCEN_19
1002
{
1040
2.794
1002
}
  0
LINE
  5
8B09
  8
0
 10
38.27185615177356
 20
264.9911378947827
 30
0.0
 11
112.7718561517736
 21
264.9911378947827
 31
0.0
  0
LINE
  5
8B0A
  8
0
 10
38.27185615177356
 20
194.7911378947827
 30
0.0
 11
112.7718561517736
 21
194.7911378947827
 31
0.0
  0
LINE
  5
8B0B
  8
0
 10
38.27185615177356
 20
264.9911378947827
 30
0.0
 11
38.27185615177356
 21
194.7911378947827
 31
0.0
  0
LINE
  5
8B0C
  8
0
 10
112.7718561517736
 20
264.9911378947827
 30
0.0
 11
112.7718561517736
 21
194.7911378947827
 31
0.0
  0
LINE
  5
8B0D
  8
0
 10
112.0218556153318
 20
195.39113875905
 30
0.0
 11
112.0218556153318
 21
264.3911370305153
 31
0.0
  0
LINE
  5
8B0E
  8
0
 10
39.02185668821537
 20
195.39113875905
 30
0.0
 11
112.0218556153318
 21
195.39113875905
 31
0.0
  0
LINE
  5
8B0F
  8
0
 10
39.02185668821537
 20
264.3911370305153
 30
0.0
 11
39.02185668821537
 21
195.39113875905
 31
0.0
  0
LINE
  5
8B10
  8
0
 10
112.0218556153318
 20
264.3911370305153
 30
0.0
 11
39.02185668821537
 21
264.3911370305153
 31
0.0
  0
LINE
  5
8B11
  8
0
 10
40.52185600276195
 20
196.8911380735966
 30
0.0
 11
110.5218563007852
 21
196.8911380735966
 31
0.0
  0
LINE
  5
8B12
  8
0
 10
110.5218563007852
 20
196.8911380735966
 30
0.0
 11
110.5218563007852
 21
262.8911377159687
 31
0.0
  0
LINE
  5
8B13
  8
0
 10
110.5218563007852
 20
262.8911377159687
 30
0.0
 11
65.52185637529098
 21
262.8911377159687
 31
0.0
  0
LINE
  5
8B14
  8
0
 10
40.52185600276195
 20
250.8911376116606
 30
0.0
 11
65.52185637529098
 21
250.8911376116606
 31
0.0
  0
LINE
  5
8B15
  8
0
 10
40.52185600276195
 20
250.8911376116606
 30
0.0
 11
40.52185600276195
 21
196.8911380735966
 31
0.0
  0
LINE
  5
8B16
  8
0
 10
47.32185562725269
 20
253.1911374298664
 30
0.0
 11
57.32185540373527
 21
253.1911374298664
 31
0.0
  0
LINE
  5
8B17
  8
0
 10
57.32185540373527
 20
253.1911374298664
 30
0.0
 11
57.32185540373527
 21
261.1911387411686
 31
0.0
  0
LINE
  5
8B18
  8
0
 10
57.32185540373527
 20
261.1911387411686
 30
0.0
 11
47.32185562725269
 21
261.1911387411686
 31
0.0
  0
LINE
  5
8B19
  8
0
 10
47.32185562725269
 20
261.1911387411686
 30
0.0
 11
47.32185562725269
 21
253.1911374298664
 31
0.0
  0
LINE
  5
8B1A
  8
0
 10
65.52185637529098
 20
250.8911376116606
 30
0.0
 11
65.52185637529098
 21
262.8911377159687
 31
0.0
  0
LINE
  5
8B1B
  8
0
 10
112.5218566286107
 20
194.8911377457711
 30
0.0
 11
112.5218566286107
 21
264.8911380437943
 31
0.0
  0
LINE
  5
8B1C
  8
0
 10
38.5218556749364
 20
194.8911377457711
 30
0.0
 11
112.5218566286107
 21
194.8911377457711
 31
0.0
  0
LINE
  5
8B1D
  8
0
 10
38.5218556749364
 20
264.8911380437943
 30
0.0
 11
38.5218556749364
 21
194.8911377457711
 31
0.0
  0
LINE
  5
8B1E
  8
0
 10
112.5218566286107
 20
264.8911380437943
 30
0.0
 11
38.5218556749364
 21
264.8911380437943
 31
0.0
  0
ARC
  5
8B1F
  8
0
 10
48.72185551549396
 20
259.6911374298664
 30
0.0
 40
1.0
 50
90.0
 51
180.0
  0
ARC
  5
8B20
  8
0
 10
53.72185551549396
 20
259.6911374298664
 30
0.0
 40
1.0
 50
0.0
 51
90.0
  0
LINE
  5
8B21
  8
0
 10
48.72185551549396
 20
260.6911374298664
 30
0.0
 11
53.72185551549396
 21
260.6911374298664
 31
0.0
  0
LINE
  5
8B22
  8
0
 10
53.72185551549396
 20
253.6911374298666
 30
0.0
 11
48.72185551549396
 21
253.6911374298664
 31
0.0
  0
ARC
  5
8B23
  8
0
 10
48.72185551549396
 20
254.6911374298664
 30
0.0
 40
1.0
 50
180.0
 51
270.0000000000016
  0
ARC
  5
8B24
  8
0
 10
53.72185551549396
 20
254.6911374298666
 30
0.0
 40
1.0
 50
270.0
 51
0.0
  0
LINE
  5
8B25
  8
0
 10
52.72185551549396
 20
253.6911374298666
 30
0.0
 11
52.72185551549396
 21
260.6911374298664
 31
0.0
  0
LINE
  5
8B26
  8
0
 10
51.72185551549396
 20
253.6911374298664
 30
0.0
 11
51.72185551549396
 21
260.6911374298664
 31
0.0
  0
LINE
  5
8B27
  8
0
 10
50.72185551549396
 20
253.6911374298663
 30
0.0
 11
50.72185551549396
 21
260.6911374298664
 31
0.0
  0
LINE
  5
8B28
  8
0
 10
49.72185551549396
 20
253.6911374298663
 30
0.0
 11
49.72185551549396
 21
260.6911374298664
 31
0.0
  0
LINE
  5
8B29
  8
0
 10
47.72185551549396
 20
254.6911374298664
 30
0.0
 11
47.72185551549396
 21
259.6911374298664
 31
0.0
  0
LINE
  5
8B2A
  8
0
 10
54.72185551549396
 20
259.6911374298664
 30
0.0
 11
54.72185551549396
 21
254.6911374298666
 31
0.0
  0
LINE
  5
8B2B
  8
0
 10
65.77185637529098
 20
262.6411378947828
 30
0.0
 11
110.2718561517736
 21
262.6411378947827
 31
0.0
  0
LINE
  5
8B2C
  8
0
 10
110.2718561517736
 20
262.6411378947827
 30
0.0
 11
110.2718561517736
 21
197.1411378947826
 31
0.0
  0
LINE
  5
8B2D
  8
0
 10
40.77185615177356
 20
197.1411378947828
 30
0.0
 11
40.77185615177356
 21
250.6411376116606
 31
0.0
  0
LINE
  5
8B2E
  8
0
 10
110.2718561517736
 20
197.1411378947826
 30
0.0
 11
40.77185615177356
 21
197.1411378947828
 31
0.0
  0
LINE
  5
8B2F
  8
0
  6
CONTINUOUS
 10
65.77185637529098
 20
250.6411376116606
 30
0.0
 11
65.77185637529098
 21
262.6411378947828
 31
0.0
  0
LINE
  5
8B30
  8
0
  6
CONTINUOUS
 10
40.77185615177356
 20
250.6411376116606
 30
0.0
 11
65.77185637529098
 21
250.6411376116606
 31
0.0
  0
INSERT
  5
8B31
  8
0
 62
     7
  2
*X9
 10
0.0
 20
0.0
 30
0.0
  0
TEXT
  5
8B32
  8
0
 62
     7
 10
69.3477269413477
 20
212.9769758663352
 30
0.0
 40
1.9
  1
給水
  0
TEXT
  5
8B33
  8
0
 62
     7
 10
89.34300643006675
 20
207.9715336894643
 30
0.0
 40
4.0
  1
PUSH
 41
1.2
  0
TEXT
  5
8B34
  8
0
 62
     7
 10
49.75042694406541
 20
246.2980333802498
 30
0.0
 40
2.0
  1
電源
  0
LINE
  5
8B36
  8
0
 10
41.77185615177356
 20
217.1012460020879
 30
0.0
 11
41.77185615177356
 21
219.6387460020885
 31
0.0
  0
LINE
  5
8B37
  8
0
 10
43.87435615177353
 20
217.1012460020879
 30
0.0
 11
43.87435615177353
 21
219.6387460020885
 31
0.0
  0
LINE
  5
8B38
  8
0
 10
44.09185615177373
 20
217.1012460020879
 30
0.0
 11
44.09185615177373
 21
219.6387460020885
 31
0.0
  0
LINE
  5
8B39
  8
0
 10
41.77185615177356
 20
217.1012460020879
 30
0.0
 11
42.56935615177369
 21
217.1012460020879
 31
0.0
  0
LINE
  5
8B3A
  8
0
 10
41.77185615177356
 20
219.6387460020885
 30
0.0
 11
42.56935615177369
 21
219.6387460020885
 31
0.0
  0
LINE
  5
8B3B
  8
0
 10
42.56935615177369
 20
219.6387460020885
 30
0.0
 11
42.56935615177369
 21
218.7687460020884
 31
0.0
  0
LINE
  5
8B3C
  8
0
 10
43.0768561517734
 20
219.6387460020885
 30
0.0
 11
43.0768561517734
 21
218.7687460020884
 31
0.0
  0
LINE
  5
8B3D
  8
0
 10
42.56935615177369
 20
217.1012460020879
 30
0.0
 11
42.56935615177369
 21
217.9712460020878
 31
0.0
  0
LINE
  5
8B3E
  8
0
 10
43.0768561517734
 20
217.1012460020879
 30
0.0
 11
43.0768561517734
 21
217.9712460020878
 31
0.0
  0
LINE
  5
8B3F
  8
0
 10
43.0768561517734
 20
219.6387460020885
 30
0.0
 11
43.87435615177353
 21
219.6387460020885
 31
0.0
  0
LINE
  5
8B40
  8
0
 10
43.0768561517734
 20
217.1012460020879
 30
0.0
 11
43.87435615177353
 21
217.1012460020879
 31
0.0
  0
LINE
  5
8B41
  8
0
 10
42.56935615177369
 20
218.7687460020884
 30
0.0
 11
43.0768561517734
 21
218.7687460020884
 31
0.0
  0
LINE
  5
8B42
  8
0
 10
42.56935615177369
 20
217.9712460020878
 30
0.0
 11
43.0768561517734
 21
217.9712460020878
 31
0.0
  0
LINE
  5
8B43
  8
0
 10
44.8893561517734
 20
217.1012460020879
 30
0.0
 11
44.8893561517734
 21
219.6387460020885
 31
0.0
  0
LINE
  5
8B44
  8
0
 10
45.1068561517736
 20
217.1012460020879
 30
0.0
 11
45.1068561517736
 21
219.6387460020885
 31
0.0
  0
LINE
  5
8B45
  8
0
 10
44.09185615177373
 20
219.6387460020885
 30
0.0
 11
44.8893561517734
 21
219.6387460020885
 31
0.0
  0
LINE
  5
8B46
  8
0
 10
44.09185615177373
 20
217.1012460020879
 30
0.0
 11
44.8893561517734
 21
217.1012460020879
 31
0.0
  0
LINE
  5
8B47
  8
0
 10
47.20935615177356
 20
217.1012460020879
 30
0.0
 11
47.20935615177356
 21
217.6812460020878
 31
0.0
  0
LINE
  5
8B48
  8
0
 10
47.20935615177356
 20
219.0587460020886
 30
0.0
 11
47.20935615177356
 21
219.6387460020885
 31
0.0
  0
LINE
  5
8B49
  8
0
 10
45.1068561517736
 20
217.1012460020879
 30
0.0
 11
45.90435615177373
 21
217.1012460020879
 31
0.0
  0
LINE
  5
8B4A
  8
0
 10
45.1068561517736
 20
219.6387460020885
 30
0.0
 11
45.90435615177373
 21
219.6387460020885
 31
0.0
  0
LINE
  5
8B4B
  8
0
 10
45.90435615177373
 20
219.6387460020885
 30
0.0
 11
45.90435615177373
 21
218.7687460020884
 31
0.0
  0
LINE
  5
8B4C
  8
0
 10
46.41185615177343
 20
219.6387460020885
 30
0.0
 11
46.41185615177343
 21
219.0587460020886
 31
0.0
  0
LINE
  5
8B4D
  8
0
 10
45.90435615177373
 20
217.1012460020879
 30
0.0
 11
45.90435615177373
 21
217.9712460020878
 31
0.0
  0
LINE
  5
8B4E
  8
0
 10
46.41185615177343
 20
217.1012460020879
 30
0.0
 11
46.41185615177343
 21
217.6812460020878
 31
0.0
  0
ARC
  5
8B4F
  8
0
 10
46.12185615177347
 20
217.6812460020878
 30
0.0
 40
0.29
 50
0.0
 51
90.0
  0
ARC
  5
8B50
  8
0
 10
46.12185615177347
 20
217.6812460020878
 30
0.0
 40
1.0875
 50
0.0
 51
39.29648023918966
  0
LINE
  5
8B51
  8
0
 10
46.41185615177343
 20
219.6387460020885
 30
0.0
 11
47.20935615177356
 21
219.6387460020885
 31
0.0
  0
LINE
  5
8B52
  8
0
 10
46.41185615177343
 20
217.1012460020879
 30
0.0
 11
47.20935615177356
 21
217.1012460020879
 31
0.0
  0
LINE
  5
8B53
  8
0
 10
45.90435615177373
 20
218.7687460020884
 30
0.0
 11
46.12185615177347
 21
218.7687460020884
 31
0.0
  0
ARC
  5
8B54
  8
0
 10
46.12185615177347
 20
219.0587460020886
 30
0.0
 40
0.29
 50
270.0
 51
0.0
  0
ARC
  5
8B55
  8
0
 10
46.12185615177347
 20
219.0587460020886
 30
0.0
 40
1.0875
 50
320.7035197608187
 51
0.0
  0
LINE
  5
8B56
  8
0
 10
45.90435615177373
 20
217.9712460020878
 30
0.0
 11
46.12185615177347
 21
217.9712460020878
 31
0.0
  0
LINE
  5
8B57
  8
0
 10
47.42685615177376
 20
217.1012460020879
 30
0.0
 11
47.42685615177376
 21
218.5874960020878
 31
0.0
  0
LINE
  5
8B58
  8
0
 10
49.52935615177373
 20
217.1012460020879
 30
0.0
 11
49.52935615177373
 21
218.5874960020878
 31
0.0
  0
LINE
  5
8B59
  8
0
 10
47.42685615177376
 20
217.1012460020879
 30
0.0
 11
48.22435615177343
 21
217.1012460020879
 31
0.0
  0
LINE
  5
8B5A
  8
0
 10
48.22435615177343
 20
217.1012460020879
 30
0.0
 11
48.22435615177343
 21
217.6087460020876
 31
0.0
  0
LINE
  5
8B5B
  8
0
 10
48.7318561517736
 20
217.1012460020879
 30
0.0
 11
48.7318561517736
 21
217.6087460020876
 31
0.0
  0
LINE
  5
8B5C
  8
0
 10
48.7318561517736
 20
217.1012460020879
 30
0.0
 11
49.52935615177373
 21
217.1012460020879
 31
0.0
  0
LINE
  5
8B5D
  8
0
 10
48.22435615177343
 20
217.6087460020876
 30
0.0
 11
48.7318561517736
 21
217.6087460020876
 31
0.0
  0
LINE
  5
8B5E
  8
0
 10
48.22435615177343
 20
218.333746002088
 30
0.0
 11
48.7318561517736
 21
218.333746002088
 31
0.0
  0
ARC
  5
8B5F
  8
0
 10
48.47810615177374
 20
218.5874960020878
 30
0.0
 40
1.05125
 50
0.0
 51
180.0
  0
ARC
  5
8B60
  8
0
 10
48.47810615177374
 20
218.5874960020878
 30
0.0
 40
0.25375
 50
0.0
 51
180.0
  0
LINE
  5
8B61
  8
0
 10
48.22435615177343
 20
218.333746002088
 30
0.0
 11
48.22435615177343
 21
218.5874960020878
 31
0.0
  0
LINE
  5
8B62
  8
0
 10
48.7318561517736
 20
218.5874960020878
 30
0.0
 11
48.7318561517736
 21
218.333746002088
 31
0.0
  0
LINE
  5
8B63
  8
0
 10
49.74685615177347
 20
217.1012460020879
 30
0.0
 11
49.74685615177347
 21
219.6387460020885
 31
0.0
  0
LINE
  5
8B64
  8
0
 10
51.84935615177343
 20
217.1012460020879
 30
0.0
 11
51.84935615177343
 21
217.6812460020878
 31
0.0
  0
LINE
  5
8B65
  8
0
 10
49.74685615177347
 20
217.1012460020879
 30
0.0
 11
50.5443561517736
 21
217.1012460020879
 31
0.0
  0
LINE
  5
8B66
  8
0
 10
50.68935615177358
 20
217.898746002088
 30
0.0
 11
50.83435615177356
 21
217.898746002088
 31
0.0
  0
LINE
  5
8B67
  8
0
 10
50.68935615177358
 20
218.4787460020884
 30
0.0
 11
50.83435615177356
 21
218.4787460020884
 31
0.0
  0
LINE
  5
8B68
  8
0
 10
50.5443561517736
 20
217.1012460020879
 30
0.0
 11
50.5443561517736
 21
218.9137460020881
 31
0.0
  0
LINE
  5
8B69
  8
0
 10
51.05185615177376
 20
217.1012460020879
 30
0.0
 11
51.05185615177376
 21
217.6812460020878
 31
0.0
  0
ARC
  5
8B6A
  8
0
 10
50.83435615177356
 20
217.6812460020878
 30
0.0
 40
0.2175
 50
0.0
 51
90.0
  0
ARC
  5
8B6B
  8
0
 10
50.83435615177356
 20
217.6812460020878
 30
0.0
 40
1.015
 50
0.0
 51
30.66296328368307
  0
LINE
  5
8B6C
  8
0
 10
49.74685615177347
 20
219.6387460020885
 30
0.0
 11
50.90685615177333
 21
219.6387460020885
 31
0.0
  0
LINE
  5
8B6D
  8
0
 10
50.5443561517736
 20
218.9137460020881
 30
0.0
 11
50.83435615177356
 21
218.9137460020881
 31
0.0
  0
LINE
  5
8B6E
  8
0
 10
51.05185615177376
 20
217.1012460020879
 30
0.0
 11
51.84935615177343
 21
217.1012460020879
 31
0.0
  0
ARC
  5
8B6F
  8
0
 10
50.83435615177356
 20
218.6962460020882
 30
0.0
 40
0.2175
 50
270.0
 51
90.0
  0
ARC
  5
8B70
  8
0
 10
50.90685615177333
 20
218.6962460020882
 30
0.0
 40
0.9425
 50
328.1493895340805
 51
90.0
  0
LINE
  5
8B71
  8
0
 10
50.68935615177358
 20
218.4787460020884
 30
0.0
 11
50.68935615177358
 21
217.898746002088
 31
0.0
  0
LINE
  5
8B72
  8
0
 10
52.06685615177364
 20
217.1012460020879
 30
0.0
 11
52.06685615177364
 21
219.6387460020885
 31
0.0
  0
LINE
  5
8B73
  8
0
 10
52.86435615177376
 20
217.1012460020879
 30
0.0
 11
52.86435615177376
 21
219.6387460020885
 31
0.0
  0
LINE
  5
8B74
  8
0
 10
55.7643561517734
 20
217.137496002088
 30
0.0
 11
55.7643561517734
 21
218.5874960020878
 31
0.0
  0
LINE
  5
8B75
  8
0
 10
52.06685615177364
 20
219.6387460020885
 30
0.0
 11
52.86435615177376
 21
219.6387460020885
 31
0.0
  0
LINE
  5
8B76
  8
0
 10
52.06685615177364
 20
217.1012460020879
 30
0.0
 11
52.86435615177376
 21
217.1012460020879
 31
0.0
  0
ARC
  5
8B77
  8
0
 10
55.03935615177349
 20
218.3699960020881
 30
0.0
 40
1.305
 50
84.27518954777628
 51
281.4211862750073
  0
ARC
  5
8B78
  8
0
 10
55.03935615177349
 20
218.3699960020881
 30
0.0
 40
0.5075000000000001
 50
84.27518954777645
 51
270.0
  0
CIRCLE
  5
8B79
  8
0
 10
57.28685615177343
 20
218.3699960020881
 30
0.0
 40
1.305
  0
CIRCLE
  5
8B7A
  8
0
 10
57.28685615177343
 20
218.3699960020881
 30
0.0
 40
0.5075000000000001
  0
LINE
  5
8B7B
  8
0
 10
55.03935615177349
 20
217.8624960020884
 30
0.0
 11
55.03935615177349
 21
218.5874960020878
 31
0.0
  0
LINE
  5
8B7C
  8
0
 10
55.03935615177349
 20
218.5874960020878
 30
0.0
 11
55.7643561517734
 21
218.5874960020878
 31
0.0
  0
LINE
  5
8B7D
  8
0
 10
55.29777199335783
 20
217.0908375862468
 30
0.0
 11
55.7643561517734
 21
217.137496002088
 31
0.0
  0
LINE
  5
8B7E
  8
0
 10
55.16953071536452
 20
219.6684872739086
 30
0.0
 11
55.7643561517734
 21
219.6387460020885
 31
0.0
  0
LINE
  5
8B7F
  8
0
 10
55.7643561517734
 20
219.6387460020885
 30
0.0
 11
55.7643561517734
 21
218.8412460020879
 31
0.0
  0
LINE
  5
8B80
  8
0
 10
55.7643561517734
 20
218.8412460020879
 30
0.0
 11
55.08997959317
 21
218.8749648300188
 31
0.0
  0
LINE
  5
8B81
  8
0
 10
58.80935615177347
 20
217.1012460020879
 30
0.0
 11
58.80935615177347
 21
219.6387460020885
 31
0.0
  0
LINE
  5
8B82
  8
0
 10
60.91185615177343
 20
217.1012460020879
 30
0.0
 11
60.91185615177343
 21
217.6812460020878
 31
0.0
  0
LINE
  5
8B83
  8
0
 10
60.91185615177343
 20
219.0587460020886
 30
0.0
 11
60.91185615177343
 21
219.6387460020885
 31
0.0
  0
LINE
  5
8B84
  8
0
 10
58.80935615177347
 20
217.1012460020879
 30
0.0
 11
59.6068561517736
 21
217.1012460020879
 31
0.0
  0
LINE
  5
8B85
  8
0
 10
58.80935615177347
 20
219.6387460020885
 30
0.0
 11
59.6068561517736
 21
219.6387460020885
 31
0.0
  0
LINE
  5
8B86
  8
0
 10
59.6068561517736
 20
219.6387460020885
 30
0.0
 11
59.6068561517736
 21
218.7687460020884
 31
0.0
  0
LINE
  5
8B87
  8
0
 10
60.11435615177376
 20
219.6387460020885
 30
0.0
 11
60.11435615177376
 21
219.0587460020886
 31
0.0
  0
LINE
  5
8B88
  8
0
 10
59.6068561517736
 20
217.1012460020879
 30
0.0
 11
59.6068561517736
 21
217.9712460020878
 31
0.0
  0
LINE
  5
8B89
  8
0
 10
60.11435615177376
 20
217.1012460020879
 30
0.0
 11
60.11435615177376
 21
217.6812460020878
 31
0.0
  0
ARC
  5
8B8A
  8
0
 10
59.82435615177334
 20
217.6812460020878
 30
0.0
 40
0.29
 50
0.0
 51
90.0
  0
ARC
  5
8B8B
  8
0
 10
59.82435615177334
 20
217.6812460020878
 30
0.0
 40
1.0875
 50
0.0
 51
39.29648023918966
  0
LINE
  5
8B8C
  8
0
 10
60.11435615177376
 20
219.6387460020885
 30
0.0
 11
60.91185615177343
 21
219.6387460020885
 31
0.0
  0
LINE
  5
8B8D
  8
0
 10
60.11435615177376
 20
217.1012460020879
 30
0.0
 11
60.91185615177343
 21
217.1012460020879
 31
0.0
  0
LINE
  5
8B8E
  8
0
 10
59.6068561517736
 20
218.7687460020884
 30
0.0
 11
59.82435615177334
 21
218.7687460020884
 31
0.0
  0
ARC
  5
8B8F
  8
0
 10
59.82435615177334
 20
219.0587460020886
 30
0.0
 40
0.29
 50
270.0
 51
0.0
  0
ARC
  5
8B90
  8
0
 10
59.82435615177334
 20
219.0587460020886
 30
0.0
 40
1.0875
 50
320.7035197608187
 51
0.0
  0
LINE
  5
8B91
  8
0
 10
59.6068561517736
 20
217.9712460020878
 30
0.0
 11
59.82435615177334
 21
217.9712460020878
 31
0.0
  0
LINE
  5
8B92
  8
0
 10
61.12935615177364
 20
217.1012460020879
 30
0.0
 11
61.12935615177364
 21
219.6387460020885
 31
0.0
  0
LINE
  5
8B93
  8
0
 10
61.92685615177376
 20
217.1012460020879
 30
0.0
 11
61.92685615177376
 21
219.6387460020885
 31
0.0
  0
LINE
  5
8B94
  8
0
 10
61.12935615177364
 20
219.6387460020885
 30
0.0
 11
61.92685615177376
 21
219.6387460020885
 31
0.0
  0
LINE
  5
8B95
  8
0
 10
61.12935615177364
 20
217.1012460020879
 30
0.0
 11
61.92685615177376
 21
217.1012460020879
 31
0.0
  0
LINE
  5
8B96
  8
0
 10
62.14435615177351
 20
217.1012460020879
 30
0.0
 11
62.14435615177351
 21
218.5874960020878
 31
0.0
  0
LINE
  5
8B97
  8
0
 10
64.24685615177347
 20
217.1012460020879
 30
0.0
 11
64.24685615177347
 21
218.5874960020878
 31
0.0
  0
LINE
  5
8B98
  8
0
 10
62.14435615177351
 20
217.1012460020879
 30
0.0
 11
62.94185615177364
 21
217.1012460020879
 31
0.0
  0
LINE
  5
8B99
  8
0
 10
62.94185615177364
 20
217.1012460020879
 30
0.0
 11
62.94185615177364
 21
218.5874960020878
 31
0.0
  0
LINE
  5
8B9A
  8
0
 10
63.44935615177334
 20
217.1012460020879
 30
0.0
 11
63.44935615177334
 21
218.5874960020878
 31
0.0
  0
LINE
  5
8B9B
  8
0
 10
63.44935615177334
 20
217.1012460020879
 30
0.0
 11
64.24685615177347
 21
217.1012460020879
 31
0.0
  0
ARC
  5
8B9C
  8
0
 10
63.19560615177349
 20
218.5874960020878
 30
0.0
 40
1.05125
 50
0.0
 51
180.0
  0
ARC
  5
8B9D
  8
0
 10
63.19560615177349
 20
218.5874960020878
 30
0.0
 40
0.25375
 50
0.0
 51
180.0
  0
CIRCLE
  5
8B9E
  8
0
 10
95.52185615177362
 20
209.8911378947828
 30
0.0
 40
8.25
  0
LINE
  5
8B9F
  8
0
 10
68.27185615177316
 20
203.8911378947822
 30
0.0
 11
68.27185615177316
 21
215.8911378947827
 31
0.0
  0
ARC
  5
8BA0
  8
0
 10
70.27185615177316
 20
203.8911378947822
 30
0.0
 40
2.0
 50
180.0
 51
270.0
1001
GENIUS_GENOBJ-N-FIL_13
1002
{
1000
OWNER
1000
GEN
1002
}
1001
GENIUS_GENODEF_13
1002
{
1000
HIER
1070
     0
1002
}
1002
{
1000
MANEDIT
1070
     0
1002
}
1002
{
1000
NOSEL
1070
     0
1002
}
1002
{
1000
BEHIND
1070
     0
1002
}
1002
{
1000
OTHER
1070
     0
1002
}
1002
{
1000
REACTOR
1002
}
  0
LINE
  5
8BA1
  8
0
 10
86.27185615177225
 20
203.8911378947822
 30
0.0
 11
86.27185615177225
 21
215.8911378947818
 31
0.0
  0
ARC
  5
8BA2
  8
0
 10
84.27185615177225
 20
215.8911378947818
 30
0.0
 40
2.0
 50
0.0
 51
90.0
1001
GENIUS_GENODEF_13
1002
{
1000
HIER
1070
     0
1002
}
1002
{
1000
MANEDIT
1070
     0
1002
}
1002
{
1000
NOSEL
1070
     0
1002
}
1002
{
1000
BEHIND
1070
     0
1002
}
1002
{
1000
OTHER
1070
     0
1002
}
1002
{
1000
REACTOR
1002
}
1001
GENIUS_GENOBJ-N-FIL_13
1002
{
1000
OWNER
1000
GEN
1002
}
  0
LINE
  5
8BA3
  8
0
 10
86.27185615177225
 20
209.3911378947822
 30
0.0
 11
86.24963589325924
 21
209.3911378947822
 31
0.0
  0
LINE
  5
8BA4
  8
0
 10
84.82185615177266
 20
209.5411378947821
 30
0.0
 11
69.72185615177276
 21
209.5411378947821
 31
0.0
  0
LINE
  5
8BA5
  8
0
 10
86.27185615177225
 20
210.3911378947822
 30
0.0
 11
86.24963589325924
 21
210.3911378947822
 31
0.0
  0
LINE
  5
8BA6
  8
0
 10
84.82185615177266
 20
210.2411378947821
 30
0.0
 11
69.72185615177276
 21
210.2411378947821
 31
0.0
  0
CIRCLE
  5
8BA7
  8
0
 10
77.47346969118828
 20
213.8911378947827
 30
0.0
 40
2.0
  0
LINE
  5
8BA8
  8
0
 10
84.27185615177225
 20
217.8911378947818
 30
0.0
 11
70.27185615177316
 21
217.8911378947827
 31
0.0
  0
ARC
  5
8BA9
  8
0
 10
70.27185615177316
 20
215.8911378947827
 30
0.0
 40
2.0
 50
90.0
 51
180.0
1001
GENIUS_GENOBJ-N-FIL_13
1002
{
1000
OWNER
1000
GEN
1002
}
1001
GENIUS_GENODEF_13
1002
{
1000
HIER
1070
     0
1002
}
1002
{
1000
MANEDIT
1070
     0
1002
}
1002
{
1000
NOSEL
1070
     0
1002
}
1002
{
1000
BEHIND
1070
     0
1002
}
1002
{
1000
OTHER
1070
     0
1002
}
1002
{
1000
REACTOR
1002
}
  0
LINE
  5
8BAA
  8
0
 10
84.27185615177225
 20
201.8911378947822
 30
0.0
 11
70.27185615177316
 21
201.8911378947822
 31
0.0
  0
ARC
  5
8BAB
  8
0
 10
84.27185615177225
 20
203.8911378947822
 30
0.0
 40
2.0
 50
270.0
 51
0.0
1001
GENIUS_GENODEF_13
1002
{
1000
HIER
1070
     0
1002
}
1002
{
1000
MANEDIT
1070
     0
1002
}
1002
{
1000
NOSEL
1070
     0
1002
}
1002
{
1000
BEHIND
1070
     0
1002
}
1002
{
1000
OTHER
1070
     0
1002
}
1002
{
1000
REACTOR
1002
}
1001
GENIUS_GENOBJ-N-FIL_13
1002
{
1000
OWNER
1000
GEN
1002
}
  0
TEXT
  5
8BAC
  8
0
 10
41.65052034472347
 20
220.3458403975508
 30
0.0
 40
1.8
  1
電動水抜操作盤 EV1
  0
CIRCLE
  5
8BDD
  8
0
 10
65.8223181143355
 20
224.3743024200633
 30
0.0
 40
1.125
  0
TEXT
  5
8BDE
  8
0
 10
65.1023181143355
 20
223.6063024200633
 30
0.0
 40
1.44
  1
Ｒ
 72
     4
 11
65.8223181143355
 21
224.3743024200633
 31
0.0
  0
LINE
  5
8BE7
  8
0
 10
55.82185551549398
 20
248.2411378947829
 30
0.0
 11
55.82185551549398
 21
246.2411378947829
 31
0.0
  0
LINE
  5
8BE8
  8
0
 10
48.82185551549398
 20
248.2411378947829
 30
0.0
 11
48.82185551549398
 21
246.2411378947829
 31
0.0
  0
ARC
  5
8BE9
  8
0
 10
49.82185551549398
 20
248.2411378947829
 30
0.0
 40
1.0
 50
90.0
 51
180.0
  0
ARC
  5
8BEA
  8
0
 10
49.82185551549398
 20
246.2411378947829
 30
0.0
 40
1.0
 50
180.0
 51
270.0
  0
ARC
  5
8BEB
  8
0
 10
54.82185551549398
 20
246.2411378947829
 30
0.0
 40
1.0
 50
270.0
 51
0.0
  0
ARC
  5
8BEC
  8
0
 10
54.82185551549398
 20
248.2411378947829
 30
0.0
 40
1.0
 50
0.0
 51
90.0
  0
LINE
  5
8BED
  8
0
 10
49.82185551549398
 20
249.2411378947829
 30
0.0
 11
54.82185551549398
 21
249.2411378947829
 31
0.0
  0
LINE
  5
8BEE
  8
0
 10
49.82185551549398
 20
245.2411378947829
 30
0.0
 11
54.82185551549398
 21
245.2411378947829
 31
0.0
  0
TEXT
  5
8BEF
  8
0
 10
42.16044235838111
 20
246.2788620753643
 30
0.0
 40
2.0
  1
OFF
 41
1.5
  0
TEXT
  5
8BF0
  8
0
 10
57.20729150807283
 20
246.2788620753643
 30
0.0
 40
2.0
  1
ON
 41
1.5
  0
ARC
  5
8BF1
  8
0
 10
69.72185615177276
 20
209.8911378947822
 30
0.0
 40
0.3500000000000227
 50
90.0
 51
270.0
  0
ARC
  5
8BF2
  8
0
 10
84.82185615177266
 20
209.8911378947822
 30
0.0
 40
0.3500000000000227
 50
270.0
 51
90.0
  0
LINE
  5
8BF3
  8
0
 10
56.52185615177356
 20
212.8911378947828
 30
0.0
 11
64.52185615177356
 21
212.8911378947828
 31
0.0
  0
ARC
  5
8BF4
  8
0
 10
64.52185615177356
 20
210.8911378947828
 30
0.0
 40
2.0
 50
0.0
 51
90.0
  0
ARC
  5
8BF5
  8
0
 10
56.52185615177356
 20
210.8911378947828
 30
0.0
 40
2.0
 50
90.0
 51
180.0
  0
ARC
  5
8BF6
  8
0
 10
64.52185615177356
 20
203.8911378947823
 30
0.0
 40
2.0
 50
270.0
 51
0.0
  0
LINE
  5
8BF7
  8
0
 10
66.52185615177356
 20
203.8911378947823
 30
0.0
 11
66.52185615177356
 21
210.8911378947828
 31
0.0
  0
LINE
  5
8BF8
  8
0
 10
56.52185615177356
 20
201.8911378947823
 30
0.0
 11
64.52185615177356
 21
201.8911378947823
 31
0.0
  0
ARC
  5
8BF9
  8
0
 10
56.52185615177356
 20
203.8911378947823
 30
0.0
 40
2.0
 50
180.0
 51
270.0
  0
LINE
  5
8BFA
  8
0
 10
54.52185615177356
 20
203.8911378947823
 30
0.0
 11
54.52185615177356
 21
210.8911378947828
 31
0.0
  0
TEXT
  5
8BFB
  8
0
 10
55.65609042412062
 20
203.1068572884689
 30
0.0
 40
1.9
  1
点検
  0
ARC
  5
8BFC
  8
0
 10
64.27349234550172
 20
204.4584536602053
 30
0.0
 40
0.9999999999999992
 50
233.0491207032591
 51
57.32628399712605
  0
LINE
  5
8BFD
  8
0
 10
63.67236222803115
 20
203.6593024968641
 30
0.0
 11
58.96522801641655
 21
207.2000595793471
 31
0.0
  0
LINE
  5
8BFE
  8
0
 10
59.85524786706134
 20
208.4800440088158
 30
0.0
 11
64.81334657256386
 21
205.3002121846787
 31
0.0
  0
ARC
  5
8BFF
  8
0
 10
57.4055967728643
 20
209.2339519014898
 30
0.0
 40
1.99079584716086
 50
1.683229077249547
 51
160.7903378653517
  0
ARC
  5
8C00
  8
0
 10
60.3951020941239
 20
209.321802533289
 30
0.0
 40
0.9999999999999992
 50
181.6832290772424
 51
237.326283997126
1001
GENIUS_GENODEF_13
1002
{
1000
HIER
1070
     0
1002
}
1002
{
1000
MANEDIT
1070
     0
1002
}
1002
{
1000
NOSEL
1070
     0
1002
}
1002
{
1000
BEHIND
1070
     0
1002
}
1002
{
1000
OTHER
1070
     0
1002
}
1002
{
1000
REACTOR
1002
}
1001
GENIUS_GENOBJ-N-FIL_13
1002
{
1000
OWNER
1000
GEN
1002
}
  0
ARC
  5
8C01
  8
0
 10
57.4055967728643
 20
209.2339519014898
 30
0.0
 40
1.99079584716086
 50
219.5850668351122
 51
288.6921756231417
  0
ARC
  5
8C02
  8
0
 10
58.36409789894634
 20
206.4009084160056
 30
0.0
 40
0.9999999999999992
 50
53.04912070325908
 51
108.6921756231398
1001
GENIUS_GENOBJ-N-FIL_13
1002
{
1000
OWNER
1000
GEN
1002
}
1001
GENIUS_GENODEF_13
1002
{
1000
HIER
1070
     0
1002
}
1002
{
1000
MANEDIT
1070
     0
1002
}
1002
{
1000
NOSEL
1070
     0
1002
}
1002
{
1000
BEHIND
1070
     0
1002
}
1002
{
1000
OTHER
1070
     0
1002
}
1002
{
1000
REACTOR
1002
}
  0
LINE
  5
8C03
  8
0
 10
57.96654129808894
 20
209.3347574609663
 30
0.0
 11
57.58408692139591
 21
208.2731645409264
 31
0.0
  0
LINE
  5
8C04
  8
0
 10
57.58408692139591
 20
208.2731645409264
 30
0.0
 11
55.87133152286603
 21
207.9653707067212
 31
0.0
  0
LINE
  5
8C05
  8
0
 10
57.96654129808883
 20
209.3347574609669
 30
0.0
 11
57.23840204920211
 21
210.1967691269913
 31
0.0
  0
LINE
  5
8C06
  8
0
 10
57.23840204920211
 20
210.1967691269913
 30
0.0
 11
55.52564665067197
 21
209.8889752927857
 31
0.0
  0
CIRCLE
  5
8C07
  8
0
 10
64.27349234550172
 20
204.4584536602053
 30
0.0
 40
0.4999999999999996
  0
LINE
  5
8C08
  8
0
 10
42.53436654623872
 20
212.5722728947823
 30
0.0
 11
44.87114804623874
 21
212.5722728947823
 31
0.0
  0
LINE
  5
8C09
  8
0
 10
44.87114804623874
 20
212.5722728947823
 30
0.0
 11
44.87114804623874
 21
212.9062567947823
 31
0.0
  0
LINE
  5
8C0A
  8
0
 10
44.87114804623874
 20
212.9062567947823
 30
0.0
 11
42.53436654623872
 21
212.9062567947823
 31
0.0
  0
LINE
  5
8C0B
  8
0
 10
42.53436654623872
 20
212.9062567947823
 30
0.0
 11
42.53436654623872
 21
212.5722728947823
 31
0.0
  0
LINE
  5
8C0C
  8
0
 10
45.5387415462387
 20
212.5722728947823
 30
0.0
 11
46.5399560462387
 21
212.5722728947823
 31
0.0
  0
LINE
  5
8C0D
  8
0
 10
46.5399560462387
 20
212.5722728947823
 30
0.0
 11
46.5399560462387
 21
212.9062567947823
 31
0.0
  0
LINE
  5
8C0E
  8
0
 10
46.5399560462387
 20
212.9062567947823
 30
0.0
 11
45.5387415462387
 21
212.9062567947823
 31
0.0
  0
LINE
  5
8C0F
  8
0
 10
45.5387415462387
 20
212.9062567947823
 30
0.0
 11
45.5387415462387
 21
212.5722728947823
 31
0.0
  0
LINE
  5
8C10
  8
0
 10
47.20751154623872
 20
212.5722728947823
 30
0.0
 11
47.54149544623874
 21
212.5722728947823
 31
0.0
  0
LINE
  5
8C11
  8
0
 10
47.54149544623874
 20
212.5722728947823
 30
0.0
 11
47.54149544623874
 21
212.9062567947823
 31
0.0
  0
LINE
  5
8C12
  8
0
 10
47.54149544623874
 20
212.9062567947823
 30
0.0
 11
47.20751154623872
 21
212.9062567947823
 31
0.0
  0
LINE
  5
8C13
  8
0
 10
47.20751154623872
 20
212.9062567947823
 30
0.0
 11
47.20751154623872
 21
212.5722728947823
 31
0.0
  0
LINE
  5
8C14
  8
0
 10
47.87507654623872
 20
212.5722728947823
 30
0.0
 11
48.20906139623872
 21
212.5722728947823
 31
0.0
  0
LINE
  5
8C15
  8
0
 10
48.20906139623872
 20
212.5722728947823
 30
0.0
 11
48.20906139623872
 21
212.9062567947823
 31
0.0
  0
LINE
  5
8C16
  8
0
 10
48.20906139623872
 20
212.9062567947823
 30
0.0
 11
47.87507654623872
 21
212.9062567947823
 31
0.0
  0
LINE
  5
8C17
  8
0
 10
47.87507654623872
 20
212.9062567947823
 30
0.0
 11
47.87507654623872
 21
212.5722728947823
 31
0.0
  0
LINE
  5
8C18
  8
0
 10
48.54273654623873
 20
212.5722728947823
 30
0.0
 11
48.87672139623871
 21
212.5722728947823
 31
0.0
  0
LINE
  5
8C19
  8
0
 10
48.87672139623871
 20
212.5722728947823
 30
0.0
 11
48.87672139623871
 21
212.9062567947823
 31
0.0
  0
LINE
  5
8C1A
  8
0
 10
48.87672139623871
 20
212.9062567947823
 30
0.0
 11
48.54273654623873
 21
212.9062567947823
 31
0.0
  0
LINE
  5
8C1B
  8
0
 10
48.54273654623873
 20
212.9062567947823
 30
0.0
 11
48.54273654623873
 21
212.5722728947823
 31
0.0
  0
LINE
  5
8C1C
  8
0
 10
49.87748654623871
 20
212.5722728947823
 30
0.0
 11
50.21147044623874
 21
212.5722728947823
 31
0.0
  0
LINE
  5
8C1D
  8
0
 10
50.21147044623874
 20
212.5722728947823
 30
0.0
 11
50.21147044623874
 21
212.9062567947823
 31
0.0
  0
LINE
  5
8C1E
  8
0
 10
50.21147044623874
 20
212.9062567947823
 30
0.0
 11
49.87748654623871
 21
212.9062567947823
 31
0.0
  0
LINE
  5
8C1F
  8
0
 10
49.87748654623871
 20
212.9062567947823
 30
0.0
 11
49.87748654623871
 21
212.5722728947823
 31
0.0
  0
LINE
  5
8C21
  8
0
 10
51.54707544623872
 20
212.5722728947823
 30
0.0
 11
53.21550154623873
 21
212.5722728947823
 31
0.0
  0
LINE
  5
8C22
  8
0
 10
53.54987304623873
 20
210.5691028947823
 30
0.0
 11
53.54987304623873
 21
212.9062567947823
 31
0.0
  0
LINE
  5
8C23
  8
0
 10
53.54987304623873
 20
212.9062567947823
 30
0.0
 11
51.21309154623873
 21
212.9062567947823
 31
0.0
  0
LINE
  5
8C24
  8
0
 10
51.21309154623873
 20
212.9062567947823
 30
0.0
 11
51.21309154623873
 21
210.5691028947823
 31
0.0
  0
LINE
  5
8C25
  8
0
 10
42.53436654623872
 20
212.2383478947823
 30
0.0
 11
42.86872189623872
 21
212.2383478947823
 31
0.0
  0
LINE
  5
8C26
  8
0
 10
42.86872189623872
 20
212.2383478947823
 30
0.0
 11
42.86872189623872
 21
212.5723327447823
 31
0.0
  0
LINE
  5
8C27
  8
0
 10
42.86872189623872
 20
212.5723327447823
 30
0.0
 11
42.53436654623872
 21
212.5723327447823
 31
0.0
  0
LINE
  5
8C28
  8
0
 10
42.53436654623872
 20
212.5723327447823
 30
0.0
 11
42.53436654623872
 21
212.2383478947823
 31
0.0
  0
LINE
  5
8C29
  8
0
 10
44.53744154623871
 20
212.2383478947823
 30
0.0
 11
44.8714254462387
 21
212.2383478947823
 31
0.0
  0
LINE
  5
8C2A
  8
0
 10
44.8714254462387
 20
212.2383478947823
 30
0.0
 11
44.8714254462387
 21
212.5723327447823
 31
0.0
  0
LINE
  5
8C2B
  8
0
 10
44.8714254462387
 20
212.5723327447823
 30
0.0
 11
44.53744154623871
 21
212.5723327447823
 31
0.0
  0
LINE
  5
8C2C
  8
0
 10
44.53744154623871
 20
212.5723327447823
 30
0.0
 11
44.53744154623871
 21
212.2383478947823
 31
0.0
  0
LINE
  5
8C2D
  8
0
 10
45.20510154623872
 20
212.2383478947823
 30
0.0
 11
46.20668654623873
 21
212.2383478947823
 31
0.0
  0
LINE
  5
8C2E
  8
0
 10
46.20668654623873
 20
212.2383478947823
 30
0.0
 11
46.20668654623873
 21
212.5723327447823
 31
0.0
  0
LINE
  5
8C2F
  8
0
 10
46.20668654623873
 20
212.5723327447823
 30
0.0
 11
45.20510154623872
 21
212.5723327447823
 31
0.0
  0
LINE
  5
8C30
  8
0
 10
45.20510154623872
 20
212.5723327447823
 30
0.0
 11
45.20510154623872
 21
212.2383478947823
 31
0.0
  0
LINE
  5
8C31
  8
0
 10
46.54032654623873
 20
212.2383478947823
 30
0.0
 11
47.54154104623873
 21
212.2383478947823
 31
0.0
  0
LINE
  5
8C32
  8
0
 10
47.54154104623873
 20
212.2383478947823
 30
0.0
 11
47.54154104623873
 21
212.5723327447823
 31
0.0
  0
LINE
  5
8C33
  8
0
 10
47.54154104623873
 20
212.5723327447823
 30
0.0
 11
46.54032654623873
 21
212.5723327447823
 31
0.0
  0
LINE
  5
8C34
  8
0
 10
46.54032654623873
 20
212.5723327447823
 30
0.0
 11
46.54032654623873
 21
212.2383478947823
 31
0.0
  0
LINE
  5
8C35
  8
0
 10
48.20909654623873
 20
212.2383478947823
 30
0.0
 11
48.54308044623872
 21
212.2383478947823
 31
0.0
  0
LINE
  5
8C36
  8
0
 10
48.54308044623872
 20
212.2383478947823
 30
0.0
 11
48.54308044623872
 21
212.5723327447823
 31
0.0
  0
LINE
  5
8C37
  8
0
 10
48.54308044623872
 20
212.5723327447823
 30
0.0
 11
48.20909654623873
 21
212.5723327447823
 31
0.0
  0
LINE
  5
8C38
  8
0
 10
48.20909654623873
 20
212.5723327447823
 30
0.0
 11
48.20909654623873
 21
212.2383478947823
 31
0.0
  0
LINE
  5
8C39
  8
0
 10
49.20992154623872
 20
212.2383478947823
 30
0.0
 11
49.54427689623873
 21
212.2383478947823
 31
0.0
  0
LINE
  5
8C3A
  8
0
 10
49.54427689623873
 20
212.2383478947823
 30
0.0
 11
49.54427689623873
 21
212.5723327447823
 31
0.0
  0
LINE
  5
8C3B
  8
0
 10
49.54427689623873
 20
212.5723327447823
 30
0.0
 11
49.20992154623872
 21
212.5723327447823
 31
0.0
  0
LINE
  5
8C3C
  8
0
 10
49.20992154623872
 20
212.5723327447823
 30
0.0
 11
49.20992154623872
 21
212.2383478947823
 31
0.0
  0
LINE
  5
8C3D
  8
0
 10
49.87748654623871
 20
212.2383478947823
 30
0.0
 11
50.21147044623874
 21
212.2383478947823
 31
0.0
  0
LINE
  5
8C3E
  8
0
 10
50.21147044623874
 20
212.2383478947823
 30
0.0
 11
50.21147044623874
 21
212.5723327447823
 31
0.0
  0
LINE
  5
8C3F
  8
0
 10
50.21147044623874
 20
212.5723327447823
 30
0.0
 11
49.87748654623871
 21
212.5723327447823
 31
0.0
  0
LINE
  5
8C40
  8
0
 10
49.87748654623871
 20
212.5723327447823
 30
0.0
 11
49.87748654623871
 21
212.2383478947823
 31
0.0
  0
LINE
  5
8C41
  8
0
 10
50.54590654623871
 20
212.2383478947823
 30
0.0
 11
50.87989139623872
 21
212.2383478947823
 31
0.0
  0
LINE
  5
8C43
  8
0
 10
50.87989139623872
 20
212.2383032447823
 30
0.0
 11
50.87989139623872
 21
212.5723327447823
 31
0.0
  0
LINE
  5
8C44
  8
0
 10
50.87989139623872
 20
212.5723327447823
 30
0.0
 11
50.54590654623871
 21
212.5723327447823
 31
0.0
  0
LINE
  5
8C45
  8
0
 10
50.54590654623871
 20
212.5723327447823
 30
0.0
 11
50.54590654623871
 21
212.2383032447823
 31
0.0
  0
LINE
  5
8C46
  8
0
 10
42.53436654623872
 20
211.9039478947823
 30
0.0
 11
42.86872189623872
 21
211.9039478947823
 31
0.0
  0
LINE
  5
8C47
  8
0
 10
42.86872189623872
 20
211.9039478947823
 30
0.0
 11
42.86872189623872
 21
212.2383032447823
 31
0.0
  0
LINE
  5
8C48
  8
0
 10
42.86872189623872
 20
212.2383032447823
 30
0.0
 11
42.53436654623872
 21
212.2383032447823
 31
0.0
  0
LINE
  5
8C49
  8
0
 10
42.53436654623872
 20
212.2383032447823
 30
0.0
 11
42.53436654623872
 21
211.9039478947823
 31
0.0
  0
LINE
  5
8C4A
  8
0
 10
43.20193154623871
 20
211.9039478947823
 30
0.0
 11
44.20351654623872
 21
211.9039478947823
 31
0.0
  0
LINE
  5
8C4B
  8
0
 10
44.20351654623872
 20
211.9039478947823
 30
0.0
 11
44.20351654623872
 21
212.2383032447823
 31
0.0
  0
LINE
  5
8C4C
  8
0
 10
44.20351654623872
 20
212.2383032447823
 30
0.0
 11
43.20193154623871
 21
212.2383032447823
 31
0.0
  0
LINE
  5
8C4D
  8
0
 10
43.20193154623871
 20
212.2383032447823
 30
0.0
 11
43.20193154623871
 21
211.9039478947823
 31
0.0
  0
LINE
  5
8C4E
  8
0
 10
44.53744154623871
 20
211.9039478947823
 30
0.0
 11
44.8714254462387
 21
211.9039478947823
 31
0.0
  0
LINE
  5
8C4F
  8
0
 10
44.8714254462387
 20
211.9039478947823
 30
0.0
 11
44.8714254462387
 21
212.2383032447823
 31
0.0
  0
LINE
  5
8C50
  8
0
 10
44.8714254462387
 20
212.2383032447823
 30
0.0
 11
44.53744154623871
 21
212.2383032447823
 31
0.0
  0
LINE
  5
8C51
  8
0
 10
44.53744154623871
 20
212.2383032447823
 30
0.0
 11
44.53744154623871
 21
211.9039478947823
 31
0.0
  0
LINE
  5
8C52
  8
0
 10
45.20510154623872
 20
211.9039478947823
 30
0.0
 11
46.20668654623873
 21
211.9039478947823
 31
0.0
  0
LINE
  5
8C53
  8
0
 10
46.20668654623873
 20
211.9039478947823
 30
0.0
 11
46.20668654623873
 21
212.2383032447823
 31
0.0
  0
LINE
  5
8C54
  8
0
 10
46.20668654623873
 20
212.2383032447823
 30
0.0
 11
45.20510154623872
 21
212.2383032447823
 31
0.0
  0
LINE
  5
8C55
  8
0
 10
45.20510154623872
 20
212.2383032447823
 30
0.0
 11
45.20510154623872
 21
211.9039478947823
 31
0.0
  0
LINE
  5
8C56
  8
0
 10
46.54032654623873
 20
211.9039478947823
 30
0.0
 11
47.20755334623871
 21
211.9039478947823
 31
0.0
  0
LINE
  5
8C57
  8
0
 10
47.20755334623871
 20
211.9039478947823
 30
0.0
 11
47.20755334623871
 21
212.2383032447823
 31
0.0
  0
LINE
  5
8C58
  8
0
 10
47.20755334623871
 20
212.2383032447823
 30
0.0
 11
46.54032654623873
 21
212.2383032447823
 31
0.0
  0
LINE
  5
8C59
  8
0
 10
46.54032654623873
 20
212.2383032447823
 30
0.0
 11
46.54032654623873
 21
211.9039478947823
 31
0.0
  0
LINE
  5
8C5A
  8
0
 10
47.54153154623873
 20
211.9039478947823
 30
0.0
 11
47.87588689623874
 21
211.9039478947823
 31
0.0
  0
LINE
  5
8C5B
  8
0
 10
47.87588689623874
 20
211.9039478947823
 30
0.0
 11
47.87588689623874
 21
212.2383032447823
 31
0.0
  0
LINE
  5
8C5C
  8
0
 10
47.87588689623874
 20
212.2383032447823
 30
0.0
 11
47.54153154623873
 21
212.2383032447823
 31
0.0
  0
LINE
  5
8C5D
  8
0
 10
47.54153154623873
 20
212.2383032447823
 30
0.0
 11
47.54153154623873
 21
211.9039478947823
 31
0.0
  0
LINE
  5
8C5E
  8
0
 10
48.20909654623873
 20
211.9039478947823
 30
0.0
 11
49.21068154623873
 21
211.9039478947823
 31
0.0
  0
LINE
  5
8C5F
  8
0
 10
49.21068154623873
 20
211.9039478947823
 30
0.0
 11
49.21068154623873
 21
212.2383032447823
 31
0.0
  0
LINE
  5
8C60
  8
0
 10
49.21068154623873
 20
212.2383032447823
 30
0.0
 11
48.20909654623873
 21
212.2383032447823
 31
0.0
  0
LINE
  5
8C61
  8
0
 10
48.20909654623873
 20
212.2383032447823
 30
0.0
 11
48.20909654623873
 21
211.9039478947823
 31
0.0
  0
LINE
  5
8C62
  8
0
 10
49.54432154623871
 20
211.9039478947823
 30
0.0
 11
49.87830639623871
 21
211.9039478947823
 31
0.0
  0
LINE
  5
8C63
  8
0
 10
49.87830639623871
 20
211.9039478947823
 30
0.0
 11
49.87830639623871
 21
212.2383032447823
 31
0.0
  0
LINE
  5
8C64
  8
0
 10
49.87830639623871
 20
212.2383032447823
 30
0.0
 11
49.54432154623871
 21
212.2383032447823
 31
0.0
  0
LINE
  5
8C65
  8
0
 10
49.54432154623871
 20
212.2383032447823
 30
0.0
 11
49.54432154623871
 21
211.9039478947823
 31
0.0
  0
LINE
  5
8C66
  8
0
 10
50.54590654623871
 20
211.9039478947823
 30
0.0
 11
50.87989139623872
 21
211.9039478947823
 31
0.0
  0
LINE
  5
8C67
  8
0
 10
50.87989139623872
 20
211.9039478947823
 30
0.0
 11
50.87989139623872
 21
212.2383032447823
 31
0.0
  0
LINE
  5
8C68
  8
0
 10
50.87989139623872
 20
212.2383032447823
 30
0.0
 11
50.54590654623871
 21
212.2383032447823
 31
0.0
  0
LINE
  5
8C69
  8
0
 10
50.54590654623871
 20
212.2383032447823
 30
0.0
 11
50.54590654623871
 21
211.9039478947823
 31
0.0
  0
LINE
  5
8C6B
  8
0
 10
52.8822415462387
 20
211.2367628947823
 30
0.0
 11
52.8822415462387
 21
212.2383032447823
 31
0.0
  0
LINE
  5
8C6C
  8
0
 10
52.8822415462387
 20
212.2383032447823
 30
0.0
 11
51.88065654623873
 21
212.2383032447823
 31
0.0
  0
LINE
  5
8C6D
  8
0
 10
51.88065654623873
 20
212.2383032447823
 30
0.0
 11
51.88065654623873
 21
211.2367628947823
 31
0.0
  0
LINE
  5
8C6E
  8
0
 10
42.53436654623872
 20
211.5706878947823
 30
0.0
 11
42.86872189623872
 21
211.5706878947823
 31
0.0
  0
LINE
  5
8C6F
  8
0
 10
42.86872189623872
 20
211.5706878947823
 30
0.0
 11
42.86872189623872
 21
211.9046717947823
 31
0.0
  0
LINE
  5
8C70
  8
0
 10
42.86872189623872
 20
211.9046717947823
 30
0.0
 11
42.53436654623872
 21
211.9046717947823
 31
0.0
  0
LINE
  5
8C71
  8
0
 10
42.53436654623872
 20
211.9046717947823
 30
0.0
 11
42.53436654623872
 21
211.5706878947823
 31
0.0
  0
LINE
  5
8C72
  8
0
 10
43.20193154623871
 20
211.5706878947823
 30
0.0
 11
44.20351654623872
 21
211.5706878947823
 31
0.0
  0
LINE
  5
8C73
  8
0
 10
44.20351654623872
 20
211.5706878947823
 30
0.0
 11
44.20351654623872
 21
211.9046717947823
 31
0.0
  0
LINE
  5
8C74
  8
0
 10
44.20351654623872
 20
211.9046717947823
 30
0.0
 11
43.20193154623871
 21
211.9046717947823
 31
0.0
  0
LINE
  5
8C75
  8
0
 10
43.20193154623871
 20
211.9046717947823
 30
0.0
 11
43.20193154623871
 21
211.5706878947823
 31
0.0
  0
LINE
  5
8C76
  8
0
 10
44.53744154623871
 20
211.5706878947823
 30
0.0
 11
44.8714254462387
 21
211.5706878947823
 31
0.0
  0
LINE
  5
8C77
  8
0
 10
44.8714254462387
 20
211.5706878947823
 30
0.0
 11
44.8714254462387
 21
211.9046717947823
 31
0.0
  0
LINE
  5
8C78
  8
0
 10
44.8714254462387
 20
211.9046717947823
 30
0.0
 11
44.53744154623871
 21
211.9046717947823
 31
0.0
  0
LINE
  5
8C79
  8
0
 10
44.53744154623871
 20
211.9046717947823
 30
0.0
 11
44.53744154623871
 21
211.5706878947823
 31
0.0
  0
LINE
  5
8C7A
  8
0
 10
45.20510154623872
 20
211.5706878947823
 30
0.0
 11
45.53908639623873
 21
211.5706878947823
 31
0.0
  0
LINE
  5
8C7B
  8
0
 10
45.53908639623873
 20
211.5706878947823
 30
0.0
 11
45.53908639623873
 21
211.9046717947823
 31
0.0
  0
LINE
  5
8C7C
  8
0
 10
45.53908639623873
 20
211.9046717947823
 30
0.0
 11
45.20510154623872
 21
211.9046717947823
 31
0.0
  0
LINE
  5
8C7D
  8
0
 10
45.20510154623872
 20
211.9046717947823
 30
0.0
 11
45.20510154623872
 21
211.5706878947823
 31
0.0
  0
LINE
  5
8C7E
  8
0
 10
48.87666154623872
 20
211.5706878947823
 30
0.0
 11
49.21064544623871
 21
211.5706878947823
 31
0.0
  0
LINE
  5
8C7F
  8
0
 10
49.21064544623871
 20
211.5706878947823
 30
0.0
 11
49.21064544623871
 21
211.9046717947823
 31
0.0
  0
LINE
  5
8C80
  8
0
 10
49.21064544623871
 20
211.9046717947823
 30
0.0
 11
48.87666154623872
 21
211.9046717947823
 31
0.0
  0
LINE
  5
8C81
  8
0
 10
48.87666154623872
 20
211.9046717947823
 30
0.0
 11
48.87666154623872
 21
211.5706878947823
 31
0.0
  0
LINE
  5
8C82
  8
0
 10
49.54432154623871
 20
211.5706878947823
 30
0.0
 11
50.87914754623873
 21
211.5706878947823
 31
0.0
  0
LINE
  5
8C83
  8
0
 10
50.87914754623873
 20
211.5706878947823
 30
0.0
 11
50.87914754623873
 21
211.9046717947823
 31
0.0
  0
LINE
  5
8C84
  8
0
 10
50.87914754623873
 20
211.9046717947823
 30
0.0
 11
49.54432154623871
 21
211.9046717947823
 31
0.0
  0
LINE
  5
8C85
  8
0
 10
49.54432154623871
 20
211.9046717947823
 30
0.0
 11
49.54432154623871
 21
211.5706878947823
 31
0.0
  0
LINE
  5
8C86
  8
0
 10
42.53436654623872
 20
211.2367628947823
 30
0.0
 11
42.86872189623872
 21
211.2367628947823
 31
0.0
  0
LINE
  5
8C87
  8
0
 10
42.86872189623872
 20
211.2367628947823
 30
0.0
 11
42.86872189623872
 21
211.5707477447824
 31
0.0
  0
LINE
  5
8C88
  8
0
 10
42.86872189623872
 20
211.5707477447824
 30
0.0
 11
42.53436654623872
 21
211.5707477447824
 31
0.0
  0
LINE
  5
8C89
  8
0
 10
42.53436654623872
 20
211.5707477447824
 30
0.0
 11
42.53436654623872
 21
211.2367628947823
 31
0.0
  0
LINE
  5
8C8A
  8
0
 10
43.20193154623871
 20
211.2367628947823
 30
0.0
 11
44.20351654623872
 21
211.2367628947823
 31
0.0
  0
LINE
  5
8C8B
  8
0
 10
44.20351654623872
 20
211.2367628947823
 30
0.0
 11
44.20351654623872
 21
211.5707477447824
 31
0.0
  0
LINE
  5
8C8C
  8
0
 10
44.20351654623872
 20
211.5707477447824
 30
0.0
 11
43.20193154623871
 21
211.5707477447824
 31
0.0
  0
LINE
  5
8C8D
  8
0
 10
43.20193154623871
 20
211.5707477447824
 30
0.0
 11
43.20193154623871
 21
211.2367628947823
 31
0.0
  0
LINE
  5
8C8E
  8
0
 10
44.53744154623871
 20
211.2367628947823
 30
0.0
 11
44.8714254462387
 21
211.2367628947823
 31
0.0
  0
LINE
  5
8C8F
  8
0
 10
44.8714254462387
 20
211.2367628947823
 30
0.0
 11
44.8714254462387
 21
211.5707477447824
 31
0.0
  0
LINE
  5
8C90
  8
0
 10
44.8714254462387
 20
211.5707477447824
 30
0.0
 11
44.53744154623871
 21
211.5707477447824
 31
0.0
  0
LINE
  5
8C91
  8
0
 10
44.53744154623871
 20
211.5707477447824
 30
0.0
 11
44.53744154623871
 21
211.2367628947823
 31
0.0
  0
LINE
  5
8C92
  8
0
 10
45.5387415462387
 20
211.2367628947823
 30
0.0
 11
45.8727263962387
 21
211.2367628947823
 31
0.0
  0
LINE
  5
8C93
  8
0
 10
45.8727263962387
 20
211.2367628947823
 30
0.0
 11
45.8727263962387
 21
211.5707477447824
 31
0.0
  0
LINE
  5
8C94
  8
0
 10
45.8727263962387
 20
211.5707477447824
 30
0.0
 11
45.5387415462387
 21
211.5707477447824
 31
0.0
  0
LINE
  5
8C95
  8
0
 10
45.5387415462387
 20
211.5707477447824
 30
0.0
 11
45.5387415462387
 21
211.2367628947823
 31
0.0
  0
LINE
  5
8C96
  8
0
 10
46.20592654623871
 20
211.2367628947823
 30
0.0
 11
47.20751154623872
 21
211.2367628947823
 31
0.0
  0
LINE
  5
8C97
  8
0
 10
47.20751154623872
 20
211.2367628947823
 30
0.0
 11
47.20751154623872
 21
211.5707477447824
 31
0.0
  0
LINE
  5
8C98
  8
0
 10
47.20751154623872
 20
211.5707477447824
 30
0.0
 11
46.20592654623871
 21
211.5707477447824
 31
0.0
  0
LINE
  5
8C99
  8
0
 10
46.20592654623871
 20
211.5707477447824
 30
0.0
 11
46.20592654623871
 21
211.2367628947823
 31
0.0
  0
LINE
  5
8C9A
  8
0
 10
47.54153154623873
 20
211.2367628947823
 30
0.0
 11
47.87588689623874
 21
211.2367628947823
 31
0.0
  0
LINE
  5
8C9B
  8
0
 10
47.87588689623874
 20
211.2367628947823
 30
0.0
 11
47.87588689623874
 21
211.5707477447824
 31
0.0
  0
LINE
  5
8C9C
  8
0
 10
47.87588689623874
 20
211.5707477447824
 30
0.0
 11
47.54153154623873
 21
211.5707477447824
 31
0.0
  0
LINE
  5
8C9D
  8
0
 10
47.54153154623873
 20
211.5707477447824
 30
0.0
 11
47.54153154623873
 21
211.2367628947823
 31
0.0
  0
LINE
  5
8C9E
  8
0
 10
48.20909654623873
 20
211.2367628947823
 30
0.0
 11
48.87669384623871
 21
211.2367628947823
 31
0.0
  0
LINE
  5
8C9F
  8
0
 10
48.87669384623871
 20
211.2367628947823
 30
0.0
 11
48.87669384623871
 21
211.5707477447824
 31
0.0
  0
LINE
  5
8CA0
  8
0
 10
48.87669384623871
 20
211.5707477447824
 30
0.0
 11
48.20909654623873
 21
211.5707477447824
 31
0.0
  0
LINE
  5
8CA1
  8
0
 10
48.20909654623873
 20
211.5707477447824
 30
0.0
 11
48.20909654623873
 21
211.2367628947823
 31
0.0
  0
LINE
  5
8CA2
  8
0
 10
50.21150654623872
 20
211.2367628947823
 30
0.0
 11
50.54586189623873
 21
211.2367628947823
 31
0.0
  0
LINE
  5
8CA3
  8
0
 10
50.54586189623873
 20
211.2367628947823
 30
0.0
 11
50.54586189623873
 21
211.5707477447824
 31
0.0
  0
LINE
  5
8CA4
  8
0
 10
50.54586189623873
 20
211.5707477447824
 30
0.0
 11
50.21150654623872
 21
211.5707477447824
 31
0.0
  0
LINE
  5
8CA5
  8
0
 10
50.21150654623872
 20
211.5707477447824
 30
0.0
 11
50.21150654623872
 21
211.2367628947823
 31
0.0
  0
LINE
  5
8CA6
  8
0
 10
51.88065654623873
 20
211.2367628947823
 30
0.0
 11
52.8822415462387
 21
211.2367628947823
 31
0.0
  0
LINE
  5
8CA7
  8
0
 10
42.53436654623872
 20
210.9031228947823
 30
0.0
 11
42.86872189623872
 21
210.9031228947823
 31
0.0
  0
LINE
  5
8CA8
  8
0
 10
42.86872189623872
 20
210.9031228947823
 30
0.0
 11
42.86872189623872
 21
211.2371077447823
 31
0.0
  0
LINE
  5
8CA9
  8
0
 10
42.86872189623872
 20
211.2371077447823
 30
0.0
 11
42.53436654623872
 21
211.2371077447823
 31
0.0
  0
LINE
  5
8CAA
  8
0
 10
42.53436654623872
 20
211.2371077447823
 30
0.0
 11
42.53436654623872
 21
210.9031228947823
 31
0.0
  0
LINE
  5
8CAB
  8
0
 10
44.53744154623871
 20
210.9031228947823
 30
0.0
 11
44.8714254462387
 21
210.9031228947823
 31
0.0
  0
LINE
  5
8CAC
  8
0
 10
44.8714254462387
 20
210.9031228947823
 30
0.0
 11
44.8714254462387
 21
211.2371077447823
 31
0.0
  0
LINE
  5
8CAD
  8
0
 10
44.8714254462387
 20
211.2371077447823
 30
0.0
 11
44.53744154623871
 21
211.2371077447823
 31
0.0
  0
LINE
  5
8CAE
  8
0
 10
44.53744154623871
 20
211.2371077447823
 30
0.0
 11
44.53744154623871
 21
210.9031228947823
 31
0.0
  0
LINE
  5
8CAF
  8
0
 10
46.87349154623871
 20
210.9031228947823
 30
0.0
 11
47.54108979623874
 21
210.9031228947823
 31
0.0
  0
LINE
  5
8CB0
  8
0
 10
47.54108979623874
 20
210.9031228947823
 30
0.0
 11
47.54108979623874
 21
211.2371077447823
 31
0.0
  0
LINE
  5
8CB1
  8
0
 10
47.54108979623874
 20
211.2371077447823
 30
0.0
 11
46.87349154623871
 21
211.2371077447823
 31
0.0
  0
LINE
  5
8CB2
  8
0
 10
46.87349154623871
 20
211.2371077447823
 30
0.0
 11
46.87349154623871
 21
210.9031228947823
 31
0.0
  0
LINE
  5
8CB3
  8
0
 10
47.87507654623872
 20
210.9031228947823
 30
0.0
 11
48.20906139623872
 21
210.9031228947823
 31
0.0
  0
LINE
  5
8CB4
  8
0
 10
48.20906139623872
 20
210.9031228947823
 30
0.0
 11
48.20906139623872
 21
211.2371077447823
 31
0.0
  0
LINE
  5
8CB5
  8
0
 10
48.20906139623872
 20
211.2371077447823
 30
0.0
 11
47.87507654623872
 21
211.2371077447823
 31
0.0
  0
LINE
  5
8CB6
  8
0
 10
47.87507654623872
 20
211.2371077447823
 30
0.0
 11
47.87507654623872
 21
210.9031228947823
 31
0.0
  0
LINE
  5
8CB7
  8
0
 10
48.54273654623873
 20
210.9031228947823
 30
0.0
 11
48.87672139623871
 21
210.9031228947823
 31
0.0
  0
LINE
  5
8CB8
  8
0
 10
48.87672139623871
 20
210.9031228947823
 30
0.0
 11
48.87672139623871
 21
211.2371077447823
 31
0.0
  0
LINE
  5
8CB9
  8
0
 10
48.87672139623871
 20
211.2371077447823
 30
0.0
 11
48.54273654623873
 21
211.2371077447823
 31
0.0
  0
LINE
  5
8CBA
  8
0
 10
48.54273654623873
 20
211.2371077447823
 30
0.0
 11
48.54273654623873
 21
210.9031228947823
 31
0.0
  0
LINE
  5
8CBB
  8
0
 10
49.20992154623872
 20
210.9031228947823
 30
0.0
 11
49.54427689623873
 21
210.9031228947823
 31
0.0
  0
LINE
  5
8CBC
  8
0
 10
49.54427689623873
 20
210.9031228947823
 30
0.0
 11
49.54427689623873
 21
211.2371077447823
 31
0.0
  0
LINE
  5
8CBD
  8
0
 10
49.54427689623873
 20
211.2371077447823
 30
0.0
 11
49.20992154623872
 21
211.2371077447823
 31
0.0
  0
LINE
  5
8CBE
  8
0
 10
49.20992154623872
 20
211.2371077447823
 30
0.0
 11
49.20992154623872
 21
210.9031228947823
 31
0.0
  0
LINE
  5
8CBF
  8
0
 10
51.54707544623872
 20
210.9030867947823
 30
0.0
 11
51.54707544623872
 21
212.5722728947823
 31
0.0
  0
LINE
  5
8CC0
  8
0
 10
53.21550154623873
 20
212.5722728947823
 30
0.0
 11
53.21550154623873
 21
210.9030867947823
 31
0.0
  0
LINE
  5
8CC1
  8
0
 10
42.53436654623872
 20
210.5691028947823
 30
0.0
 11
44.87114804623874
 21
210.5691028947823
 31
0.0
  0
LINE
  5
8CC2
  8
0
 10
44.87114804623874
 20
210.5691028947823
 30
0.0
 11
44.87114804623874
 21
210.9030867947823
 31
0.0
  0
LINE
  5
8CC3
  8
0
 10
44.87114804623874
 20
210.9030867947823
 30
0.0
 11
42.53436654623872
 21
210.9030867947823
 31
0.0
  0
LINE
  5
8CC4
  8
0
 10
42.53436654623872
 20
210.9030867947823
 30
0.0
 11
42.53436654623872
 21
210.5691028947823
 31
0.0
  0
LINE
  5
8CC5
  8
0
 10
45.20510154623872
 20
210.5691028947823
 30
0.0
 11
45.53908639623873
 21
210.5691028947823
 31
0.0
  0
LINE
  5
8CC6
  8
0
 10
45.53908639623873
 20
210.5691028947823
 30
0.0
 11
45.53908639623873
 21
210.9030867947823
 31
0.0
  0
LINE
  5
8CC7
  8
0
 10
45.53908639623873
 20
210.9030867947823
 30
0.0
 11
45.20510154623872
 21
210.9030867947823
 31
0.0
  0
LINE
  5
8CC8
  8
0
 10
45.20510154623872
 20
210.9030867947823
 30
0.0
 11
45.20510154623872
 21
210.5691028947823
 31
0.0
  0
LINE
  5
8CC9
  8
0
 10
45.87266654623872
 20
210.5691028947823
 30
0.0
 11
46.20665044623874
 21
210.5691028947823
 31
0.0
  0
LINE
  5
8CCA
  8
0
 10
46.20665044623874
 20
210.5691028947823
 30
0.0
 11
46.20665044623874
 21
210.9030867947823
 31
0.0
  0
LINE
  5
8CCB
  8
0
 10
46.20665044623874
 20
210.9030867947823
 30
0.0
 11
45.87266654623872
 21
210.9030867947823
 31
0.0
  0
LINE
  5
8CCC
  8
0
 10
45.87266654623872
 20
210.9030867947823
 30
0.0
 11
45.87266654623872
 21
210.5691028947823
 31
0.0
  0
LINE
  5
8CCD
  8
0
 10
46.54032654623873
 20
210.5691028947823
 30
0.0
 11
46.87431044623872
 21
210.5691028947823
 31
0.0
  0
LINE
  5
8CCE
  8
0
 10
46.87431044623872
 20
210.5691028947823
 30
0.0
 11
46.87431044623872
 21
210.9030867947823
 31
0.0
  0
LINE
  5
8CCF
  8
0
 10
46.87431044623872
 20
210.9030867947823
 30
0.0
 11
46.54032654623873
 21
210.9030867947823
 31
0.0
  0
LINE
  5
8CD0
  8
0
 10
46.54032654623873
 20
210.9030867947823
 30
0.0
 11
46.54032654623873
 21
210.5691028947823
 31
0.0
  0
LINE
  5
8CD1
  8
0
 10
47.20751154623872
 20
210.5691028947823
 30
0.0
 11
47.54149544623874
 21
210.5691028947823
 31
0.0
  0
LINE
  5
8CD2
  8
0
 10
47.54149544623874
 20
210.5691028947823
 30
0.0
 11
47.54149544623874
 21
210.9030867947823
 31
0.0
  0
LINE
  5
8CD3
  8
0
 10
47.54149544623874
 20
210.9030867947823
 30
0.0
 11
47.20751154623872
 21
210.9030867947823
 31
0.0
  0
LINE
  5
8CD4
  8
0
 10
47.20751154623872
 20
210.9030867947823
 30
0.0
 11
47.20751154623872
 21
210.5691028947823
 31
0.0
  0
LINE
  5
8CD5
  8
0
 10
47.87507654623872
 20
210.5691028947823
 30
0.0
 11
48.20906139623872
 21
210.5691028947823
 31
0.0
  0
LINE
  5
8CD6
  8
0
 10
48.20906139623872
 20
210.5691028947823
 30
0.0
 11
48.20906139623872
 21
210.9030867947823
 31
0.0
  0
LINE
  5
8CD7
  8
0
 10
48.20906139623872
 20
210.9030867947823
 30
0.0
 11
47.87507654623872
 21
210.9030867947823
 31
0.0
  0
LINE
  5
8CD8
  8
0
 10
47.87507654623872
 20
210.9030867947823
 30
0.0
 11
47.87507654623872
 21
210.5691028947823
 31
0.0
  0
LINE
  5
8CD9
  8
0
 10
48.54273654623873
 20
210.5691028947823
 30
0.0
 11
48.87672139623871
 21
210.5691028947823
 31
0.0
  0
LINE
  5
8CDA
  8
0
 10
48.87672139623871
 20
210.5691028947823
 30
0.0
 11
48.87672139623871
 21
210.9030867947823
 31
0.0
  0
LINE
  5
8CDB
  8
0
 10
48.87672139623871
 20
210.9030867947823
 30
0.0
 11
48.54273654623873
 21
210.9030867947823
 31
0.0
  0
LINE
  5
8CDC
  8
0
 10
48.54273654623873
 20
210.9030867947823
 30
0.0
 11
48.54273654623873
 21
210.5691028947823
 31
0.0
  0
LINE
  5
8CDD
  8
0
 10
49.20992154623872
 20
210.5691028947823
 30
0.0
 11
49.54427689623873
 21
210.5691028947823
 31
0.0
  0
LINE
  5
8CDE
  8
0
 10
49.54427689623873
 20
210.5691028947823
 30
0.0
 11
49.54427689623873
 21
210.9030867947823
 31
0.0
  0
LINE
  5
8CDF
  8
0
 10
49.54427689623873
 20
210.9030867947823
 30
0.0
 11
49.20992154623872
 21
210.9030867947823
 31
0.0
  0
LINE
  5
8CE0
  8
0
 10
49.20992154623872
 20
210.9030867947823
 30
0.0
 11
49.20992154623872
 21
210.5691028947823
 31
0.0
  0
LINE
  5
8CE1
  8
0
 10
49.87748654623871
 20
210.5691028947823
 30
0.0
 11
50.21147044623874
 21
210.5691028947823
 31
0.0
  0
LINE
  5
8CE2
  8
0
 10
50.21147044623874
 20
210.5691028947823
 30
0.0
 11
50.21147044623874
 21
210.9030867947823
 31
0.0
  0
LINE
  5
8CE3
  8
0
 10
50.21147044623874
 20
210.9030867947823
 30
0.0
 11
49.87748654623871
 21
210.9030867947823
 31
0.0
  0
LINE
  5
8CE4
  8
0
 10
49.87748654623871
 20
210.9030867947823
 30
0.0
 11
49.87748654623871
 21
210.5691028947823
 31
0.0
  0
LINE
  5
8CE5
  8
0
 10
50.54590654623871
 20
210.5691028947823
 30
0.0
 11
50.87989139623872
 21
210.5691028947823
 31
0.0
  0
LINE
  5
8CE6
  8
0
 10
50.87989139623872
 20
210.5691028947823
 30
0.0
 11
50.87989139623872
 21
210.9030867947823
 31
0.0
  0
LINE
  5
8CE7
  8
0
 10
50.87989139623872
 20
210.9030867947823
 30
0.0
 11
50.54590654623871
 21
210.9030867947823
 31
0.0
  0
LINE
  5
8CE8
  8
0
 10
50.54590654623871
 20
210.9030867947823
 30
0.0
 11
50.54590654623871
 21
210.5691028947823
 31
0.0
  0
LINE
  5
8CE9
  8
0
 10
51.21309154623873
 20
210.5691028947823
 30
0.0
 11
53.54987304623873
 21
210.5691028947823
 31
0.0
  0
LINE
  5
8CEA
  8
0
 10
53.21550154623873
 20
210.9030867947823
 30
0.0
 11
51.54707544623872
 21
210.9030867947823
 31
0.0
  0
LINE
  5
8CEB
  8
0
 10
45.20510154623872
 20
210.2359378947823
 30
0.0
 11
45.53908639623873
 21
210.2359378947823
 31
0.0
  0
LINE
  5
8CEC
  8
0
 10
45.53908639623873
 20
210.2359378947823
 30
0.0
 11
45.53908639623873
 21
210.5699217947823
 31
0.0
  0
LINE
  5
8CED
  8
0
 10
45.53908639623873
 20
210.5699217947823
 30
0.0
 11
45.20510154623872
 21
210.5699217947823
 31
0.0
  0
LINE
  5
8CEE
  8
0
 10
45.20510154623872
 20
210.5699217947823
 30
0.0
 11
45.20510154623872
 21
210.2359378947823
 31
0.0
  0
LINE
  5
8CEF
  8
0
 10
46.54032654623873
 20
210.2359378947823
 30
0.0
 11
46.87431044623872
 21
210.2359378947823
 31
0.0
  0
LINE
  5
8CF0
  8
0
 10
46.87431044623872
 20
210.2359378947823
 30
0.0
 11
46.87431044623872
 21
210.5699217947823
 31
0.0
  0
LINE
  5
8CF1
  8
0
 10
46.87431044623872
 20
210.5699217947823
 30
0.0
 11
46.54032654623873
 21
210.5699217947823
 31
0.0
  0
LINE
  5
8CF2
  8
0
 10
46.54032654623873
 20
210.5699217947823
 30
0.0
 11
46.54032654623873
 21
210.2359378947823
 31
0.0
  0
LINE
  5
8CF3
  8
0
 10
47.20751154623872
 20
210.2359378947823
 30
0.0
 11
47.54149544623874
 21
210.2359378947823
 31
0.0
  0
LINE
  5
8CF4
  8
0
 10
47.54149544623874
 20
210.2359378947823
 30
0.0
 11
47.54149544623874
 21
210.5699217947823
 31
0.0
  0
LINE
  5
8CF5
  8
0
 10
47.54149544623874
 20
210.5699217947823
 30
0.0
 11
47.20751154623872
 21
210.5699217947823
 31
0.0
  0
LINE
  5
8CF6
  8
0
 10
47.20751154623872
 20
210.5699217947823
 30
0.0
 11
47.20751154623872
 21
210.2359378947823
 31
0.0
  0
LINE
  5
8CF7
  8
0
 10
49.87748654623871
 20
210.2359378947823
 30
0.0
 11
50.21147044623874
 21
210.2359378947823
 31
0.0
  0
LINE
  5
8CF8
  8
0
 10
50.21147044623874
 20
210.2359378947823
 30
0.0
 11
50.21147044623874
 21
210.5699217947823
 31
0.0
  0
LINE
  5
8CF9
  8
0
 10
50.21147044623874
 20
210.5699217947823
 30
0.0
 11
49.87748654623871
 21
210.5699217947823
 31
0.0
  0
LINE
  5
8CFA
  8
0
 10
49.87748654623871
 20
210.5699217947823
 30
0.0
 11
49.87748654623871
 21
210.2359378947823
 31
0.0
  0
LINE
  5
8CFB
  8
0
 10
50.54590654623871
 20
210.2359378947823
 30
0.0
 11
50.87989139623872
 21
210.2359378947823
 31
0.0
  0
LINE
  5
8CFC
  8
0
 10
50.87989139623872
 20
210.2359378947823
 30
0.0
 11
50.87989139623872
 21
210.5699217947823
 31
0.0
  0
LINE
  5
8CFD
  8
0
 10
50.87989139623872
 20
210.5699217947823
 30
0.0
 11
50.54590654623871
 21
210.5699217947823
 31
0.0
  0
LINE
  5
8CFE
  8
0
 10
50.54590654623871
 20
210.5699217947823
 30
0.0
 11
50.54590654623871
 21
210.2359378947823
 31
0.0
  0
LINE
  5
8CFF
  8
0
 10
42.53436654623872
 20
209.9015378947823
 30
0.0
 11
42.86872189623872
 21
209.9015378947823
 31
0.0
  0
LINE
  5
8D00
  8
0
 10
42.86872189623872
 20
209.9015378947823
 30
0.0
 11
42.86872189623872
 21
210.2358932447823
 31
0.0
  0
LINE
  5
8D01
  8
0
 10
42.86872189623872
 20
210.2358932447823
 30
0.0
 11
42.53436654623872
 21
210.2358932447823
 31
0.0
  0
LINE
  5
8D02
  8
0
 10
42.53436654623872
 20
210.2358932447823
 30
0.0
 11
42.53436654623872
 21
209.9015378947823
 31
0.0
  0
LINE
  5
8D03
  8
0
 10
44.53744154623871
 20
209.9015378947823
 30
0.0
 11
44.8714254462387
 21
209.9015378947823
 31
0.0
  0
LINE
  5
8D04
  8
0
 10
44.8714254462387
 20
209.9015378947823
 30
0.0
 11
44.8714254462387
 21
210.2358932447823
 31
0.0
  0
LINE
  5
8D05
  8
0
 10
44.8714254462387
 20
210.2358932447823
 30
0.0
 11
44.53744154623871
 21
210.2358932447823
 31
0.0
  0
LINE
  5
8D06
  8
0
 10
44.53744154623871
 20
210.2358932447823
 30
0.0
 11
44.53744154623871
 21
209.9015378947823
 31
0.0
  0
LINE
  5
8D07
  8
0
 10
45.20510154623872
 20
209.9015378947823
 30
0.0
 11
46.20668654623873
 21
209.9015378947823
 31
0.0
  0
LINE
  5
8D08
  8
0
 10
46.20668654623873
 20
209.9015378947823
 30
0.0
 11
46.20668654623873
 21
210.2358932447823
 31
0.0
  0
LINE
  5
8D09
  8
0
 10
46.20668654623873
 20
210.2358932447823
 30
0.0
 11
45.20510154623872
 21
210.2358932447823
 31
0.0
  0
LINE
  5
8D0A
  8
0
 10
45.20510154623872
 20
210.2358932447823
 30
0.0
 11
45.20510154623872
 21
209.9015378947823
 31
0.0
  0
LINE
  5
8D0B
  8
0
 10
46.87349154623871
 20
209.9015378947823
 30
0.0
 11
48.54267004623873
 21
209.9015378947823
 31
0.0
  0
LINE
  5
8D0C
  8
0
 10
48.54267004623873
 20
209.9015378947823
 30
0.0
 11
48.54267004623873
 21
210.2358932447823
 31
0.0
  0
LINE
  5
8D0D
  8
0
 10
48.54267004623873
 20
210.2358932447823
 30
0.0
 11
46.87349154623871
 21
210.2358932447823
 31
0.0
  0
LINE
  5
8D0E
  8
0
 10
46.87349154623871
 20
210.2358932447823
 30
0.0
 11
46.87349154623871
 21
209.9015378947823
 31
0.0
  0
LINE
  5
8D0F
  8
0
 10
49.87748654623871
 20
209.9015378947823
 30
0.0
 11
50.21147044623874
 21
209.9015378947823
 31
0.0
  0
LINE
  5
8D10
  8
0
 10
50.21147044623874
 20
209.9015378947823
 30
0.0
 11
50.21147044623874
 21
210.2358932447823
 31
0.0
  0
LINE
  5
8D11
  8
0
 10
50.21147044623874
 20
210.2358932447823
 30
0.0
 11
49.87748654623871
 21
210.2358932447823
 31
0.0
  0
LINE
  5
8D12
  8
0
 10
49.87748654623871
 20
210.2358932447823
 30
0.0
 11
49.87748654623871
 21
209.9015378947823
 31
0.0
  0
LINE
  5
8D13
  8
0
 10
50.54590654623871
 20
209.9015378947823
 30
0.0
 11
51.54712104623871
 21
209.9015378947823
 31
0.0
  0
LINE
  5
8D14
  8
0
 10
51.54712104623871
 20
209.9015378947823
 30
0.0
 11
51.54712104623871
 21
210.2358932447823
 31
0.0
  0
LINE
  5
8D15
  8
0
 10
51.54712104623871
 20
210.2358932447823
 30
0.0
 11
50.54590654623871
 21
210.2358932447823
 31
0.0
  0
LINE
  5
8D16
  8
0
 10
50.54590654623871
 20
210.2358932447823
 30
0.0
 11
50.54590654623871
 21
209.9015378947823
 31
0.0
  0
LINE
  5
8D17
  8
0
 10
52.21391654623872
 20
209.9015378947823
 30
0.0
 11
53.21550154623873
 21
209.9015378947823
 31
0.0
  0
LINE
  5
8D18
  8
0
 10
53.21550154623873
 20
209.9015378947823
 30
0.0
 11
53.21550154623873
 21
210.2358932447823
 31
0.0
  0
LINE
  5
8D19
  8
0
 10
53.21550154623873
 20
210.2358932447823
 30
0.0
 11
52.21391654623872
 21
210.2358932447823
 31
0.0
  0
LINE
  5
8D1A
  8
0
 10
52.21391654623872
 20
210.2358932447823
 30
0.0
 11
52.21391654623872
 21
209.9015378947823
 31
0.0
  0
LINE
  5
8D1B
  8
0
 10
42.53436654623872
 20
209.5682778947823
 30
0.0
 11
42.86872189623872
 21
209.5682778947823
 31
0.0
  0
LINE
  5
8D1C
  8
0
 10
42.86872189623872
 20
209.5682778947823
 30
0.0
 11
42.86872189623872
 21
209.9022627447823
 31
0.0
  0
LINE
  5
8D1D
  8
0
 10
42.86872189623872
 20
209.9022627447823
 30
0.0
 11
42.53436654623872
 21
209.9022627447823
 31
0.0
  0
LINE
  5
8D1E
  8
0
 10
42.53436654623872
 20
209.9022627447823
 30
0.0
 11
42.53436654623872
 21
209.5682778947823
 31
0.0
  0
LINE
  5
8D1F
  8
0
 10
44.20351654623872
 20
209.5682778947823
 30
0.0
 11
44.53750139623872
 21
209.5682778947823
 31
0.0
  0
LINE
  5
8D20
  8
0
 10
44.53750139623872
 20
209.5682778947823
 30
0.0
 11
44.53750139623872
 21
209.9022627447823
 31
0.0
  0
LINE
  5
8D21
  8
0
 10
44.53750139623872
 20
209.9022627447823
 30
0.0
 11
44.20351654623872
 21
209.9022627447823
 31
0.0
  0
LINE
  5
8D22
  8
0
 10
44.20351654623872
 20
209.9022627447823
 30
0.0
 11
44.20351654623872
 21
209.5682778947823
 31
0.0
  0
LINE
  5
8D23
  8
0
 10
45.20510154623872
 20
209.5682778947823
 30
0.0
 11
45.53908639623873
 21
209.5682778947823
 31
0.0
  0
LINE
  5
8D24
  8
0
 10
45.53908639623873
 20
209.5682778947823
 30
0.0
 11
45.53908639623873
 21
209.9022627447823
 31
0.0
  0
LINE
  5
8D25
  8
0
 10
45.53908639623873
 20
209.9022627447823
 30
0.0
 11
45.20510154623872
 21
209.9022627447823
 31
0.0
  0
LINE
  5
8D26
  8
0
 10
45.20510154623872
 20
209.9022627447823
 30
0.0
 11
45.20510154623872
 21
209.5682778947823
 31
0.0
  0
LINE
  5
8D27
  8
0
 10
45.87266654623872
 20
209.5682778947823
 30
0.0
 11
46.87388104623872
 21
209.5682778947823
 31
0.0
  0
LINE
  5
8D28
  8
0
 10
46.87388104623872
 20
209.5682778947823
 30
0.0
 11
46.87388104623872
 21
209.9022627447823
 31
0.0
  0
LINE
  5
8D29
  8
0
 10
46.87388104623872
 20
209.9022627447823
 30
0.0
 11
45.87266654623872
 21
209.9022627447823
 31
0.0
  0
LINE
  5
8D2A
  8
0
 10
45.87266654623872
 20
209.9022627447823
 30
0.0
 11
45.87266654623872
 21
209.5682778947823
 31
0.0
  0
LINE
  5
8D2B
  8
0
 10
47.54153154623873
 20
209.5682778947823
 30
0.0
 11
47.87588689623874
 21
209.5682778947823
 31
0.0
  0
LINE
  5
8D2C
  8
0
 10
47.87588689623874
 20
209.5682778947823
 30
0.0
 11
47.87588689623874
 21
209.9022627447823
 31
0.0
  0
LINE
  5
8D2D
  8
0
 10
47.87588689623874
 20
209.9022627447823
 30
0.0
 11
47.54153154623873
 21
209.9022627447823
 31
0.0
  0
LINE
  5
8D2E
  8
0
 10
47.54153154623873
 20
209.9022627447823
 30
0.0
 11
47.54153154623873
 21
209.5682778947823
 31
0.0
  0
LINE
  5
8D2F
  8
0
 10
48.54273654623873
 20
209.5682778947823
 30
0.0
 11
49.20996334623874
 21
209.5682778947823
 31
0.0
  0
LINE
  5
8D30
  8
0
 10
49.20996334623874
 20
209.5682778947823
 30
0.0
 11
49.20996334623874
 21
209.9022627447823
 31
0.0
  0
LINE
  5
8D31
  8
0
 10
49.20996334623874
 20
209.9022627447823
 30
0.0
 11
48.54273654623873
 21
209.9022627447823
 31
0.0
  0
LINE
  5
8D32
  8
0
 10
48.54273654623873
 20
209.9022627447823
 30
0.0
 11
48.54273654623873
 21
209.5682778947823
 31
0.0
  0
LINE
  5
8D33
  8
0
 10
49.54432154623871
 20
209.5682778947823
 30
0.0
 11
50.54590654623871
 21
209.5682778947823
 31
0.0
  0
LINE
  5
8D34
  8
0
 10
50.54590654623871
 20
209.5682778947823
 30
0.0
 11
50.54590654623871
 21
209.9022627447823
 31
0.0
  0
LINE
  5
8D35
  8
0
 10
50.54590654623871
 20
209.9022627447823
 30
0.0
 11
49.54432154623871
 21
209.9022627447823
 31
0.0
  0
LINE
  5
8D36
  8
0
 10
49.54432154623871
 20
209.9022627447823
 30
0.0
 11
49.54432154623871
 21
209.5682778947823
 31
0.0
  0
LINE
  5
8D37
  8
0
 10
51.88065654623873
 20
209.5682778947823
 30
0.0
 11
52.8822415462387
 21
209.5682778947823
 31
0.0
  0
LINE
  5
8D38
  8
0
 10
52.8822415462387
 20
209.5682778947823
 30
0.0
 11
52.8822415462387
 21
209.9022627447823
 31
0.0
  0
LINE
  5
8D39
  8
0
 10
52.8822415462387
 20
209.9022627447823
 30
0.0
 11
51.88065654623873
 21
209.9022627447823
 31
0.0
  0
LINE
  5
8D3A
  8
0
 10
51.88065654623873
 20
209.9022627447823
 30
0.0
 11
51.88065654623873
 21
209.5682778947823
 31
0.0
  0
LINE
  5
8D3B
  8
0
 10
43.20193154623871
 20
209.2343528947823
 30
0.0
 11
43.53628784623871
 21
209.2343528947823
 31
0.0
  0
LINE
  5
8D3C
  8
0
 10
43.53628784623871
 20
209.2343528947823
 30
0.0
 11
43.53628784623871
 21
209.5683367947823
 31
0.0
  0
LINE
  5
8D3D
  8
0
 10
43.53628784623871
 20
209.5683367947823
 30
0.0
 11
43.20193154623871
 21
209.5683367947823
 31
0.0
  0
LINE
  5
8D3E
  8
0
 10
43.20193154623871
 20
209.5683367947823
 30
0.0
 11
43.20193154623871
 21
209.2343528947823
 31
0.0
  0
LINE
  5
8D3F
  8
0
 10
43.86949654623874
 20
209.2343528947823
 30
0.0
 11
45.2046930462387
 21
209.2343528947823
 31
0.0
  0
LINE
  5
8D40
  8
0
 10
45.2046930462387
 20
209.2343528947823
 30
0.0
 11
45.2046930462387
 21
209.5683367947823
 31
0.0
  0
LINE
  5
8D41
  8
0
 10
45.2046930462387
 20
209.5683367947823
 30
0.0
 11
43.86949654623874
 21
209.5683367947823
 31
0.0
  0
LINE
  5
8D42
  8
0
 10
43.86949654623874
 20
209.5683367947823
 30
0.0
 11
43.86949654623874
 21
209.2343528947823
 31
0.0
  0
LINE
  5
8D43
  8
0
 10
45.5387415462387
 20
209.2343528947823
 30
0.0
 11
46.20596834623873
 21
209.2343528947823
 31
0.0
  0
LINE
  5
8D44
  8
0
 10
46.20596834623873
 20
209.2343528947823
 30
0.0
 11
46.20596834623873
 21
209.5683367947823
 31
0.0
  0
LINE
  5
8D45
  8
0
 10
46.20596834623873
 20
209.5683367947823
 30
0.0
 11
45.5387415462387
 21
209.5683367947823
 31
0.0
  0
LINE
  5
8D46
  8
0
 10
45.5387415462387
 20
209.5683367947823
 30
0.0
 11
45.5387415462387
 21
209.2343528947823
 31
0.0
  0
LINE
  5
8D47
  8
0
 10
46.54032654623873
 20
209.2343528947823
 30
0.0
 11
46.87431044623872
 21
209.2343528947823
 31
0.0
  0
LINE
  5
8D48
  8
0
 10
46.87431044623872
 20
209.2343528947823
 30
0.0
 11
46.87431044623872
 21
209.5683367947823
 31
0.0
  0
LINE
  5
8D49
  8
0
 10
46.87431044623872
 20
209.5683367947823
 30
0.0
 11
46.54032654623873
 21
209.5683367947823
 31
0.0
  0
LINE
  5
8D4A
  8
0
 10
46.54032654623873
 20
209.5683367947823
 30
0.0
 11
46.54032654623873
 21
209.2343528947823
 31
0.0
  0
LINE
  5
8D4B
  8
0
 10
47.54153154623873
 20
209.2343528947823
 30
0.0
 11
47.87588689623874
 21
209.2343528947823
 31
0.0
  0
LINE
  5
8D4C
  8
0
 10
47.87588689623874
 20
209.2343528947823
 30
0.0
 11
47.87588689623874
 21
209.5683367947823
 31
0.0
  0
LINE
  5
8D4D
  8
0
 10
47.87588689623874
 20
209.5683367947823
 30
0.0
 11
47.54153154623873
 21
209.5683367947823
 31
0.0
  0
LINE
  5
8D4E
  8
0
 10
47.54153154623873
 20
209.5683367947823
 30
0.0
 11
47.54153154623873
 21
209.2343528947823
 31
0.0
  0
LINE
  5
8D4F
  8
0
 10
48.54273654623873
 20
209.2343528947823
 30
0.0
 11
48.87672139623871
 21
209.2343528947823
 31
0.0
  0
LINE
  5
8D50
  8
0
 10
48.87672139623871
 20
209.2343528947823
 30
0.0
 11
48.87672139623871
 21
209.5683367947823
 31
0.0
  0
LINE
  5
8D51
  8
0
 10
48.87672139623871
 20
209.5683367947823
 30
0.0
 11
48.54273654623873
 21
209.5683367947823
 31
0.0
  0
LINE
  5
8D52
  8
0
 10
48.54273654623873
 20
209.5683367947823
 30
0.0
 11
48.54273654623873
 21
209.2343528947823
 31
0.0
  0
LINE
  5
8D53
  8
0
 10
49.20992154623872
 20
209.2343528947823
 30
0.0
 11
49.54427689623873
 21
209.2343528947823
 31
0.0
  0
LINE
  5
8D54
  8
0
 10
49.54427689623873
 20
209.2343528947823
 30
0.0
 11
49.54427689623873
 21
209.5683367947823
 31
0.0
  0
LINE
  5
8D55
  8
0
 10
49.54427689623873
 20
209.5683367947823
 30
0.0
 11
49.20992154623872
 21
209.5683367947823
 31
0.0
  0
LINE
  5
8D56
  8
0
 10
49.20992154623872
 20
209.5683367947823
 30
0.0
 11
49.20992154623872
 21
209.2343528947823
 31
0.0
  0
LINE
  5
8D57
  8
0
 10
49.87748654623871
 20
209.2343528947823
 30
0.0
 11
50.21147044623874
 21
209.2343528947823
 31
0.0
  0
LINE
  5
8D58
  8
0
 10
50.21147044623874
 20
209.2343528947823
 30
0.0
 11
50.21147044623874
 21
209.5683367947823
 31
0.0
  0
LINE
  5
8D59
  8
0
 10
50.21147044623874
 20
209.5683367947823
 30
0.0
 11
49.87748654623871
 21
209.5683367947823
 31
0.0
  0
LINE
  5
8D5A
  8
0
 10
49.87748654623871
 20
209.5683367947823
 30
0.0
 11
49.87748654623871
 21
209.2343528947823
 31
0.0
  0
LINE
  5
8D5B
  8
0
 10
50.54590654623871
 20
209.2343528947823
 30
0.0
 11
51.54712104623871
 21
209.2343528947823
 31
0.0
  0
LINE
  5
8D5C
  8
0
 10
51.54712104623871
 20
209.2343528947823
 30
0.0
 11
51.54712104623871
 21
209.5683367947823
 31
0.0
  0
LINE
  5
8D5D
  8
0
 10
51.54712104623871
 20
209.5683367947823
 30
0.0
 11
50.54590654623871
 21
209.5683367947823
 31
0.0
  0
LINE
  5
8D5E
  8
0
 10
50.54590654623871
 20
209.5683367947823
 30
0.0
 11
50.54590654623871
 21
209.2343528947823
 31
0.0
  0
LINE
  5
8D5F
  8
0
 10
51.88065654623873
 20
209.2343528947823
 30
0.0
 11
52.2146413962387
 21
209.2343528947823
 31
0.0
  0
LINE
  5
8D60
  8
0
 10
52.2146413962387
 20
209.2343528947823
 30
0.0
 11
52.2146413962387
 21
209.5683367947823
 31
0.0
  0
LINE
  5
8D61
  8
0
 10
52.2146413962387
 20
209.5683367947823
 30
0.0
 11
51.88065654623873
 21
209.5683367947823
 31
0.0
  0
LINE
  5
8D62
  8
0
 10
51.88065654623873
 20
209.5683367947823
 30
0.0
 11
51.88065654623873
 21
209.2343528947823
 31
0.0
  0
LINE
  5
8D63
  8
0
 10
52.54831654623871
 20
209.2343528947823
 30
0.0
 11
53.21554239623873
 21
209.2343528947823
 31
0.0
  0
LINE
  5
8D64
  8
0
 10
53.21554239623873
 20
209.2343528947823
 30
0.0
 11
53.21554239623873
 21
209.5683367947823
 31
0.0
  0
LINE
  5
8D65
  8
0
 10
53.21554239623873
 20
209.5683367947823
 30
0.0
 11
52.54831654623871
 21
209.5683367947823
 31
0.0
  0
LINE
  5
8D66
  8
0
 10
52.54831654623871
 20
209.5683367947823
 30
0.0
 11
52.54831654623871
 21
209.2343528947823
 31
0.0
  0
LINE
  5
8D67
  8
0
 10
42.53436654623872
 20
208.8999528947823
 30
0.0
 11
43.2019638462387
 21
208.8999528947823
 31
0.0
  0
LINE
  5
8D68
  8
0
 10
43.2019638462387
 20
208.8999528947823
 30
0.0
 11
43.2019638462387
 21
209.2343082447823
 31
0.0
  0
LINE
  5
8D69
  8
0
 10
43.2019638462387
 20
209.2343082447823
 30
0.0
 11
42.53436654623872
 21
209.2343082447823
 31
0.0
  0
LINE
  5
8D6A
  8
0
 10
42.53436654623872
 20
209.2343082447823
 30
0.0
 11
42.53436654623872
 21
208.8999528947823
 31
0.0
  0
LINE
  5
8D6B
  8
0
 10
43.53585654623873
 20
208.8999528947823
 30
0.0
 11
44.20345384623872
 21
208.8999528947823
 31
0.0
  0
LINE
  5
8D6C
  8
0
 10
44.20345384623872
 20
208.8999528947823
 30
0.0
 11
44.20345384623872
 21
209.2343082447823
 31
0.0
  0
LINE
  5
8D6D
  8
0
 10
44.20345384623872
 20
209.2343082447823
 30
0.0
 11
43.53585654623873
 21
209.2343082447823
 31
0.0
  0
LINE
  5
8D6E
  8
0
 10
43.53585654623873
 20
209.2343082447823
 30
0.0
 11
43.53585654623873
 21
208.8999528947823
 31
0.0
  0
LINE
  5
8D6F
  8
0
 10
44.87108154623871
 20
208.8999528947823
 30
0.0
 11
45.20506544623871
 21
208.8999528947823
 31
0.0
  0
LINE
  5
8D70
  8
0
 10
45.20506544623871
 20
208.8999528947823
 30
0.0
 11
45.20506544623871
 21
209.2343082447823
 31
0.0
  0
LINE
  5
8D71
  8
0
 10
45.20506544623871
 20
209.2343082447823
 30
0.0
 11
44.87108154623871
 21
209.2343082447823
 31
0.0
  0
LINE
  5
8D72
  8
0
 10
44.87108154623871
 20
209.2343082447823
 30
0.0
 11
44.87108154623871
 21
208.8999528947823
 31
0.0
  0
LINE
  5
8D73
  8
0
 10
45.87266654623872
 20
208.8999528947823
 30
0.0
 11
46.53989239623871
 21
208.8999528947823
 31
0.0
  0
LINE
  5
8D74
  8
0
 10
46.53989239623871
 20
208.8999528947823
 30
0.0
 11
46.53989239623871
 21
209.2343082447823
 31
0.0
  0
LINE
  5
8D75
  8
0
 10
46.53989239623871
 20
209.2343082447823
 30
0.0
 11
45.87266654623872
 21
209.2343082447823
 31
0.0
  0
LINE
  5
8D76
  8
0
 10
45.87266654623872
 20
209.2343082447823
 30
0.0
 11
45.87266654623872
 21
208.8999528947823
 31
0.0
  0
LINE
  5
8D77
  8
0
 10
47.20751154623872
 20
208.8999528947823
 30
0.0
 11
47.87510884623873
 21
208.8999528947823
 31
0.0
  0
LINE
  5
8D78
  8
0
 10
47.87510884623873
 20
208.8999528947823
 30
0.0
 11
47.87510884623873
 21
209.2343082447823
 31
0.0
  0
LINE
  5
8D79
  8
0
 10
47.87510884623873
 20
209.2343082447823
 30
0.0
 11
47.20751154623872
 21
209.2343082447823
 31
0.0
  0
LINE
  5
8D7A
  8
0
 10
47.20751154623872
 20
209.2343082447823
 30
0.0
 11
47.20751154623872
 21
208.8999528947823
 31
0.0
  0
LINE
  5
8D7B
  8
0
 10
48.87666154623872
 20
208.8999528947823
 30
0.0
 11
49.54425884623871
 21
208.8999528947823
 31
0.0
  0
LINE
  5
8D7C
  8
0
 10
49.54425884623871
 20
208.8999528947823
 30
0.0
 11
49.54425884623871
 21
209.2343082447823
 31
0.0
  0
LINE
  5
8D7D
  8
0
 10
49.54425884623871
 20
209.2343082447823
 30
0.0
 11
48.87666154623872
 21
209.2343082447823
 31
0.0
  0
LINE
  5
8D7E
  8
0
 10
48.87666154623872
 20
209.2343082447823
 30
0.0
 11
48.87666154623872
 21
208.8999528947823
 31
0.0
  0
LINE
  5
8D7F
  8
0
 10
49.87748654623871
 20
208.8999528947823
 30
0.0
 11
50.54508384623873
 21
208.8999528947823
 31
0.0
  0
LINE
  5
8D80
  8
0
 10
50.54508384623873
 20
208.8999528947823
 30
0.0
 11
50.54508384623873
 21
209.2343082447823
 31
0.0
  0
LINE
  5
8D81
  8
0
 10
50.54508384623873
 20
209.2343082447823
 30
0.0
 11
49.87748654623871
 21
209.2343082447823
 31
0.0
  0
LINE
  5
8D82
  8
0
 10
49.87748654623871
 20
209.2343082447823
 30
0.0
 11
49.87748654623871
 21
208.8999528947823
 31
0.0
  0
LINE
  5
8D83
  8
0
 10
50.87907154623872
 20
208.8999528947823
 30
0.0
 11
51.21305639623873
 21
208.8999528947823
 31
0.0
  0
LINE
  5
8D84
  8
0
 10
51.21305639623873
 20
208.8999528947823
 30
0.0
 11
51.21305639623873
 21
209.2343082447823
 31
0.0
  0
LINE
  5
8D85
  8
0
 10
51.21305639623873
 20
209.2343082447823
 30
0.0
 11
50.87907154623872
 21
209.2343082447823
 31
0.0
  0
LINE
  5
8D86
  8
0
 10
50.87907154623872
 20
209.2343082447823
 30
0.0
 11
50.87907154623872
 21
208.8999528947823
 31
0.0
  0
LINE
  5
8D87
  8
0
 10
51.5467315462387
 20
208.8999528947823
 30
0.0
 11
53.54915104623873
 21
208.8999528947823
 31
0.0
  0
LINE
  5
8D88
  8
0
 10
53.54915104623873
 20
208.8999528947823
 30
0.0
 11
53.54915104623873
 21
209.2343082447823
 31
0.0
  0
LINE
  5
8D89
  8
0
 10
53.54915104623873
 20
209.2343082447823
 30
0.0
 11
51.5467315462387
 21
209.2343082447823
 31
0.0
  0
LINE
  5
8D8A
  8
0
 10
51.5467315462387
 20
209.2343082447823
 30
0.0
 11
51.5467315462387
 21
208.8999528947823
 31
0.0
  0
LINE
  5
8D8B
  8
0
 10
42.86867154623872
 20
208.5666928947823
 30
0.0
 11
43.20265639623872
 21
208.5666928947823
 31
0.0
  0
LINE
  5
8D8C
  8
0
 10
43.20265639623872
 20
208.5666928947823
 30
0.0
 11
43.20265639623872
 21
208.9006777447823
 31
0.0
  0
LINE
  5
8D8D
  8
0
 10
43.20265639623872
 20
208.9006777447823
 30
0.0
 11
42.86867154623872
 21
208.9006777447823
 31
0.0
  0
LINE
  5
8D8E
  8
0
 10
42.86867154623872
 20
208.9006777447823
 30
0.0
 11
42.86867154623872
 21
208.5666928947823
 31
0.0
  0
LINE
  5
8D8F
  8
0
 10
43.53585654623873
 20
208.5666928947823
 30
0.0
 11
43.86984044623873
 21
208.5666928947823
 31
0.0
  0
LINE
  5
8D90
  8
0
 10
43.86984044623873
 20
208.5666928947823
 30
0.0
 11
43.86984044623873
 21
208.9006777447823
 31
0.0
  0
LINE
  5
8D91
  8
0
 10
43.86984044623873
 20
208.9006777447823
 30
0.0
 11
43.53585654623873
 21
208.9006777447823
 31
0.0
  0
LINE
  5
8D92
  8
0
 10
43.53585654623873
 20
208.9006777447823
 30
0.0
 11
43.53585654623873
 21
208.5666928947823
 31
0.0
  0
LINE
  5
8D93
  8
0
 10
44.53744154623871
 20
208.5666928947823
 30
0.0
 11
45.53902654623872
 21
208.5666928947823
 31
0.0
  0
LINE
  5
8D94
  8
0
 10
45.53902654623872
 20
208.5666928947823
 30
0.0
 11
45.53902654623872
 21
208.9006777447823
 31
0.0
  0
LINE
  5
8D95
  8
0
 10
45.53902654623872
 20
208.9006777447823
 30
0.0
 11
44.53744154623871
 21
208.9006777447823
 31
0.0
  0
LINE
  5
8D96
  8
0
 10
44.53744154623871
 20
208.9006777447823
 30
0.0
 11
44.53744154623871
 21
208.5666928947823
 31
0.0
  0
LINE
  5
8D97
  8
0
 10
46.87349154623871
 20
208.5666928947823
 30
0.0
 11
47.54108979623874
 21
208.5666928947823
 31
0.0
  0
LINE
  5
8D98
  8
0
 10
47.54108979623874
 20
208.5666928947823
 30
0.0
 11
47.54108979623874
 21
208.9006777447823
 31
0.0
  0
LINE
  5
8D99
  8
0
 10
47.54108979623874
 20
208.9006777447823
 30
0.0
 11
46.87349154623871
 21
208.9006777447823
 31
0.0
  0
LINE
  5
8D9A
  8
0
 10
46.87349154623871
 20
208.9006777447823
 30
0.0
 11
46.87349154623871
 21
208.5666928947823
 31
0.0
  0
LINE
  5
8D9B
  8
0
 10
47.87507654623872
 20
208.5666928947823
 30
0.0
 11
48.87666154623872
 21
208.5666928947823
 31
0.0
  0
LINE
  5
8D9C
  8
0
 10
48.87666154623872
 20
208.5666928947823
 30
0.0
 11
48.87666154623872
 21
208.9006777447823
 31
0.0
  0
LINE
  5
8D9D
  8
0
 10
48.87666154623872
 20
208.9006777447823
 30
0.0
 11
47.87507654623872
 21
208.9006777447823
 31
0.0
  0
LINE
  5
8D9E
  8
0
 10
47.87507654623872
 20
208.9006777447823
 30
0.0
 11
47.87507654623872
 21
208.5666928947823
 31
0.0
  0
LINE
  5
8D9F
  8
0
 10
49.20992154623872
 20
208.5666928947823
 30
0.0
 11
50.21150654623872
 21
208.5666928947823
 31
0.0
  0
LINE
  5
8DA0
  8
0
 10
50.21150654623872
 20
208.5666928947823
 30
0.0
 11
50.21150654623872
 21
208.9006777447823
 31
0.0
  0
LINE
  5
8DA1
  8
0
 10
50.21150654623872
 20
208.9006777447823
 30
0.0
 11
49.20992154623872
 21
208.9006777447823
 31
0.0
  0
LINE
  5
8DA2
  8
0
 10
49.20992154623872
 20
208.9006777447823
 30
0.0
 11
49.20992154623872
 21
208.5666928947823
 31
0.0
  0
LINE
  5
8DA3
  8
0
 10
50.54590654623871
 20
208.5666928947823
 30
0.0
 11
50.87989139623872
 21
208.5666928947823
 31
0.0
  0
LINE
  5
8DA4
  8
0
 10
50.87989139623872
 20
208.5666928947823
 30
0.0
 11
50.87989139623872
 21
208.9006777447823
 31
0.0
  0
LINE
  5
8DA5
  8
0
 10
50.87989139623872
 20
208.9006777447823
 30
0.0
 11
50.54590654623871
 21
208.9006777447823
 31
0.0
  0
LINE
  5
8DA6
  8
0
 10
50.54590654623871
 20
208.9006777447823
 30
0.0
 11
50.54590654623871
 21
208.5666928947823
 31
0.0
  0
LINE
  5
8DA7
  8
0
 10
51.21309154623873
 20
208.5666928947823
 30
0.0
 11
51.88068884623871
 21
208.5666928947823
 31
0.0
  0
LINE
  5
8DA8
  8
0
 10
51.88068884623871
 20
208.5666928947823
 30
0.0
 11
51.88068884623871
 21
208.9006777447823
 31
0.0
  0
LINE
  5
8DA9
  8
0
 10
51.88068884623871
 20
208.9006777447823
 30
0.0
 11
51.21309154623873
 21
208.9006777447823
 31
0.0
  0
LINE
  5
8DAA
  8
0
 10
51.21309154623873
 20
208.9006777447823
 30
0.0
 11
51.21309154623873
 21
208.5666928947823
 31
0.0
  0
LINE
  5
8DAB
  8
0
 10
42.53436654623872
 20
208.2327678947823
 30
0.0
 11
43.2019638462387
 21
208.2327678947823
 31
0.0
  0
LINE
  5
8DAC
  8
0
 10
43.2019638462387
 20
208.2327678947823
 30
0.0
 11
43.2019638462387
 21
208.5667517947823
 31
0.0
  0
LINE
  5
8DAD
  8
0
 10
43.2019638462387
 20
208.5667517947823
 30
0.0
 11
42.53436654623872
 21
208.5667517947823
 31
0.0
  0
LINE
  5
8DAE
  8
0
 10
42.53436654623872
 20
208.5667517947823
 30
0.0
 11
42.53436654623872
 21
208.2327678947823
 31
0.0
  0
LINE
  5
8DAF
  8
0
 10
43.53585654623873
 20
208.2327678947823
 30
0.0
 11
44.20345384623872
 21
208.2327678947823
 31
0.0
  0
LINE
  5
8DB0
  8
0
 10
44.20345384623872
 20
208.2327678947823
 30
0.0
 11
44.20345384623872
 21
208.5667517947823
 31
0.0
  0
LINE
  5
8DB1
  8
0
 10
44.20345384623872
 20
208.5667517947823
 30
0.0
 11
43.53585654623873
 21
208.5667517947823
 31
0.0
  0
LINE
  5
8DB2
  8
0
 10
43.53585654623873
 20
208.5667517947823
 30
0.0
 11
43.53585654623873
 21
208.2327678947823
 31
0.0
  0
LINE
  5
8DB3
  8
0
 10
44.87108154623871
 20
208.2327678947823
 30
0.0
 11
45.5386788462387
 21
208.2327678947823
 31
0.0
  0
LINE
  5
8DB4
  8
0
 10
45.5386788462387
 20
208.2327678947823
 30
0.0
 11
45.5386788462387
 21
208.5667517947823
 31
0.0
  0
LINE
  5
8DB5
  8
0
 10
45.5386788462387
 20
208.5667517947823
 30
0.0
 11
44.87108154623871
 21
208.5667517947823
 31
0.0
  0
LINE
  5
8DB6
  8
0
 10
44.87108154623871
 20
208.5667517947823
 30
0.0
 11
44.87108154623871
 21
208.2327678947823
 31
0.0
  0
LINE
  5
8DB7
  8
0
 10
46.20592654623871
 20
208.2327678947823
 30
0.0
 11
46.87352384623873
 21
208.2327678947823
 31
0.0
  0
LINE
  5
8DB8
  8
0
 10
46.87352384623873
 20
208.2327678947823
 30
0.0
 11
46.87352384623873
 21
208.5667517947823
 31
0.0
  0
LINE
  5
8DB9
  8
0
 10
46.87352384623873
 20
208.5667517947823
 30
0.0
 11
46.20592654623871
 21
208.5667517947823
 31
0.0
  0
LINE
  5
8DBA
  8
0
 10
46.20592654623871
 20
208.5667517947823
 30
0.0
 11
46.20592654623871
 21
208.2327678947823
 31
0.0
  0
LINE
  5
8DBB
  8
0
 10
47.20751154623872
 20
208.2327678947823
 30
0.0
 11
47.54149544623874
 21
208.2327678947823
 31
0.0
  0
LINE
  5
8DBC
  8
0
 10
47.54149544623874
 20
208.2327678947823
 30
0.0
 11
47.54149544623874
 21
208.5667517947823
 31
0.0
  0
LINE
  5
8DBD
  8
0
 10
47.54149544623874
 20
208.5667517947823
 30
0.0
 11
47.20751154623872
 21
208.5667517947823
 31
0.0
  0
LINE
  5
8DBE
  8
0
 10
47.20751154623872
 20
208.5667517947823
 30
0.0
 11
47.20751154623872
 21
208.2327678947823
 31
0.0
  0
LINE
  5
8DBF
  8
0
 10
47.87507654623872
 20
208.2327678947823
 30
0.0
 11
48.54267384623873
 21
208.2327678947823
 31
0.0
  0
LINE
  5
8DC0
  8
0
 10
48.54267384623873
 20
208.2327678947823
 30
0.0
 11
48.54267384623873
 21
208.5667517947823
 31
0.0
  0
LINE
  5
8DC1
  8
0
 10
48.54267384623873
 20
208.5667517947823
 30
0.0
 11
47.87507654623872
 21
208.5667517947823
 31
0.0
  0
LINE
  5
8DC2
  8
0
 10
47.87507654623872
 20
208.5667517947823
 30
0.0
 11
47.87507654623872
 21
208.2327678947823
 31
0.0
  0
LINE
  5
8DC3
  8
0
 10
49.20992154623872
 20
208.2327678947823
 30
0.0
 11
49.87751979623872
 21
208.2327678947823
 31
0.0
  0
LINE
  5
8DC4
  8
0
 10
49.87751979623872
 20
208.2327678947823
 30
0.0
 11
49.87751979623872
 21
208.5667517947823
 31
0.0
  0
LINE
  5
8DC5
  8
0
 10
49.87751979623872
 20
208.5667517947823
 30
0.0
 11
49.20992154623872
 21
208.5667517947823
 31
0.0
  0
LINE
  5
8DC6
  8
0
 10
49.20992154623872
 20
208.5667517947823
 30
0.0
 11
49.20992154623872
 21
208.2327678947823
 31
0.0
  0
LINE
  5
8DC7
  8
0
 10
50.21150654623872
 20
208.2327678947823
 30
0.0
 11
50.54586189623873
 21
208.2327678947823
 31
0.0
  0
LINE
  5
8DC8
  8
0
 10
50.54586189623873
 20
208.2327678947823
 30
0.0
 11
50.54586189623873
 21
208.5667517947823
 31
0.0
  0
LINE
  5
8DC9
  8
0
 10
50.54586189623873
 20
208.5667517947823
 30
0.0
 11
50.21150654623872
 21
208.5667517947823
 31
0.0
  0
LINE
  5
8DCA
  8
0
 10
50.21150654623872
 20
208.5667517947823
 30
0.0
 11
50.21150654623872
 21
208.2327678947823
 31
0.0
  0
LINE
  5
8DCB
  8
0
 10
51.21309154623873
 20
208.2327678947823
 30
0.0
 11
51.54707544623872
 21
208.2327678947823
 31
0.0
  0
LINE
  5
8DCC
  8
0
 10
51.54707544623872
 20
208.2327678947823
 30
0.0
 11
51.54707544623872
 21
208.5667517947823
 31
0.0
  0
LINE
  5
8DCD
  8
0
 10
51.54707544623872
 20
208.5667517947823
 30
0.0
 11
51.21309154623873
 21
208.5667517947823
 31
0.0
  0
LINE
  5
8DCE
  8
0
 10
51.21309154623873
 20
208.5667517947823
 30
0.0
 11
51.21309154623873
 21
208.2327678947823
 31
0.0
  0
LINE
  5
8DCF
  8
0
 10
52.21391654623872
 20
208.2327678947823
 30
0.0
 11
53.54911304623872
 21
208.2327678947823
 31
0.0
  0
LINE
  5
8DD0
  8
0
 10
53.54911304623872
 20
208.2327678947823
 30
0.0
 11
53.54911304623872
 21
208.5667517947823
 31
0.0
  0
LINE
  5
8DD1
  8
0
 10
53.54911304623872
 20
208.5667517947823
 30
0.0
 11
52.21391654623872
 21
208.5667517947823
 31
0.0
  0
LINE
  5
8DD2
  8
0
 10
52.21391654623872
 20
208.5667517947823
 30
0.0
 11
52.21391654623872
 21
208.2327678947823
 31
0.0
  0
LINE
  5
8DD3
  8
0
 10
42.86867154623872
 20
207.8991278947823
 30
0.0
 11
46.20665804623872
 21
207.8991278947823
 31
0.0
  0
LINE
  5
8DD4
  8
0
 10
46.20665804623872
 20
207.8991278947823
 30
0.0
 11
46.20665804623872
 21
208.2331127447823
 31
0.0
  0
LINE
  5
8DD5
  8
0
 10
46.20665804623872
 20
208.2331127447823
 30
0.0
 11
42.86867154623872
 21
208.2331127447823
 31
0.0
  0
LINE
  5
8DD6
  8
0
 10
42.86867154623872
 20
208.2331127447823
 30
0.0
 11
42.86867154623872
 21
207.8991278947823
 31
0.0
  0
LINE
  5
8DD7
  8
0
 10
46.87349154623871
 20
207.8991278947823
 30
0.0
 11
47.20747639623872
 21
207.8991278947823
 31
0.0
  0
LINE
  5
8DD8
  8
0
 10
47.20747639623872
 20
207.8991278947823
 30
0.0
 11
47.20747639623872
 21
208.2331127447823
 31
0.0
  0
LINE
  5
8DD9
  8
0
 10
47.20747639623872
 20
208.2331127447823
 30
0.0
 11
46.87349154623871
 21
208.2331127447823
 31
0.0
  0
LINE
  5
8DDA
  8
0
 10
46.87349154623871
 20
208.2331127447823
 30
0.0
 11
46.87349154623871
 21
207.8991278947823
 31
0.0
  0
LINE
  5
8DDB
  8
0
 10
48.20909654623873
 20
207.8991278947823
 30
0.0
 11
48.54308044623872
 21
207.8991278947823
 31
0.0
  0
LINE
  5
8DDC
  8
0
 10
48.54308044623872
 20
207.8991278947823
 30
0.0
 11
48.54308044623872
 21
208.2331127447823
 31
0.0
  0
LINE
  5
8DDD
  8
0
 10
48.54308044623872
 20
208.2331127447823
 30
0.0
 11
48.20909654623873
 21
208.2331127447823
 31
0.0
  0
LINE
  5
8DDE
  8
0
 10
48.20909654623873
 20
208.2331127447823
 30
0.0
 11
48.20909654623873
 21
207.8991278947823
 31
0.0
  0
LINE
  5
8DDF
  8
0
 10
48.87666154623872
 20
207.8991278947823
 30
0.0
 11
49.21064544623871
 21
207.8991278947823
 31
0.0
  0
LINE
  5
8DE0
  8
0
 10
49.21064544623871
 20
207.8991278947823
 30
0.0
 11
49.21064544623871
 21
208.2331127447823
 31
0.0
  0
LINE
  5
8DE1
  8
0
 10
49.21064544623871
 20
208.2331127447823
 30
0.0
 11
48.87666154623872
 21
208.2331127447823
 31
0.0
  0
LINE
  5
8DE2
  8
0
 10
48.87666154623872
 20
208.2331127447823
 30
0.0
 11
48.87666154623872
 21
207.8991278947823
 31
0.0
  0
LINE
  5
8DE3
  8
0
 10
50.87907154623872
 20
207.8991278947823
 30
0.0
 11
51.54666979623872
 21
207.8991278947823
 31
0.0
  0
LINE
  5
8DE4
  8
0
 10
51.54666979623872
 20
207.8991278947823
 30
0.0
 11
51.54666979623872
 21
208.2331127447823
 31
0.0
  0
LINE
  5
8DE5
  8
0
 10
51.54666979623872
 20
208.2331127447823
 30
0.0
 11
50.87907154623872
 21
208.2331127447823
 31
0.0
  0
LINE
  5
8DE6
  8
0
 10
50.87907154623872
 20
208.2331127447823
 30
0.0
 11
50.87907154623872
 21
207.8991278947823
 31
0.0
  0
LINE
  5
8DE7
  8
0
 10
51.88065654623873
 20
207.8991278947823
 30
0.0
 11
52.2146413962387
 21
207.8991278947823
 31
0.0
  0
LINE
  5
8DE8
  8
0
 10
52.2146413962387
 20
207.8991278947823
 30
0.0
 11
52.2146413962387
 21
208.2331127447823
 31
0.0
  0
LINE
  5
8DE9
  8
0
 10
52.2146413962387
 20
208.2331127447823
 30
0.0
 11
51.88065654623873
 21
208.2331127447823
 31
0.0
  0
LINE
  5
8DEA
  8
0
 10
51.88065654623873
 20
208.2331127447823
 30
0.0
 11
51.88065654623873
 21
207.8991278947823
 31
0.0
  0
LINE
  5
8DEB
  8
0
 10
52.54831654623871
 20
207.8991278947823
 30
0.0
 11
53.21554239623873
 21
207.8991278947823
 31
0.0
  0
LINE
  5
8DEC
  8
0
 10
53.21554239623873
 20
207.8991278947823
 30
0.0
 11
53.21554239623873
 21
208.2331127447823
 31
0.0
  0
LINE
  5
8DED
  8
0
 10
53.21554239623873
 20
208.2331127447823
 30
0.0
 11
52.54831654623871
 21
208.2331127447823
 31
0.0
  0
LINE
  5
8DEE
  8
0
 10
52.54831654623871
 20
208.2331127447823
 30
0.0
 11
52.54831654623871
 21
207.8991278947823
 31
0.0
  0
LINE
  5
8DEF
  8
0
 10
42.53436654623872
 20
207.5651078947823
 30
0.0
 11
43.2019638462387
 21
207.5651078947823
 31
0.0
  0
LINE
  5
8DF0
  8
0
 10
43.2019638462387
 20
207.5651078947823
 30
0.0
 11
43.2019638462387
 21
207.8991278947823
 31
0.0
  0
LINE
  5
8DF1
  8
0
 10
43.2019638462387
 20
207.8991278947823
 30
0.0
 11
42.53436654623872
 21
207.8991278947823
 31
0.0
  0
LINE
  5
8DF2
  8
0
 10
42.53436654623872
 20
207.8991278947823
 30
0.0
 11
42.53436654623872
 21
207.5651078947823
 31
0.0
  0
LINE
  5
8DF3
  8
0
 10
43.53585654623873
 20
207.5651078947823
 30
0.0
 11
44.20345384623872
 21
207.5651078947823
 31
0.0
  0
LINE
  5
8DF4
  8
0
 10
44.20345384623872
 20
207.5651078947823
 30
0.0
 11
44.20345384623872
 21
207.8991278947823
 31
0.0
  0
LINE
  5
8DF5
  8
0
 10
44.20345384623872
 20
207.8991278947823
 30
0.0
 11
43.53585654623873
 21
207.8991278947823
 31
0.0
  0
LINE
  5
8DF6
  8
0
 10
43.53585654623873
 20
207.8991278947823
 30
0.0
 11
43.53585654623873
 21
207.5651078947823
 31
0.0
  0
LINE
  5
8DF7
  8
0
 10
45.5387415462387
 20
207.5651078947823
 30
0.0
 11
45.8727263962387
 21
207.5651078947823
 31
0.0
  0
LINE
  5
8DF8
  8
0
 10
45.8727263962387
 20
207.5651078947823
 30
0.0
 11
45.8727263962387
 21
207.8991278947823
 31
0.0
  0
LINE
  5
8DF9
  8
0
 10
45.8727263962387
 20
207.8991278947823
 30
0.0
 11
45.5387415462387
 21
207.8991278947823
 31
0.0
  0
LINE
  5
8DFA
  8
0
 10
45.5387415462387
 20
207.8991278947823
 30
0.0
 11
45.5387415462387
 21
207.5651078947823
 31
0.0
  0
LINE
  5
8DFB
  8
0
 10
46.54032654623873
 20
207.5651078947823
 30
0.0
 11
46.87431044623872
 21
207.5651078947823
 31
0.0
  0
LINE
  5
8DFC
  8
0
 10
46.87431044623872
 20
207.5651078947823
 30
0.0
 11
46.87431044623872
 21
207.8991278947823
 31
0.0
  0
LINE
  5
8DFD
  8
0
 10
46.87431044623872
 20
207.8991278947823
 30
0.0
 11
46.54032654623873
 21
207.8991278947823
 31
0.0
  0
LINE
  5
8DFE
  8
0
 10
46.54032654623873
 20
207.8991278947823
 30
0.0
 11
46.54032654623873
 21
207.5651078947823
 31
0.0
  0
LINE
  5
8DFF
  8
0
 10
47.20751154623872
 20
207.5651078947823
 30
0.0
 11
47.87510884623873
 21
207.5651078947823
 31
0.0
  0
LINE
  5
8E00
  8
0
 10
47.87510884623873
 20
207.5651078947823
 30
0.0
 11
47.87510884623873
 21
207.8991278947823
 31
0.0
  0
LINE
  5
8E01
  8
0
 10
47.87510884623873
 20
207.8991278947823
 30
0.0
 11
47.20751154623872
 21
207.8991278947823
 31
0.0
  0
LINE
  5
8E02
  8
0
 10
47.20751154623872
 20
207.8991278947823
 30
0.0
 11
47.20751154623872
 21
207.5651078947823
 31
0.0
  0
LINE
  5
8E03
  8
0
 10
48.54273654623873
 20
207.5651078947823
 30
0.0
 11
49.20996334623874
 21
207.5651078947823
 31
0.0
  0
LINE
  5
8E04
  8
0
 10
49.20996334623874
 20
207.5651078947823
 30
0.0
 11
49.20996334623874
 21
207.8991278947823
 31
0.0
  0
LINE
  5
8E05
  8
0
 10
49.20996334623874
 20
207.8991278947823
 30
0.0
 11
48.54273654623873
 21
207.8991278947823
 31
0.0
  0
LINE
  5
8E06
  8
0
 10
48.54273654623873
 20
207.8991278947823
 30
0.0
 11
48.54273654623873
 21
207.5651078947823
 31
0.0
  0
LINE
  5
8E07
  8
0
 10
50.87907154623872
 20
207.5651078947823
 30
0.0
 11
51.21309154623873
 21
207.5651078947823
 31
0.0
  0
LINE
  5
8E08
  8
0
 10
51.21309154623873
 20
207.5651078947823
 30
0.0
 11
51.21309154623873
 21
207.8991278947823
 31
0.0
  0
LINE
  5
8E09
  8
0
 10
51.21309154623873
 20
207.8991278947823
 30
0.0
 11
50.87910669623872
 21
207.8991278947823
 31
0.0
  0
LINE
  5
8E0A
  8
0
 10
50.87910669623872
 20
207.8991278947823
 30
0.0
 11
50.87907154623872
 21
207.5651078947823
 31
0.0
  0
LINE
  5
8E0B
  8
0
 10
51.88065654623873
 20
207.5651078947823
 30
0.0
 11
52.8822415462387
 21
207.5651078947823
 31
0.0
  0
LINE
  5
8E0C
  8
0
 10
52.8822415462387
 20
207.5651078947823
 30
0.0
 11
52.8822415462387
 21
207.8991278947823
 31
0.0
  0
LINE
  5
8E0D
  8
0
 10
52.8822415462387
 20
207.8991278947823
 30
0.0
 11
51.88065654623873
 21
207.8991278947823
 31
0.0
  0
LINE
  5
8E0E
  8
0
 10
51.88065654623873
 20
207.8991278947823
 30
0.0
 11
51.88065654623873
 21
207.5651078947823
 31
0.0
  0
LINE
  5
8E0F
  8
0
 10
53.21550154623873
 20
207.5651078947823
 30
0.0
 11
53.54985784623872
 21
207.5651078947823
 31
0.0
  0
LINE
  5
8E10
  8
0
 10
53.54985784623872
 20
207.5651078947823
 30
0.0
 11
53.54985784623872
 21
207.8991278947823
 31
0.0
  0
LINE
  5
8E11
  8
0
 10
53.54985784623872
 20
207.8991278947823
 30
0.0
 11
53.21550154623873
 21
207.8991278947823
 31
0.0
  0
LINE
  5
8E12
  8
0
 10
53.21550154623873
 20
207.8991278947823
 30
0.0
 11
53.21550154623873
 21
207.5651078947823
 31
0.0
  0
LINE
  5
8E13
  8
0
 10
42.86867154623872
 20
207.2315628947823
 30
0.0
 11
43.20265639623872
 21
207.2315628947823
 31
0.0
  0
LINE
  5
8E14
  8
0
 10
43.20265639623872
 20
207.2315628947823
 30
0.0
 11
43.20265639623872
 21
207.5659182447823
 31
0.0
  0
LINE
  5
8E15
  8
0
 10
43.20265639623872
 20
207.5659182447823
 30
0.0
 11
42.86867154623872
 21
207.5659182447823
 31
0.0
  0
LINE
  5
8E16
  8
0
 10
42.86867154623872
 20
207.5659182447823
 30
0.0
 11
42.86867154623872
 21
207.2315628947823
 31
0.0
  0
LINE
  5
8E17
  8
0
 10
44.53744154623871
 20
207.2315628947823
 30
0.0
 11
44.8714254462387
 21
207.2315628947823
 31
0.0
  0
LINE
  5
8E18
  8
0
 10
44.8714254462387
 20
207.2315628947823
 30
0.0
 11
44.8714254462387
 21
207.5659182447823
 31
0.0
  0
LINE
  5
8E19
  8
0
 10
44.8714254462387
 20
207.5659182447823
 30
0.0
 11
44.53744154623871
 21
207.5659182447823
 31
0.0
  0
LINE
  5
8E1A
  8
0
 10
44.53744154623871
 20
207.5659182447823
 30
0.0
 11
44.53744154623871
 21
207.2315628947823
 31
0.0
  0
LINE
  5
8E1B
  8
0
 10
45.5387415462387
 20
207.2315628947823
 30
0.0
 11
46.20596834623873
 21
207.2315628947823
 31
0.0
  0
LINE
  5
8E1C
  8
0
 10
46.20596834623873
 20
207.2315628947823
 30
0.0
 11
46.20596834623873
 21
207.5659182447823
 31
0.0
  0
LINE
  5
8E1D
  8
0
 10
46.20596834623873
 20
207.5659182447823
 30
0.0
 11
45.5387415462387
 21
207.5659182447823
 31
0.0
  0
LINE
  5
8E1E
  8
0
 10
45.5387415462387
 20
207.5659182447823
 30
0.0
 11
45.5387415462387
 21
207.2315628947823
 31
0.0
  0
LINE
  5
8E1F
  8
0
 10
46.54032654623873
 20
207.2315628947823
 30
0.0
 11
47.20755334623871
 21
207.2315628947823
 31
0.0
  0
LINE
  5
8E20
  8
0
 10
47.20755334623871
 20
207.2315628947823
 30
0.0
 11
47.20755334623871
 21
207.5659182447823
 31
0.0
  0
LINE
  5
8E21
  8
0
 10
47.20755334623871
 20
207.5659182447823
 30
0.0
 11
46.54032654623873
 21
207.5659182447823
 31
0.0
  0
LINE
  5
8E22
  8
0
 10
46.54032654623873
 20
207.5659182447823
 30
0.0
 11
46.54032654623873
 21
207.2315628947823
 31
0.0
  0
LINE
  5
8E23
  8
0
 10
48.20909654623873
 20
207.2315628947823
 30
0.0
 11
49.21068154623873
 21
207.2315628947823
 31
0.0
  0
LINE
  5
8E24
  8
0
 10
49.21068154623873
 20
207.2315628947823
 30
0.0
 11
49.21068154623873
 21
207.5659182447823
 31
0.0
  0
LINE
  5
8E25
  8
0
 10
49.21068154623873
 20
207.5659182447823
 30
0.0
 11
48.20909654623873
 21
207.5659182447823
 31
0.0
  0
LINE
  5
8E26
  8
0
 10
48.20909654623873
 20
207.5659182447823
 30
0.0
 11
48.20909654623873
 21
207.2315628947823
 31
0.0
  0
LINE
  5
8E27
  8
0
 10
49.87748654623871
 20
207.2315628947823
 30
0.0
 11
50.21147044623874
 21
207.2315628947823
 31
0.0
  0
LINE
  5
8E28
  8
0
 10
50.21147044623874
 20
207.2315628947823
 30
0.0
 11
50.21147044623874
 21
207.5659182447823
 31
0.0
  0
LINE
  5
8E29
  8
0
 10
50.21147044623874
 20
207.5659182447823
 30
0.0
 11
49.87748654623871
 21
207.5659182447823
 31
0.0
  0
LINE
  5
8E2A
  8
0
 10
49.87748654623871
 20
207.5659182447823
 30
0.0
 11
49.87748654623871
 21
207.2315628947823
 31
0.0
  0
LINE
  5
8E2B
  8
0
 10
50.54590654623871
 20
207.2315628947823
 30
0.0
 11
51.21313334623872
 21
207.2315628947823
 31
0.0
  0
LINE
  5
8E2C
  8
0
 10
51.21313334623872
 20
207.2315628947823
 30
0.0
 11
51.21313334623872
 21
207.5659182447823
 31
0.0
  0
LINE
  5
8E2D
  8
0
 10
51.21313334623872
 20
207.5659182447823
 30
0.0
 11
50.54590654623871
 21
207.5659182447823
 31
0.0
  0
LINE
  5
8E2E
  8
0
 10
50.54590654623871
 20
207.5659182447823
 30
0.0
 11
50.54590654623871
 21
207.2315628947823
 31
0.0
  0
LINE
  5
8E2F
  8
0
 10
51.5467315462387
 20
207.2315628947823
 30
0.0
 11
52.54831654623871
 21
207.2315628947823
 31
0.0
  0
LINE
  5
8E30
  8
0
 10
52.54831654623871
 20
207.2315628947823
 30
0.0
 11
52.54831654623871
 21
207.5659182447823
 31
0.0
  0
LINE
  5
8E31
  8
0
 10
52.54831654623871
 20
207.5659182447823
 30
0.0
 11
51.5467315462387
 21
207.5659182447823
 31
0.0
  0
LINE
  5
8E32
  8
0
 10
51.5467315462387
 20
207.5659182447823
 30
0.0
 11
51.5467315462387
 21
207.2315628947823
 31
0.0
  0
LINE
  5
8E33
  8
0
 10
53.21550154623873
 20
207.2315628947823
 30
0.0
 11
53.54985784623872
 21
207.2315628947823
 31
0.0
  0
LINE
  5
8E34
  8
0
 10
53.54985784623872
 20
207.2315628947823
 30
0.0
 11
53.54985784623872
 21
207.5659182447823
 31
0.0
  0
LINE
  5
8E35
  8
0
 10
53.54985784623872
 20
207.5659182447823
 30
0.0
 11
53.21550154623873
 21
207.5659182447823
 31
0.0
  0
LINE
  5
8E36
  8
0
 10
53.21550154623873
 20
207.5659182447823
 30
0.0
 11
53.21550154623873
 21
207.2315628947823
 31
0.0
  0
LINE
  5
8E37
  8
0
 10
42.86867154623872
 20
206.8975428947823
 30
0.0
 11
43.53589834623872
 21
206.8975428947823
 31
0.0
  0
LINE
  5
8E38
  8
0
 10
43.53589834623872
 20
206.8975428947823
 30
0.0
 11
43.53589834623872
 21
207.2315277447823
 31
0.0
  0
LINE
  5
8E39
  8
0
 10
43.53589834623872
 20
207.2315277447823
 30
0.0
 11
42.86867154623872
 21
207.2315277447823
 31
0.0
  0
LINE
  5
8E3A
  8
0
 10
42.86867154623872
 20
207.2315277447823
 30
0.0
 11
42.86867154623872
 21
206.8975428947823
 31
0.0
  0
LINE
  5
8E3B
  8
0
 10
43.86949654623874
 20
206.8975428947823
 30
0.0
 11
44.20348044623873
 21
206.8975428947823
 31
0.0
  0
LINE
  5
8E3C
  8
0
 10
44.20348044623873
 20
206.8975428947823
 30
0.0
 11
44.20348044623873
 21
207.2315277447823
 31
0.0
  0
LINE
  5
8E3D
  8
0
 10
44.20348044623873
 20
207.2315277447823
 30
0.0
 11
43.86949654623874
 21
207.2315277447823
 31
0.0
  0
LINE
  5
8E3E
  8
0
 10
43.86949654623874
 20
207.2315277447823
 30
0.0
 11
43.86949654623874
 21
206.8975428947823
 31
0.0
  0
LINE
  5
8E3F
  8
0
 10
46.20592654623871
 20
206.8975428947823
 30
0.0
 11
46.53991044623874
 21
206.8975428947823
 31
0.0
  0
LINE
  5
8E40
  8
0
 10
46.53991044623874
 20
206.8975428947823
 30
0.0
 11
46.53991044623874
 21
207.2315277447823
 31
0.0
  0
LINE
  5
8E41
  8
0
 10
46.53991044623874
 20
207.2315277447823
 30
0.0
 11
46.20592654623871
 21
207.2315277447823
 31
0.0
  0
LINE
  5
8E42
  8
0
 10
46.20592654623871
 20
207.2315277447823
 30
0.0
 11
46.20592654623871
 21
206.8975428947823
 31
0.0
  0
LINE
  5
8E43
  8
0
 10
46.87349154623871
 20
206.8975428947823
 30
0.0
 11
49.87749604623872
 21
206.8975428947823
 31
0.0
  0
LINE
  5
8E44
  8
0
 10
49.87749604623872
 20
206.8975428947823
 30
0.0
 11
49.87749604623872
 21
207.2315277447823
 31
0.0
  0
LINE
  5
8E45
  8
0
 10
49.87749604623872
 20
207.2315277447823
 30
0.0
 11
46.87349154623871
 21
207.2315277447823
 31
0.0
  0
LINE
  5
8E46
  8
0
 10
46.87349154623871
 20
207.2315277447823
 30
0.0
 11
46.87349154623871
 21
206.8975428947823
 31
0.0
  0
LINE
  5
8E47
  8
0
 10
50.21150654623872
 20
206.8975428947823
 30
0.0
 11
51.54670304623872
 21
206.8975428947823
 31
0.0
  0
LINE
  5
8E48
  8
0
 10
51.54670304623872
 20
206.8975428947823
 30
0.0
 11
51.54670304623872
 21
207.2315277447823
 31
0.0
  0
LINE
  5
8E49
  8
0
 10
51.54670304623872
 20
207.2315277447823
 30
0.0
 11
50.21150654623872
 21
207.2315277447823
 31
0.0
  0
LINE
  5
8E4A
  8
0
 10
50.21150654623872
 20
207.2315277447823
 30
0.0
 11
50.21150654623872
 21
206.8975428947823
 31
0.0
  0
LINE
  5
8E4B
  8
0
 10
52.21391654623872
 20
206.8975428947823
 30
0.0
 11
52.8815138462387
 21
206.8975428947823
 31
0.0
  0
LINE
  5
8E4C
  8
0
 10
52.8815138462387
 20
206.8975428947823
 30
0.0
 11
52.8815138462387
 21
207.2315277447823
 31
0.0
  0
LINE
  5
8E4D
  8
0
 10
52.8815138462387
 20
207.2315277447823
 30
0.0
 11
52.21391654623872
 21
207.2315277447823
 31
0.0
  0
LINE
  5
8E4E
  8
0
 10
52.21391654623872
 20
207.2315277447823
 30
0.0
 11
52.21391654623872
 21
206.8975428947823
 31
0.0
  0
LINE
  5
8E4F
  8
0
 10
53.21550154623873
 20
206.8975428947823
 30
0.0
 11
53.54985784623872
 21
206.8975428947823
 31
0.0
  0
LINE
  5
8E50
  8
0
 10
53.54985784623872
 20
206.8975428947823
 30
0.0
 11
53.54985784623872
 21
207.2315277447823
 31
0.0
  0
LINE
  5
8E51
  8
0
 10
53.54985784623872
 20
207.2315277447823
 30
0.0
 11
53.21550154623873
 21
207.2315277447823
 31
0.0
  0
LINE
  5
8E52
  8
0
 10
53.21550154623873
 20
207.2315277447823
 30
0.0
 11
53.21550154623873
 21
206.8975428947823
 31
0.0
  0
LINE
  5
8E53
  8
0
 10
43.20193154623871
 20
206.5642828947823
 30
0.0
 11
43.53628784623871
 21
206.5642828947823
 31
0.0
  0
LINE
  5
8E54
  8
0
 10
43.53628784623871
 20
206.5642828947823
 30
0.0
 11
43.53628784623871
 21
206.8982667947823
 31
0.0
  0
LINE
  5
8E55
  8
0
 10
43.53628784623871
 20
206.8982667947823
 30
0.0
 11
43.20193154623871
 21
206.8982667947823
 31
0.0
  0
LINE
  5
8E56
  8
0
 10
43.20193154623871
 20
206.8982667947823
 30
0.0
 11
43.20193154623871
 21
206.5642828947823
 31
0.0
  0
LINE
  5
8E57
  8
0
 10
43.86949654623874
 20
206.5642828947823
 30
0.0
 11
44.20348044623873
 21
206.5642828947823
 31
0.0
  0
LINE
  5
8E58
  8
0
 10
44.20348044623873
 20
206.5642828947823
 30
0.0
 11
44.20348044623873
 21
206.8982667947823
 31
0.0
  0
LINE
  5
8E59
  8
0
 10
44.20348044623873
 20
206.8982667947823
 30
0.0
 11
43.86949654623874
 21
206.8982667947823
 31
0.0
  0
LINE
  5
8E5A
  8
0
 10
43.86949654623874
 20
206.8982667947823
 30
0.0
 11
43.86949654623874
 21
206.5642828947823
 31
0.0
  0
LINE
  5
8E5B
  8
0
 10
44.53744154623871
 20
206.5642828947823
 30
0.0
 11
46.54023154623872
 21
206.5642828947823
 31
0.0
  0
LINE
  5
8E5C
  8
0
 10
46.54023154623872
 20
206.5642828947823
 30
0.0
 11
46.54023154623872
 21
206.8982667947823
 31
0.0
  0
LINE
  5
8E5D
  8
0
 10
46.54023154623872
 20
206.8982667947823
 30
0.0
 11
44.53744154623871
 21
206.8982667947823
 31
0.0
  0
LINE
  5
8E5E
  8
0
 10
44.53744154623871
 20
206.8982667947823
 30
0.0
 11
44.53744154623871
 21
206.5642828947823
 31
0.0
  0
LINE
  5
8E5F
  8
0
 10
46.87349154623871
 20
206.5642828947823
 30
0.0
 11
47.20747639623872
 21
206.5642828947823
 31
0.0
  0
LINE
  5
8E60
  8
0
 10
47.20747639623872
 20
206.5642828947823
 30
0.0
 11
47.20747639623872
 21
206.8982667947823
 31
0.0
  0
LINE
  5
8E61
  8
0
 10
47.20747639623872
 20
206.8982667947823
 30
0.0
 11
46.87349154623871
 21
206.8982667947823
 31
0.0
  0
LINE
  5
8E62
  8
0
 10
46.87349154623871
 20
206.8982667947823
 30
0.0
 11
46.87349154623871
 21
206.5642828947823
 31
0.0
  0
LINE
  5
8E63
  8
0
 10
47.54153154623873
 20
206.5642828947823
 30
0.0
 11
48.2091297962387
 21
206.5642828947823
 31
0.0
  0
LINE
  5
8E64
  8
0
 10
48.2091297962387
 20
206.5642828947823
 30
0.0
 11
48.2091297962387
 21
206.8982667947823
 31
0.0
  0
LINE
  5
8E65
  8
0
 10
48.2091297962387
 20
206.8982667947823
 30
0.0
 11
47.54153154623873
 21
206.8982667947823
 31
0.0
  0
LINE
  5
8E66
  8
0
 10
47.54153154623873
 20
206.8982667947823
 30
0.0
 11
47.54153154623873
 21
206.5642828947823
 31
0.0
  0
LINE
  5
8E67
  8
0
 10
48.87666154623872
 20
206.5642828947823
 30
0.0
 11
49.21064544623871
 21
206.5642828947823
 31
0.0
  0
LINE
  5
8E68
  8
0
 10
49.21064544623871
 20
206.5642828947823
 30
0.0
 11
49.21064544623871
 21
206.8982667947823
 31
0.0
  0
LINE
  5
8E69
  8
0
 10
49.21064544623871
 20
206.8982667947823
 30
0.0
 11
48.87666154623872
 21
206.8982667947823
 31
0.0
  0
LINE
  5
8E6A
  8
0
 10
48.87666154623872
 20
206.8982667947823
 30
0.0
 11
48.87666154623872
 21
206.5642828947823
 31
0.0
  0
LINE
  5
8E6B
  8
0
 10
50.21150654623872
 20
206.5642828947823
 30
0.0
 11
50.54586189623873
 21
206.5642828947823
 31
0.0
  0
LINE
  5
8E6C
  8
0
 10
50.54586189623873
 20
206.5642828947823
 30
0.0
 11
50.54586189623873
 21
206.8982667947823
 31
0.0
  0
LINE
  5
8E6D
  8
0
 10
50.54586189623873
 20
206.8982667947823
 30
0.0
 11
50.21150654623872
 21
206.8982667947823
 31
0.0
  0
LINE
  5
8E6E
  8
0
 10
50.21150654623872
 20
206.8982667947823
 30
0.0
 11
50.21150654623872
 21
206.5642828947823
 31
0.0
  0
LINE
  5
8E6F
  8
0
 10
51.5467315462387
 20
206.5642828947823
 30
0.0
 11
51.88071544623872
 21
206.5642828947823
 31
0.0
  0
LINE
  5
8E70
  8
0
 10
51.88071544623872
 20
206.5642828947823
 30
0.0
 11
51.88071544623872
 21
206.8982667947823
 31
0.0
  0
LINE
  5
8E71
  8
0
 10
51.88071544623872
 20
206.8982667947823
 30
0.0
 11
51.5467315462387
 21
206.8982667947823
 31
0.0
  0
LINE
  5
8E72
  8
0
 10
51.5467315462387
 20
206.8982667947823
 30
0.0
 11
51.5467315462387
 21
206.5642828947823
 31
0.0
  0
LINE
  5
8E73
  8
0
 10
52.21391654623872
 20
206.5642828947823
 30
0.0
 11
52.8815138462387
 21
206.5642828947823
 31
0.0
  0
LINE
  5
8E74
  8
0
 10
52.8815138462387
 20
206.5642828947823
 30
0.0
 11
52.8815138462387
 21
206.8982667947823
 31
0.0
  0
LINE
  5
8E75
  8
0
 10
52.8815138462387
 20
206.8982667947823
 30
0.0
 11
52.21391654623872
 21
206.8982667947823
 31
0.0
  0
LINE
  5
8E76
  8
0
 10
52.21391654623872
 20
206.8982667947823
 30
0.0
 11
52.21391654623872
 21
206.5642828947823
 31
0.0
  0
LINE
  5
8E77
  8
0
 10
53.21550154623873
 20
206.5642828947823
 30
0.0
 11
53.54985784623872
 21
206.5642828947823
 31
0.0
  0
LINE
  5
8E78
  8
0
 10
53.54985784623872
 20
206.5642828947823
 30
0.0
 11
53.54985784623872
 21
206.8982667947823
 31
0.0
  0
LINE
  5
8E79
  8
0
 10
53.54985784623872
 20
206.8982667947823
 30
0.0
 11
53.21550154623873
 21
206.8982667947823
 31
0.0
  0
LINE
  5
8E7A
  8
0
 10
53.21550154623873
 20
206.8982667947823
 30
0.0
 11
53.21550154623873
 21
206.5642828947823
 31
0.0
  0
LINE
  5
8E7B
  8
0
 10
42.86867154623872
 20
206.2303578947823
 30
0.0
 11
43.20265639623872
 21
206.2303578947823
 31
0.0
  0
LINE
  5
8E7C
  8
0
 10
43.20265639623872
 20
206.2303578947823
 30
0.0
 11
43.20265639623872
 21
206.5643427447823
 31
0.0
  0
LINE
  5
8E7D
  8
0
 10
43.20265639623872
 20
206.5643427447823
 30
0.0
 11
42.86867154623872
 21
206.5643427447823
 31
0.0
  0
LINE
  5
8E7E
  8
0
 10
42.86867154623872
 20
206.5643427447823
 30
0.0
 11
42.86867154623872
 21
206.2303578947823
 31
0.0
  0
LINE
  5
8E7F
  8
0
 10
43.53585654623873
 20
206.2303578947823
 30
0.0
 11
44.53744154623871
 21
206.2303578947823
 31
0.0
  0
LINE
  5
8E80
  8
0
 10
44.53744154623871
 20
206.2303578947823
 30
0.0
 11
44.53744154623871
 21
206.5643427447823
 31
0.0
  0
LINE
  5
8E81
  8
0
 10
44.53744154623871
 20
206.5643427447823
 30
0.0
 11
43.53585654623873
 21
206.5643427447823
 31
0.0
  0
LINE
  5
8E82
  8
0
 10
43.53585654623873
 20
206.5643427447823
 30
0.0
 11
43.53585654623873
 21
206.2303578947823
 31
0.0
  0
LINE
  5
8E83
  8
0
 10
44.87108154623871
 20
206.2303578947823
 30
0.0
 11
45.5386788462387
 21
206.2303578947823
 31
0.0
  0
LINE
  5
8E84
  8
0
 10
45.5386788462387
 20
206.2303578947823
 30
0.0
 11
45.5386788462387
 21
206.5643427447823
 31
0.0
  0
LINE
  5
8E85
  8
0
 10
45.5386788462387
 20
206.5643427447823
 30
0.0
 11
44.87108154623871
 21
206.5643427447823
 31
0.0
  0
LINE
  5
8E86
  8
0
 10
44.87108154623871
 20
206.5643427447823
 30
0.0
 11
44.87108154623871
 21
206.2303578947823
 31
0.0
  0
LINE
  5
8E87
  8
0
 10
45.87266654623872
 20
206.2303578947823
 30
0.0
 11
46.20665044623874
 21
206.2303578947823
 31
0.0
  0
LINE
  5
8E88
  8
0
 10
46.20665044623874
 20
206.2303578947823
 30
0.0
 11
46.20665044623874
 21
206.5643427447823
 31
0.0
  0
LINE
  5
8E89
  8
0
 10
46.20665044623874
 20
206.5643427447823
 30
0.0
 11
45.87266654623872
 21
206.5643427447823
 31
0.0
  0
LINE
  5
8E8A
  8
0
 10
45.87266654623872
 20
206.5643427447823
 30
0.0
 11
45.87266654623872
 21
206.2303578947823
 31
0.0
  0
LINE
  5
8E8B
  8
0
 10
47.54153154623873
 20
206.2303578947823
 30
0.0
 11
49.87831304623873
 21
206.2303578947823
 31
0.0
  0
LINE
  5
8E8C
  8
0
 10
49.87831304623873
 20
206.2303578947823
 30
0.0
 11
49.87831304623873
 21
206.5643427447823
 31
0.0
  0
LINE
  5
8E8D
  8
0
 10
49.87831304623873
 20
206.5643427447823
 30
0.0
 11
47.54153154623873
 21
206.5643427447823
 31
0.0
  0
LINE
  5
8E8E
  8
0
 10
47.54153154623873
 20
206.5643427447823
 30
0.0
 11
47.54153154623873
 21
206.2303578947823
 31
0.0
  0
LINE
  5
8E8F
  8
0
 10
50.21150654623872
 20
206.2303578947823
 30
0.0
 11
50.54586189623873
 21
206.2303578947823
 31
0.0
  0
LINE
  5
8E90
  8
0
 10
50.54586189623873
 20
206.2303578947823
 30
0.0
 11
50.54586189623873
 21
206.5643427447823
 31
0.0
  0
LINE
  5
8E91
  8
0
 10
50.54586189623873
 20
206.5643427447823
 30
0.0
 11
50.21150654623872
 21
206.5643427447823
 31
0.0
  0
LINE
  5
8E92
  8
0
 10
50.21150654623872
 20
206.5643427447823
 30
0.0
 11
50.21150654623872
 21
206.2303578947823
 31
0.0
  0
LINE
  5
8E93
  8
0
 10
50.87907154623872
 20
206.2303578947823
 30
0.0
 11
51.21305639623873
 21
206.2303578947823
 31
0.0
  0
LINE
  5
8E94
  8
0
 10
51.21305639623873
 20
206.2303578947823
 30
0.0
 11
51.21305639623873
 21
206.5643427447823
 31
0.0
  0
LINE
  5
8E95
  8
0
 10
51.21305639623873
 20
206.5643427447823
 30
0.0
 11
50.87907154623872
 21
206.5643427447823
 31
0.0
  0
LINE
  5
8E96
  8
0
 10
50.87907154623872
 20
206.5643427447823
 30
0.0
 11
50.87907154623872
 21
206.2303578947823
 31
0.0
  0
LINE
  5
8E97
  8
0
 10
51.88065654623873
 20
206.2303578947823
 30
0.0
 11
52.8822415462387
 21
206.2303578947823
 31
0.0
  0
LINE
  5
8E98
  8
0
 10
52.8822415462387
 20
206.2303578947823
 30
0.0
 11
52.8822415462387
 21
206.5643427447823
 31
0.0
  0
LINE
  5
8E99
  8
0
 10
52.8822415462387
 20
206.5643427447823
 30
0.0
 11
51.88065654623873
 21
206.5643427447823
 31
0.0
  0
LINE
  5
8E9A
  8
0
 10
51.88065654623873
 20
206.5643427447823
 30
0.0
 11
51.88065654623873
 21
206.2303578947823
 31
0.0
  0
LINE
  5
8E9B
  8
0
 10
53.21550154623873
 20
206.2303578947823
 30
0.0
 11
53.54985784623872
 21
206.2303578947823
 31
0.0
  0
LINE
  5
8E9C
  8
0
 10
53.54985784623872
 20
206.2303578947823
 30
0.0
 11
53.54985784623872
 21
206.5643427447823
 31
0.0
  0
LINE
  5
8E9D
  8
0
 10
53.54985784623872
 20
206.5643427447823
 30
0.0
 11
53.21550154623873
 21
206.5643427447823
 31
0.0
  0
LINE
  5
8E9E
  8
0
 10
53.21550154623873
 20
206.5643427447823
 30
0.0
 11
53.21550154623873
 21
206.2303578947823
 31
0.0
  0
LINE
  5
8E9F
  8
0
 10
42.53436654623872
 20
205.8959578947823
 30
0.0
 11
43.86956304623871
 21
205.8959578947823
 31
0.0
  0
LINE
  5
8EA0
  8
0
 10
43.86956304623871
 20
205.8959578947823
 30
0.0
 11
43.86956304623871
 21
206.2303132447823
 31
0.0
  0
LINE
  5
8EA1
  8
0
 10
43.86956304623871
 20
206.2303132447823
 30
0.0
 11
42.53436654623872
 21
206.2303132447823
 31
0.0
  0
LINE
  5
8EA2
  8
0
 10
42.53436654623872
 20
206.2303132447823
 30
0.0
 11
42.53436654623872
 21
205.8959578947823
 31
0.0
  0
LINE
  5
8EA3
  8
0
 10
44.53744154623871
 20
205.8959578947823
 30
0.0
 11
44.8714254462387
 21
205.8959578947823
 31
0.0
  0
LINE
  5
8EA4
  8
0
 10
44.8714254462387
 20
205.8959578947823
 30
0.0
 11
44.8714254462387
 21
206.2303132447823
 31
0.0
  0
LINE
  5
8EA5
  8
0
 10
44.8714254462387
 20
206.2303132447823
 30
0.0
 11
44.53744154623871
 21
206.2303132447823
 31
0.0
  0
LINE
  5
8EA6
  8
0
 10
44.53744154623871
 20
206.2303132447823
 30
0.0
 11
44.53744154623871
 21
205.8959578947823
 31
0.0
  0
LINE
  5
8EA7
  8
0
 10
45.20510154623872
 20
205.8959578947823
 30
0.0
 11
45.53908639623873
 21
205.8959578947823
 31
0.0
  0
LINE
  5
8EA8
  8
0
 10
45.53908639623873
 20
205.8959578947823
 30
0.0
 11
45.53908639623873
 21
206.2303132447823
 31
0.0
  0
LINE
  5
8EA9
  8
0
 10
45.53908639623873
 20
206.2303132447823
 30
0.0
 11
45.20510154623872
 21
206.2303132447823
 31
0.0
  0
LINE
  5
8EAA
  8
0
 10
45.20510154623872
 20
206.2303132447823
 30
0.0
 11
45.20510154623872
 21
205.8959578947823
 31
0.0
  0
LINE
  5
8EAB
  8
0
 10
45.87266654623872
 20
205.8959578947823
 30
0.0
 11
46.20665044623874
 21
205.8959578947823
 31
0.0
  0
LINE
  5
8EAC
  8
0
 10
46.20665044623874
 20
205.8959578947823
 30
0.0
 11
46.20665044623874
 21
206.2303132447823
 31
0.0
  0
LINE
  5
8EAD
  8
0
 10
46.20665044623874
 20
206.2303132447823
 30
0.0
 11
45.87266654623872
 21
206.2303132447823
 31
0.0
  0
LINE
  5
8EAE
  8
0
 10
45.87266654623872
 20
206.2303132447823
 30
0.0
 11
45.87266654623872
 21
205.8959578947823
 31
0.0
  0
LINE
  5
8EAF
  8
0
 10
46.54032654623873
 20
205.8959578947823
 30
0.0
 11
47.54154104623873
 21
205.8959578947823
 31
0.0
  0
LINE
  5
8EB0
  8
0
 10
47.54154104623873
 20
205.8959578947823
 30
0.0
 11
47.54154104623873
 21
206.2303132447823
 31
0.0
  0
LINE
  5
8EB1
  8
0
 10
47.54154104623873
 20
206.2303132447823
 30
0.0
 11
46.54032654623873
 21
206.2303132447823
 31
0.0
  0
LINE
  5
8EB2
  8
0
 10
46.54032654623873
 20
206.2303132447823
 30
0.0
 11
46.54032654623873
 21
205.8959578947823
 31
0.0
  0
LINE
  5
8EB3
  8
0
 10
47.87507654623872
 20
205.8959578947823
 30
0.0
 11
48.20906139623872
 21
205.8959578947823
 31
0.0
  0
LINE
  5
8EB4
  8
0
 10
48.20906139623872
 20
205.8959578947823
 30
0.0
 11
48.20906139623872
 21
206.2303132447823
 31
0.0
  0
LINE
  5
8EB5
  8
0
 10
48.20906139623872
 20
206.2303132447823
 30
0.0
 11
47.87507654623872
 21
206.2303132447823
 31
0.0
  0
LINE
  5
8EB6
  8
0
 10
47.87507654623872
 20
206.2303132447823
 30
0.0
 11
47.87507654623872
 21
205.8959578947823
 31
0.0
  0
LINE
  5
8EB7
  8
0
 10
49.20992154623872
 20
205.8959578947823
 30
0.0
 11
50.21150654623872
 21
205.8959578947823
 31
0.0
  0
LINE
  5
8EB8
  8
0
 10
50.21150654623872
 20
205.8959578947823
 30
0.0
 11
50.21150654623872
 21
206.2303132447823
 31
0.0
  0
LINE
  5
8EB9
  8
0
 10
50.21150654623872
 20
206.2303132447823
 30
0.0
 11
49.20992154623872
 21
206.2303132447823
 31
0.0
  0
LINE
  5
8EBA
  8
0
 10
49.20992154623872
 20
206.2303132447823
 30
0.0
 11
49.20992154623872
 21
205.8959578947823
 31
0.0
  0
LINE
  5
8EBB
  8
0
 10
50.87907154623872
 20
205.8959578947823
 30
0.0
 11
51.21305639623873
 21
205.8959578947823
 31
0.0
  0
LINE
  5
8EBC
  8
0
 10
51.21305639623873
 20
205.8959578947823
 30
0.0
 11
51.21305639623873
 21
206.2303132447823
 31
0.0
  0
LINE
  5
8EBD
  8
0
 10
51.21305639623873
 20
206.2303132447823
 30
0.0
 11
50.87907154623872
 21
206.2303132447823
 31
0.0
  0
LINE
  5
8EBE
  8
0
 10
50.87907154623872
 20
206.2303132447823
 30
0.0
 11
50.87907154623872
 21
205.8959578947823
 31
0.0
  0
LINE
  5
8EBF
  8
0
 10
51.88065654623873
 20
205.8959578947823
 30
0.0
 11
52.54788334623873
 21
205.8959578947823
 31
0.0
  0
LINE
  5
8EC0
  8
0
 10
52.54788334623873
 20
205.8959578947823
 30
0.0
 11
52.54788334623873
 21
206.2303132447823
 31
0.0
  0
LINE
  5
8EC1
  8
0
 10
52.54788334623873
 20
206.2303132447823
 30
0.0
 11
51.88065654623873
 21
206.2303132447823
 31
0.0
  0
LINE
  5
8EC2
  8
0
 10
51.88065654623873
 20
206.2303132447823
 30
0.0
 11
51.88065654623873
 21
205.8959578947823
 31
0.0
  0
LINE
  5
8EC3
  8
0
 10
42.53436654623872
 20
205.5626978947823
 30
0.0
 11
43.2019638462387
 21
205.5626978947823
 31
0.0
  0
LINE
  5
8EC4
  8
0
 10
43.2019638462387
 20
205.5626978947823
 30
0.0
 11
43.2019638462387
 21
205.8966827447823
 31
0.0
  0
LINE
  5
8EC5
  8
0
 10
43.2019638462387
 20
205.8966827447823
 30
0.0
 11
42.53436654623872
 21
205.8966827447823
 31
0.0
  0
LINE
  5
8EC6
  8
0
 10
42.53436654623872
 20
205.8966827447823
 30
0.0
 11
42.53436654623872
 21
205.5626978947823
 31
0.0
  0
LINE
  5
8EC7
  8
0
 10
43.53585654623873
 20
205.5626978947823
 30
0.0
 11
43.86984044623873
 21
205.5626978947823
 31
0.0
  0
LINE
  5
8EC8
  8
0
 10
43.86984044623873
 20
205.5626978947823
 30
0.0
 11
43.86984044623873
 21
205.8966827447823
 31
0.0
  0
LINE
  5
8EC9
  8
0
 10
43.86984044623873
 20
205.8966827447823
 30
0.0
 11
43.53585654623873
 21
205.8966827447823
 31
0.0
  0
LINE
  5
8ECA
  8
0
 10
43.53585654623873
 20
205.8966827447823
 30
0.0
 11
43.53585654623873
 21
205.5626978947823
 31
0.0
  0
LINE
  5
8ECB
  8
0
 10
44.20351654623872
 20
205.5626978947823
 30
0.0
 11
44.53750139623872
 21
205.5626978947823
 31
0.0
  0
LINE
  5
8ECC
  8
0
 10
44.53750139623872
 20
205.5626978947823
 30
0.0
 11
44.53750139623872
 21
205.8966827447823
 31
0.0
  0
LINE
  5
8ECD
  8
0
 10
44.53750139623872
 20
205.8966827447823
 30
0.0
 11
44.20351654623872
 21
205.8966827447823
 31
0.0
  0
LINE
  5
8ECE
  8
0
 10
44.20351654623872
 20
205.8966827447823
 30
0.0
 11
44.20351654623872
 21
205.5626978947823
 31
0.0
  0
LINE
  5
8ECF
  8
0
 10
45.20510154623872
 20
205.5626978947823
 30
0.0
 11
45.53908639623873
 21
205.5626978947823
 31
0.0
  0
LINE
  5
8ED0
  8
0
 10
45.53908639623873
 20
205.5626978947823
 30
0.0
 11
45.53908639623873
 21
205.8966827447823
 31
0.0
  0
LINE
  5
8ED1
  8
0
 10
45.53908639623873
 20
205.8966827447823
 30
0.0
 11
45.20510154623872
 21
205.8966827447823
 31
0.0
  0
LINE
  5
8ED2
  8
0
 10
45.20510154623872
 20
205.8966827447823
 30
0.0
 11
45.20510154623872
 21
205.5626978947823
 31
0.0
  0
LINE
  5
8ED3
  8
0
 10
45.87266654623872
 20
205.5626978947823
 30
0.0
 11
46.87388104623872
 21
205.5626978947823
 31
0.0
  0
LINE
  5
8ED4
  8
0
 10
46.87388104623872
 20
205.5626978947823
 30
0.0
 11
46.87388104623872
 21
205.8966827447823
 31
0.0
  0
LINE
  5
8ED5
  8
0
 10
46.87388104623872
 20
205.8966827447823
 30
0.0
 11
45.87266654623872
 21
205.8966827447823
 31
0.0
  0
LINE
  5
8ED6
  8
0
 10
45.87266654623872
 20
205.8966827447823
 30
0.0
 11
45.87266654623872
 21
205.5626978947823
 31
0.0
  0
LINE
  5
8ED7
  8
0
 10
47.20751154623872
 20
205.5626978947823
 30
0.0
 11
47.54149544623874
 21
205.5626978947823
 31
0.0
  0
LINE
  5
8ED8
  8
0
 10
47.54149544623874
 20
205.5626978947823
 30
0.0
 11
47.54149544623874
 21
205.8966827447823
 31
0.0
  0
LINE
  5
8ED9
  8
0
 10
47.54149544623874
 20
205.8966827447823
 30
0.0
 11
47.20751154623872
 21
205.8966827447823
 31
0.0
  0
LINE
  5
8EDA
  8
0
 10
47.20751154623872
 20
205.8966827447823
 30
0.0
 11
47.20751154623872
 21
205.5626978947823
 31
0.0
  0
LINE
  5
8EDB
  8
0
 10
47.87507654623872
 20
205.5626978947823
 30
0.0
 11
48.87666154623872
 21
205.5626978947823
 31
0.0
  0
LINE
  5
8EDC
  8
0
 10
48.87666154623872
 20
205.5626978947823
 30
0.0
 11
48.87666154623872
 21
205.8966827447823
 31
0.0
  0
LINE
  5
8EDD
  8
0
 10
48.87666154623872
 20
205.8966827447823
 30
0.0
 11
47.87507654623872
 21
205.8966827447823
 31
0.0
  0
LINE
  5
8EDE
  8
0
 10
47.87507654623872
 20
205.8966827447823
 30
0.0
 11
47.87507654623872
 21
205.5626978947823
 31
0.0
  0
LINE
  5
8EDF
  8
0
 10
49.20992154623872
 20
205.5626978947823
 30
0.0
 11
49.54427689623873
 21
205.5626978947823
 31
0.0
  0
LINE
  5
8EE0
  8
0
 10
49.54427689623873
 20
205.5626978947823
 30
0.0
 11
49.54427689623873
 21
205.8966827447823
 31
0.0
  0
LINE
  5
8EE1
  8
0
 10
49.54427689623873
 20
205.8966827447823
 30
0.0
 11
49.20992154623872
 21
205.8966827447823
 31
0.0
  0
LINE
  5
8EE2
  8
0
 10
49.20992154623872
 20
205.8966827447823
 30
0.0
 11
49.20992154623872
 21
205.5626978947823
 31
0.0
  0
LINE
  5
8EE3
  8
0
 10
49.87748654623871
 20
205.5626978947823
 30
0.0
 11
50.54508384623873
 21
205.5626978947823
 31
0.0
  0
LINE
  5
8EE4
  8
0
 10
50.54508384623873
 20
205.5626978947823
 30
0.0
 11
50.54508384623873
 21
205.8966827447823
 31
0.0
  0
LINE
  5
8EE5
  8
0
 10
50.54508384623873
 20
205.8966827447823
 30
0.0
 11
49.87748654623871
 21
205.8966827447823
 31
0.0
  0
LINE
  5
8EE6
  8
0
 10
49.87748654623871
 20
205.8966827447823
 30
0.0
 11
49.87748654623871
 21
205.5626978947823
 31
0.0
  0
LINE
  5
8EE7
  8
0
 10
51.5467315462387
 20
205.5626978947823
 30
0.0
 11
52.88155754623872
 21
205.5626978947823
 31
0.0
  0
LINE
  5
8EE8
  8
0
 10
52.88155754623872
 20
205.5626978947823
 30
0.0
 11
52.88155754623872
 21
205.8966827447823
 31
0.0
  0
LINE
  5
8EE9
  8
0
 10
52.88155754623872
 20
205.8966827447823
 30
0.0
 11
51.5467315462387
 21
205.8966827447823
 31
0.0
  0
LINE
  5
8EEA
  8
0
 10
51.5467315462387
 20
205.8966827447823
 30
0.0
 11
51.5467315462387
 21
205.5626978947823
 31
0.0
  0
LINE
  5
8EEB
  8
0
 10
42.53436654623872
 20
205.2287728947823
 30
0.0
 11
42.86872189623872
 21
205.2287728947823
 31
0.0
  0
LINE
  5
8EEC
  8
0
 10
42.86872189623872
 20
205.2287728947823
 30
0.0
 11
42.86872189623872
 21
205.5627567947823
 31
0.0
  0
LINE
  5
8EED
  8
0
 10
42.86872189623872
 20
205.5627567947823
 30
0.0
 11
42.53436654623872
 21
205.5627567947823
 31
0.0
  0
LINE
  5
8EEE
  8
0
 10
42.53436654623872
 20
205.5627567947823
 30
0.0
 11
42.53436654623872
 21
205.2287728947823
 31
0.0
  0
LINE
  5
8EEF
  8
0
 10
43.20193154623871
 20
205.2287728947823
 30
0.0
 11
43.53628784623871
 21
205.2287728947823
 31
0.0
  0
LINE
  5
8EF0
  8
0
 10
43.53628784623871
 20
205.2287728947823
 30
0.0
 11
43.53628784623871
 21
205.5627567947823
 31
0.0
  0
LINE
  5
8EF1
  8
0
 10
43.53628784623871
 20
205.5627567947823
 30
0.0
 11
43.20193154623871
 21
205.5627567947823
 31
0.0
  0
LINE
  5
8EF2
  8
0
 10
43.20193154623871
 20
205.5627567947823
 30
0.0
 11
43.20193154623871
 21
205.2287728947823
 31
0.0
  0
LINE
  5
8EF3
  8
0
 10
43.86949654623874
 20
205.2287728947823
 30
0.0
 11
44.87108154623871
 21
205.2287728947823
 31
0.0
  0
LINE
  5
8EF4
  8
0
 10
44.87108154623871
 20
205.2287728947823
 30
0.0
 11
44.87108154623871
 21
205.5627567947823
 31
0.0
  0
LINE
  5
8EF5
  8
0
 10
44.87108154623871
 20
205.5627567947823
 30
0.0
 11
43.86949654623874
 21
205.5627567947823
 31
0.0
  0
LINE
  5
8EF6
  8
0
 10
43.86949654623874
 20
205.5627567947823
 30
0.0
 11
43.86949654623874
 21
205.2287728947823
 31
0.0
  0
LINE
  5
8EF7
  8
0
 10
45.5387415462387
 20
205.2287728947823
 30
0.0
 11
45.8727263962387
 21
205.2287728947823
 31
0.0
  0
LINE
  5
8EF8
  8
0
 10
45.8727263962387
 20
205.2287728947823
 30
0.0
 11
45.8727263962387
 21
205.5627567947823
 31
0.0
  0
LINE
  5
8EF9
  8
0
 10
45.8727263962387
 20
205.5627567947823
 30
0.0
 11
45.5387415462387
 21
205.5627567947823
 31
0.0
  0
LINE
  5
8EFA
  8
0
 10
45.5387415462387
 20
205.5627567947823
 30
0.0
 11
45.5387415462387
 21
205.2287728947823
 31
0.0
  0
LINE
  5
8EFB
  8
0
 10
46.20592654623871
 20
205.2287728947823
 30
0.0
 11
46.53991044623874
 21
205.2287728947823
 31
0.0
  0
LINE
  5
8EFC
  8
0
 10
46.53991044623874
 20
205.2287728947823
 30
0.0
 11
46.53991044623874
 21
205.5627567947823
 31
0.0
  0
LINE
  5
8EFD
  8
0
 10
46.53991044623874
 20
205.5627567947823
 30
0.0
 11
46.20592654623871
 21
205.5627567947823
 31
0.0
  0
LINE
  5
8EFE
  8
0
 10
46.20592654623871
 20
205.5627567947823
 30
0.0
 11
46.20592654623871
 21
205.2287728947823
 31
0.0
  0
LINE
  5
8EFF
  8
0
 10
47.54153154623873
 20
205.2287728947823
 30
0.0
 11
48.54311654623871
 21
205.2287728947823
 31
0.0
  0
LINE
  5
8F00
  8
0
 10
48.54311654623871
 20
205.2287728947823
 30
0.0
 11
48.54311654623871
 21
205.5627567947823
 31
0.0
  0
LINE
  5
8F01
  8
0
 10
48.54311654623871
 20
205.5627567947823
 30
0.0
 11
47.54153154623873
 21
205.5627567947823
 31
0.0
  0
LINE
  5
8F02
  8
0
 10
47.54153154623873
 20
205.5627567947823
 30
0.0
 11
47.54153154623873
 21
205.2287728947823
 31
0.0
  0
LINE
  5
8F03
  8
0
 10
49.20992154623872
 20
205.2287728947823
 30
0.0
 11
49.87751979623872
 21
205.2287728947823
 31
0.0
  0
LINE
  5
8F04
  8
0
 10
49.87751979623872
 20
205.2287728947823
 30
0.0
 11
49.87751979623872
 21
205.5627567947823
 31
0.0
  0
LINE
  5
8F05
  8
0
 10
49.87751979623872
 20
205.5627567947823
 30
0.0
 11
49.20992154623872
 21
205.5627567947823
 31
0.0
  0
LINE
  5
8F06
  8
0
 10
49.20992154623872
 20
205.5627567947823
 30
0.0
 11
49.20992154623872
 21
205.2287728947823
 31
0.0
  0
LINE
  5
8F07
  8
0
 10
50.54590654623871
 20
205.2287728947823
 30
0.0
 11
51.21313334623872
 21
205.2287728947823
 31
0.0
  0
LINE
  5
8F08
  8
0
 10
51.21313334623872
 20
205.2287728947823
 30
0.0
 11
51.21313334623872
 21
205.5627567947823
 31
0.0
  0
LINE
  5
8F09
  8
0
 10
51.21313334623872
 20
205.5627567947823
 30
0.0
 11
50.54590654623871
 21
205.5627567947823
 31
0.0
  0
LINE
  5
8F0A
  8
0
 10
50.54590654623871
 20
205.5627567947823
 30
0.0
 11
50.54590654623871
 21
205.2287728947823
 31
0.0
  0
LINE
  5
8F0B
  8
0
 10
51.5467315462387
 20
205.2287728947823
 30
0.0
 11
51.88071544623872
 21
205.2287728947823
 31
0.0
  0
LINE
  5
8F0C
  8
0
 10
51.88071544623872
 20
205.2287728947823
 30
0.0
 11
51.88071544623872
 21
205.5627567947823
 31
0.0
  0
LINE
  5
8F0D
  8
0
 10
51.88071544623872
 20
205.5627567947823
 30
0.0
 11
51.5467315462387
 21
205.5627567947823
 31
0.0
  0
LINE
  5
8F0E
  8
0
 10
51.5467315462387
 20
205.5627567947823
 30
0.0
 11
51.5467315462387
 21
205.2287728947823
 31
0.0
  0
LINE
  5
8F0F
  8
0
 10
52.21391654623872
 20
205.2287728947823
 30
0.0
 11
53.21550154623873
 21
205.2287728947823
 31
0.0
  0
LINE
  5
8F10
  8
0
 10
53.21550154623873
 20
205.2287728947823
 30
0.0
 11
53.21550154623873
 21
205.5627567947823
 31
0.0
  0
LINE
  5
8F11
  8
0
 10
53.21550154623873
 20
205.5627567947823
 30
0.0
 11
52.21391654623872
 21
205.5627567947823
 31
0.0
  0
LINE
  5
8F12
  8
0
 10
52.21391654623872
 20
205.5627567947823
 30
0.0
 11
52.21391654623872
 21
205.2287728947823
 31
0.0
  0
LINE
  5
8F13
  8
0
 10
42.53436654623872
 20
204.8951328947823
 30
0.0
 11
42.86872189623872
 21
204.8951328947823
 31
0.0
  0
LINE
  5
8F14
  8
0
 10
42.86872189623872
 20
204.8951328947823
 30
0.0
 11
42.86872189623872
 21
205.2291167947823
 31
0.0
  0
LINE
  5
8F15
  8
0
 10
42.86872189623872
 20
205.2291167947823
 30
0.0
 11
42.53436654623872
 21
205.2291167947823
 31
0.0
  0
LINE
  5
8F16
  8
0
 10
42.53436654623872
 20
205.2291167947823
 30
0.0
 11
42.53436654623872
 21
204.8951328947823
 31
0.0
  0
LINE
  5
8F17
  8
0
 10
43.86949654623874
 20
204.8951328947823
 30
0.0
 11
44.53709384623872
 21
204.8951328947823
 31
0.0
  0
LINE
  5
8F18
  8
0
 10
44.53709384623872
 20
204.8951328947823
 30
0.0
 11
44.53709384623872
 21
205.2291167947823
 31
0.0
  0
LINE
  5
8F19
  8
0
 10
44.53709384623872
 20
205.2291167947823
 30
0.0
 11
43.86949654623874
 21
205.2291167947823
 31
0.0
  0
LINE
  5
8F1A
  8
0
 10
43.86949654623874
 20
205.2291167947823
 30
0.0
 11
43.86949654623874
 21
204.8951328947823
 31
0.0
  0
LINE
  5
8F1B
  8
0
 10
44.87108154623871
 20
204.8951328947823
 30
0.0
 11
46.87350104623872
 21
204.8951328947823
 31
0.0
  0
LINE
  5
8F1C
  8
0
 10
46.87350104623872
 20
204.8951328947823
 30
0.0
 11
46.87350104623872
 21
205.2291167947823
 31
0.0
  0
LINE
  5
8F1D
  8
0
 10
46.87350104623872
 20
205.2291167947823
 30
0.0
 11
44.87108154623871
 21
205.2291167947823
 31
0.0
  0
LINE
  5
8F1E
  8
0
 10
44.87108154623871
 20
205.2291167947823
 30
0.0
 11
44.87108154623871
 21
204.8951328947823
 31
0.0
  0
LINE
  5
8F1F
  8
0
 10
48.54273654623873
 20
204.8951328947823
 30
0.0
 11
48.87672139623871
 21
204.8951328947823
 31
0.0
  0
LINE
  5
8F20
  8
0
 10
48.87672139623871
 20
204.8951328947823
 30
0.0
 11
48.87672139623871
 21
205.2291167947823
 31
0.0
  0
LINE
  5
8F21
  8
0
 10
48.87672139623871
 20
205.2291167947823
 30
0.0
 11
48.54273654623873
 21
205.2291167947823
 31
0.0
  0
LINE
  5
8F22
  8
0
 10
48.54273654623873
 20
205.2291167947823
 30
0.0
 11
48.54273654623873
 21
204.8951328947823
 31
0.0
  0
LINE
  5
8F23
  8
0
 10
49.87748654623871
 20
204.8951328947823
 30
0.0
 11
50.54508384623873
 21
204.8951328947823
 31
0.0
  0
LINE
  5
8F24
  8
0
 10
50.54508384623873
 20
204.8951328947823
 30
0.0
 11
50.54508384623873
 21
205.2291167947823
 31
0.0
  0
LINE
  5
8F25
  8
0
 10
50.54508384623873
 20
205.2291167947823
 30
0.0
 11
49.87748654623871
 21
205.2291167947823
 31
0.0
  0
LINE
  5
8F26
  8
0
 10
49.87748654623871
 20
205.2291167947823
 30
0.0
 11
49.87748654623871
 21
204.8951328947823
 31
0.0
  0
LINE
  5
8F27
  8
0
 10
50.87907154623872
 20
204.8951328947823
 30
0.0
 11
51.88065654623873
 21
204.8951328947823
 31
0.0
  0
LINE
  5
8F28
  8
0
 10
51.88065654623873
 20
204.8951328947823
 30
0.0
 11
51.88065654623873
 21
205.2291167947823
 31
0.0
  0
LINE
  5
8F29
  8
0
 10
51.88065654623873
 20
205.2291167947823
 30
0.0
 11
50.87907154623872
 21
205.2291167947823
 31
0.0
  0
LINE
  5
8F2A
  8
0
 10
50.87907154623872
 20
205.2291167947823
 30
0.0
 11
50.87907154623872
 21
204.8951328947823
 31
0.0
  0
LINE
  5
8F2B
  8
0
 10
52.21391654623872
 20
204.8951328947823
 30
0.0
 11
52.8815138462387
 21
204.8951328947823
 31
0.0
  0
LINE
  5
8F2C
  8
0
 10
52.8815138462387
 20
204.8951328947823
 30
0.0
 11
52.8815138462387
 21
205.2291167947823
 31
0.0
  0
LINE
  5
8F2D
  8
0
 10
52.8815138462387
 20
205.2291167947823
 30
0.0
 11
52.21391654623872
 21
205.2291167947823
 31
0.0
  0
LINE
  5
8F2E
  8
0
 10
52.21391654623872
 20
205.2291167947823
 30
0.0
 11
52.21391654623872
 21
204.8951328947823
 31
0.0
  0
LINE
  5
8F2F
  8
0
 10
53.21550154623873
 20
204.8951328947823
 30
0.0
 11
53.54985784623872
 21
204.8951328947823
 31
0.0
  0
LINE
  5
8F30
  8
0
 10
53.54985784623872
 20
204.8951328947823
 30
0.0
 11
53.54985784623872
 21
205.2291167947823
 31
0.0
  0
LINE
  5
8F31
  8
0
 10
53.54985784623872
 20
205.2291167947823
 30
0.0
 11
53.21550154623873
 21
205.2291167947823
 31
0.0
  0
LINE
  5
8F32
  8
0
 10
53.21550154623873
 20
205.2291167947823
 30
0.0
 11
53.21550154623873
 21
204.8951328947823
 31
0.0
  0
LINE
  5
8F33
  8
0
 10
42.53436654623872
 20
204.5611128947823
 30
0.0
 11
43.2019638462387
 21
204.5611128947823
 31
0.0
  0
LINE
  5
8F34
  8
0
 10
43.2019638462387
 20
204.5611128947823
 30
0.0
 11
43.2019638462387
 21
204.8950977447823
 31
0.0
  0
LINE
  5
8F35
  8
0
 10
43.2019638462387
 20
204.8950977447823
 30
0.0
 11
42.53436654623872
 21
204.8950977447823
 31
0.0
  0
LINE
  5
8F36
  8
0
 10
42.53436654623872
 20
204.8950977447823
 30
0.0
 11
42.53436654623872
 21
204.5611128947823
 31
0.0
  0
LINE
  5
8F37
  8
0
 10
43.53585654623873
 20
204.5611128947823
 30
0.0
 11
43.86984044623873
 21
204.5611128947823
 31
0.0
  0
LINE
  5
8F38
  8
0
 10
43.86984044623873
 20
204.5611128947823
 30
0.0
 11
43.86984044623873
 21
204.8950977447823
 31
0.0
  0
LINE
  5
8F39
  8
0
 10
43.86984044623873
 20
204.8950977447823
 30
0.0
 11
43.53585654623873
 21
204.8950977447823
 31
0.0
  0
LINE
  5
8F3A
  8
0
 10
43.53585654623873
 20
204.8950977447823
 30
0.0
 11
43.53585654623873
 21
204.5611128947823
 31
0.0
  0
LINE
  5
8F3B
  8
0
 10
44.20351654623872
 20
204.5611128947823
 30
0.0
 11
46.20593604623872
 21
204.5611128947823
 31
0.0
  0
LINE
  5
8F3C
  8
0
 10
46.20593604623872
 20
204.5611128947823
 30
0.0
 11
46.20593604623872
 21
204.8950977447823
 31
0.0
  0
LINE
  5
8F3D
  8
0
 10
46.20593604623872
 20
204.8950977447823
 30
0.0
 11
44.20351654623872
 21
204.8950977447823
 31
0.0
  0
LINE
  5
8F3E
  8
0
 10
44.20351654623872
 20
204.8950977447823
 30
0.0
 11
44.20351654623872
 21
204.5611128947823
 31
0.0
  0
LINE
  5
8F3F
  8
0
 10
47.54153154623873
 20
204.5611128947823
 30
0.0
 11
48.2091297962387
 21
204.5611128947823
 31
0.0
  0
LINE
  5
8F40
  8
0
 10
48.2091297962387
 20
204.5611128947823
 30
0.0
 11
48.2091297962387
 21
204.8950977447823
 31
0.0
  0
LINE
  5
8F41
  8
0
 10
48.2091297962387
 20
204.8950977447823
 30
0.0
 11
47.54153154623873
 21
204.8950977447823
 31
0.0
  0
LINE
  5
8F42
  8
0
 10
47.54153154623873
 20
204.8950977447823
 30
0.0
 11
47.54153154623873
 21
204.5611128947823
 31
0.0
  0
LINE
  5
8F43
  8
0
 10
48.87666154623872
 20
204.5611128947823
 30
0.0
 11
49.54425884623871
 21
204.5611128947823
 31
0.0
  0
LINE
  5
8F44
  8
0
 10
49.54425884623871
 20
204.5611128947823
 30
0.0
 11
49.54425884623871
 21
204.8950977447823
 31
0.0
  0
LINE
  5
8F45
  8
0
 10
49.54425884623871
 20
204.8950977447823
 30
0.0
 11
48.87666154623872
 21
204.8950977447823
 31
0.0
  0
LINE
  5
8F46
  8
0
 10
48.87666154623872
 20
204.8950977447823
 30
0.0
 11
48.87666154623872
 21
204.5611128947823
 31
0.0
  0
LINE
  5
8F47
  8
0
 10
50.54590654623871
 20
204.5611128947823
 30
0.0
 11
52.54832604623871
 21
204.5611128947823
 31
0.0
  0
LINE
  5
8F48
  8
0
 10
52.54832604623871
 20
204.5611128947823
 30
0.0
 11
52.54832604623871
 21
204.8950977447823
 31
0.0
  0
LINE
  5
8F49
  8
0
 10
52.54832604623871
 20
204.8950977447823
 30
0.0
 11
50.54590654623871
 21
204.8950977447823
 31
0.0
  0
LINE
  5
8F4A
  8
0
 10
50.54590654623871
 20
204.8950977447823
 30
0.0
 11
50.54590654623871
 21
204.5611128947823
 31
0.0
  0
LINE
  5
8F4B
  8
0
 10
45.20510154623872
 20
204.2275678947823
 30
0.0
 11
45.53908639623873
 21
204.2275678947823
 31
0.0
  0
LINE
  5
8F4C
  8
0
 10
45.53908639623873
 20
204.2275678947823
 30
0.0
 11
45.53908639623873
 21
204.5615527447823
 31
0.0
  0
LINE
  5
8F4D
  8
0
 10
45.53908639623873
 20
204.5615527447823
 30
0.0
 11
45.20510154623872
 21
204.5615527447823
 31
0.0
  0
LINE
  5
8F4E
  8
0
 10
45.20510154623872
 20
204.5615527447823
 30
0.0
 11
45.20510154623872
 21
204.2275678947823
 31
0.0
  0
LINE
  5
8F4F
  8
0
 10
46.20592654623871
 20
204.2275678947823
 30
0.0
 11
46.53991044623874
 21
204.2275678947823
 31
0.0
  0
LINE
  5
8F50
  8
0
 10
46.53991044623874
 20
204.2275678947823
 30
0.0
 11
46.53991044623874
 21
204.5615527447823
 31
0.0
  0
LINE
  5
8F51
  8
0
 10
46.53991044623874
 20
204.5615527447823
 30
0.0
 11
46.20592654623871
 21
204.5615527447823
 31
0.0
  0
LINE
  5
8F52
  8
0
 10
46.20592654623871
 20
204.5615527447823
 30
0.0
 11
46.20592654623871
 21
204.2275678947823
 31
0.0
  0
LINE
  5
8F53
  8
0
 10
46.87349154623871
 20
204.2275678947823
 30
0.0
 11
47.20747639623872
 21
204.2275678947823
 31
0.0
  0
LINE
  5
8F54
  8
0
 10
47.20747639623872
 20
204.2275678947823
 30
0.0
 11
47.20747639623872
 21
204.5615527447823
 31
0.0
  0
LINE
  5
8F55
  8
0
 10
47.20747639623872
 20
204.5615527447823
 30
0.0
 11
46.87349154623871
 21
204.5615527447823
 31
0.0
  0
LINE
  5
8F56
  8
0
 10
46.87349154623871
 20
204.5615527447823
 30
0.0
 11
46.87349154623871
 21
204.2275678947823
 31
0.0
  0
LINE
  5
8F57
  8
0
 10
47.54153154623873
 20
204.2275678947823
 30
0.0
 11
47.87588689623874
 21
204.2275678947823
 31
0.0
  0
LINE
  5
8F58
  8
0
 10
47.87588689623874
 20
204.2275678947823
 30
0.0
 11
47.87588689623874
 21
204.5615527447823
 31
0.0
  0
LINE
  5
8F59
  8
0
 10
47.87588689623874
 20
204.5615527447823
 30
0.0
 11
47.54153154623873
 21
204.5615527447823
 31
0.0
  0
LINE
  5
8F5A
  8
0
 10
47.54153154623873
 20
204.5615527447823
 30
0.0
 11
47.54153154623873
 21
204.2275678947823
 31
0.0
  0
LINE
  5
8F5B
  8
0
 10
48.54273654623873
 20
204.2275678947823
 30
0.0
 11
49.54395104623873
 21
204.2275678947823
 31
0.0
  0
LINE
  5
8F5C
  8
0
 10
49.54395104623873
 20
204.2275678947823
 30
0.0
 11
49.54395104623873
 21
204.5615527447823
 31
0.0
  0
LINE
  5
8F5D
  8
0
 10
49.54395104623873
 20
204.5615527447823
 30
0.0
 11
48.54273654623873
 21
204.5615527447823
 31
0.0
  0
LINE
  5
8F5E
  8
0
 10
48.54273654623873
 20
204.5615527447823
 30
0.0
 11
48.54273654623873
 21
204.2275678947823
 31
0.0
  0
LINE
  5
8F5F
  8
0
 10
49.87748654623871
 20
204.2275678947823
 30
0.0
 11
50.87907154623872
 21
204.2275678947823
 31
0.0
  0
LINE
  5
8F60
  8
0
 10
50.87907154623872
 20
204.2275678947823
 30
0.0
 11
50.87907154623872
 21
204.5615527447823
 31
0.0
  0
LINE
  5
8F61
  8
0
 10
50.87907154623872
 20
204.5615527447823
 30
0.0
 11
49.87748654623871
 21
204.5615527447823
 31
0.0
  0
LINE
  5
8F62
  8
0
 10
49.87748654623871
 20
204.5615527447823
 30
0.0
 11
49.87748654623871
 21
204.2275678947823
 31
0.0
  0
LINE
  5
8F63
  8
0
 10
51.88065654623873
 20
204.2275678947823
 30
0.0
 11
52.2146413962387
 21
204.2275678947823
 31
0.0
  0
LINE
  5
8F64
  8
0
 10
52.2146413962387
 20
204.2275678947823
 30
0.0
 11
52.2146413962387
 21
204.5615527447823
 31
0.0
  0
LINE
  5
8F65
  8
0
 10
52.2146413962387
 20
204.5615527447823
 30
0.0
 11
51.88065654623873
 21
204.5615527447823
 31
0.0
  0
LINE
  5
8F66
  8
0
 10
51.88065654623873
 20
204.5615527447823
 30
0.0
 11
51.88065654623873
 21
204.2275678947823
 31
0.0
  0
LINE
  5
8F67
  8
0
 10
52.54831654623871
 20
204.2275678947823
 30
0.0
 11
53.54990154623871
 21
204.2275678947823
 31
0.0
  0
LINE
  5
8F68
  8
0
 10
53.54990154623871
 20
204.2275678947823
 30
0.0
 11
53.54990154623871
 21
204.5615527447823
 31
0.0
  0
LINE
  5
8F69
  8
0
 10
53.54990154623871
 20
204.5615527447823
 30
0.0
 11
52.54831654623871
 21
204.5615527447823
 31
0.0
  0
LINE
  5
8F6A
  8
0
 10
52.54831654623871
 20
204.5615527447823
 30
0.0
 11
52.54831654623871
 21
204.2275678947823
 31
0.0
  0
LINE
  5
8F6B
  8
0
 10
42.53436654623872
 20
203.8935478947823
 30
0.0
 11
44.87114804623874
 21
203.8935478947823
 31
0.0
  0
LINE
  5
8F6C
  8
0
 10
44.87114804623874
 20
203.8935478947823
 30
0.0
 11
44.87114804623874
 21
204.2275317947824
 31
0.0
  0
LINE
  5
8F6D
  8
0
 10
44.87114804623874
 20
204.2275317947824
 30
0.0
 11
42.53436654623872
 21
204.2275317947824
 31
0.0
  0
LINE
  5
8F6E
  8
0
 10
42.53436654623872
 20
204.2275317947824
 30
0.0
 11
42.53436654623872
 21
203.8935478947823
 31
0.0
  0
LINE
  5
8F6F
  8
0
 10
46.20592654623871
 20
203.8935478947823
 30
0.0
 11
47.20751154623872
 21
203.8935478947823
 31
0.0
  0
LINE
  5
8F70
  8
0
 10
47.20751154623872
 20
203.8935478947823
 30
0.0
 11
47.20751154623872
 21
204.2275317947824
 31
0.0
  0
LINE
  5
8F71
  8
0
 10
47.20751154623872
 20
204.2275317947824
 30
0.0
 11
46.20592654623871
 21
204.2275317947824
 31
0.0
  0
LINE
  5
8F72
  8
0
 10
46.20592654623871
 20
204.2275317947824
 30
0.0
 11
46.20592654623871
 21
203.8935478947823
 31
0.0
  0
LINE
  5
8F73
  8
0
 10
47.54153154623873
 20
203.8935478947823
 30
0.0
 11
48.2091297962387
 21
203.8935478947823
 31
0.0
  0
LINE
  5
8F74
  8
0
 10
48.2091297962387
 20
203.8935478947823
 30
0.0
 11
48.2091297962387
 21
204.2275317947824
 31
0.0
  0
LINE
  5
8F75
  8
0
 10
48.2091297962387
 20
204.2275317947824
 30
0.0
 11
47.54153154623873
 21
204.2275317947824
 31
0.0
  0
LINE
  5
8F76
  8
0
 10
47.54153154623873
 20
204.2275317947824
 30
0.0
 11
47.54153154623873
 21
203.8935478947823
 31
0.0
  0
LINE
  5
8F77
  8
0
 10
48.54273654623873
 20
203.8935478947823
 30
0.0
 11
48.87672139623871
 21
203.8935478947823
 31
0.0
  0
LINE
  5
8F78
  8
0
 10
48.87672139623871
 20
203.8935478947823
 30
0.0
 11
48.87672139623871
 21
204.2275317947824
 31
0.0
  0
LINE
  5
8F79
  8
0
 10
48.87672139623871
 20
204.2275317947824
 30
0.0
 11
48.54273654623873
 21
204.2275317947824
 31
0.0
  0
LINE
  5
8F7A
  8
0
 10
48.54273654623873
 20
204.2275317947824
 30
0.0
 11
48.54273654623873
 21
203.8935478947823
 31
0.0
  0
LINE
  5
8F7B
  8
0
 10
49.20992154623872
 20
203.8935478947823
 30
0.0
 11
49.87751979623872
 21
203.8935478947823
 31
0.0
  0
LINE
  5
8F7C
  8
0
 10
49.87751979623872
 20
203.8935478947823
 30
0.0
 11
49.87751979623872
 21
204.2275317947824
 31
0.0
  0
LINE
  5
8F7D
  8
0
 10
49.87751979623872
 20
204.2275317947824
 30
0.0
 11
49.20992154623872
 21
204.2275317947824
 31
0.0
  0
LINE
  5
8F7E
  8
0
 10
49.20992154623872
 20
204.2275317947824
 30
0.0
 11
49.20992154623872
 21
203.8935478947823
 31
0.0
  0
LINE
  5
8F7F
  8
0
 10
50.21150654623872
 20
203.8935478947823
 30
0.0
 11
50.87910384623871
 21
203.8935478947823
 31
0.0
  0
LINE
  5
8F80
  8
0
 10
50.87910384623871
 20
203.8935478947823
 30
0.0
 11
50.87910384623871
 21
204.2275317947824
 31
0.0
  0
LINE
  5
8F81
  8
0
 10
50.87910384623871
 20
204.2275317947824
 30
0.0
 11
50.21150654623872
 21
204.2275317947824
 31
0.0
  0
LINE
  5
8F82
  8
0
 10
50.21150654623872
 20
204.2275317947824
 30
0.0
 11
50.21150654623872
 21
203.8935478947823
 31
0.0
  0
LINE
  5
8F83
  8
0
 10
51.21309154623873
 20
203.8935478947823
 30
0.0
 11
51.54707544623872
 21
203.8935478947823
 31
0.0
  0
LINE
  5
8F84
  8
0
 10
51.54707544623872
 20
203.8935478947823
 30
0.0
 11
51.54707544623872
 21
204.2275317947824
 31
0.0
  0
LINE
  5
8F85
  8
0
 10
51.54707544623872
 20
204.2275317947824
 30
0.0
 11
51.21309154623873
 21
204.2275317947824
 31
0.0
  0
LINE
  5
8F86
  8
0
 10
51.21309154623873
 20
204.2275317947824
 30
0.0
 11
51.21309154623873
 21
203.8935478947823
 31
0.0
  0
LINE
  5
8F87
  8
0
 10
51.88065654623873
 20
203.8935478947823
 30
0.0
 11
52.2146413962387
 21
203.8935478947823
 31
0.0
  0
LINE
  5
8F88
  8
0
 10
52.2146413962387
 20
203.8935478947823
 30
0.0
 11
52.2146413962387
 21
204.2275317947824
 31
0.0
  0
LINE
  5
8F89
  8
0
 10
52.2146413962387
 20
204.2275317947824
 30
0.0
 11
51.88065654623873
 21
204.2275317947824
 31
0.0
  0
LINE
  5
8F8A
  8
0
 10
51.88065654623873
 20
204.2275317947824
 30
0.0
 11
51.88065654623873
 21
203.8935478947823
 31
0.0
  0
LINE
  5
8F8B
  8
0
 10
52.54831654623871
 20
203.8935478947823
 30
0.0
 11
53.21554239623873
 21
203.8935478947823
 31
0.0
  0
LINE
  5
8F8C
  8
0
 10
53.21554239623873
 20
203.8935478947823
 30
0.0
 11
53.21554239623873
 21
204.2275317947824
 31
0.0
  0
LINE
  5
8F8D
  8
0
 10
53.21554239623873
 20
204.2275317947824
 30
0.0
 11
52.54831654623871
 21
204.2275317947824
 31
0.0
  0
LINE
  5
8F8E
  8
0
 10
52.54831654623871
 20
204.2275317947824
 30
0.0
 11
52.54831654623871
 21
203.8935478947823
 31
0.0
  0
LINE
  5
8F8F
  8
0
 10
42.53436654623872
 20
203.5602878947823
 30
0.0
 11
42.86872189623872
 21
203.5602878947823
 31
0.0
  0
LINE
  5
8F90
  8
0
 10
42.86872189623872
 20
203.5602878947823
 30
0.0
 11
42.86872189623872
 21
203.8942717947823
 31
0.0
  0
LINE
  5
8F91
  8
0
 10
42.86872189623872
 20
203.8942717947823
 30
0.0
 11
42.53436654623872
 21
203.8942717947823
 31
0.0
  0
LINE
  5
8F92
  8
0
 10
42.53436654623872
 20
203.8942717947823
 30
0.0
 11
42.53436654623872
 21
203.5602878947823
 31
0.0
  0
LINE
  5
8F93
  8
0
 10
44.53744154623871
 20
203.5602878947823
 30
0.0
 11
44.8714254462387
 21
203.5602878947823
 31
0.0
  0
LINE
  5
8F94
  8
0
 10
44.8714254462387
 20
203.5602878947823
 30
0.0
 11
44.8714254462387
 21
203.8942717947823
 31
0.0
  0
LINE
  5
8F95
  8
0
 10
44.8714254462387
 20
203.8942717947823
 30
0.0
 11
44.53744154623871
 21
203.8942717947823
 31
0.0
  0
LINE
  5
8F96
  8
0
 10
44.53744154623871
 20
203.8942717947823
 30
0.0
 11
44.53744154623871
 21
203.5602878947823
 31
0.0
  0
LINE
  5
8F97
  8
0
 10
45.5387415462387
 20
203.5602878947823
 30
0.0
 11
46.5399560462387
 21
203.5602878947823
 31
0.0
  0
LINE
  5
8F98
  8
0
 10
46.5399560462387
 20
203.5602878947823
 30
0.0
 11
46.5399560462387
 21
203.8942717947823
 31
0.0
  0
LINE
  5
8F99
  8
0
 10
46.5399560462387
 20
203.8942717947823
 30
0.0
 11
45.5387415462387
 21
203.8942717947823
 31
0.0
  0
LINE
  5
8F9A
  8
0
 10
45.5387415462387
 20
203.8942717947823
 30
0.0
 11
45.5387415462387
 21
203.5602878947823
 31
0.0
  0
LINE
  5
8F9B
  8
0
 10
47.54153154623873
 20
203.5602878947823
 30
0.0
 11
47.87588689623874
 21
203.5602878947823
 31
0.0
  0
LINE
  5
8F9C
  8
0
 10
47.87588689623874
 20
203.5602878947823
 30
0.0
 11
47.87588689623874
 21
203.8942717947823
 31
0.0
  0
LINE
  5
8F9D
  8
0
 10
47.87588689623874
 20
203.8942717947823
 30
0.0
 11
47.54153154623873
 21
203.8942717947823
 31
0.0
  0
LINE
  5
8F9E
  8
0
 10
47.54153154623873
 20
203.8942717947823
 30
0.0
 11
47.54153154623873
 21
203.5602878947823
 31
0.0
  0
LINE
  5
8F9F
  8
0
 10
49.20992154623872
 20
203.5602878947823
 30
0.0
 11
49.54427689623873
 21
203.5602878947823
 31
0.0
  0
LINE
  5
8FA0
  8
0
 10
49.54427689623873
 20
203.5602878947823
 30
0.0
 11
49.54427689623873
 21
203.8942717947823
 31
0.0
  0
LINE
  5
8FA1
  8
0
 10
49.54427689623873
 20
203.8942717947823
 30
0.0
 11
49.20992154623872
 21
203.8942717947823
 31
0.0
  0
LINE
  5
8FA2
  8
0
 10
49.20992154623872
 20
203.8942717947823
 30
0.0
 11
49.20992154623872
 21
203.5602878947823
 31
0.0
  0
LINE
  5
8FA3
  8
0
 10
50.21150654623872
 20
203.5602878947823
 30
0.0
 11
50.87910384623871
 21
203.5602878947823
 31
0.0
  0
LINE
  5
8FA4
  8
0
 10
50.87910384623871
 20
203.5602878947823
 30
0.0
 11
50.87910384623871
 21
203.8942717947823
 31
0.0
  0
LINE
  5
8FA5
  8
0
 10
50.87910384623871
 20
203.8942717947823
 30
0.0
 11
50.21150654623872
 21
203.8942717947823
 31
0.0
  0
LINE
  5
8FA6
  8
0
 10
50.21150654623872
 20
203.8942717947823
 30
0.0
 11
50.21150654623872
 21
203.5602878947823
 31
0.0
  0
LINE
  5
8FA7
  8
0
 10
51.88065654623873
 20
203.5602878947823
 30
0.0
 11
52.8822415462387
 21
203.5602878947823
 31
0.0
  0
LINE
  5
8FA8
  8
0
 10
52.8822415462387
 20
203.5602878947823
 30
0.0
 11
52.8822415462387
 21
203.8942717947823
 31
0.0
  0
LINE
  5
8FA9
  8
0
 10
52.8822415462387
 20
203.8942717947823
 30
0.0
 11
51.88065654623873
 21
203.8942717947823
 31
0.0
  0
LINE
  5
8FAA
  8
0
 10
51.88065654623873
 20
203.8942717947823
 30
0.0
 11
51.88065654623873
 21
203.5602878947823
 31
0.0
  0
LINE
  5
8FAB
  8
0
 10
53.21550154623873
 20
203.5602878947823
 30
0.0
 11
53.54985784623872
 21
203.5602878947823
 31
0.0
  0
LINE
  5
8FAC
  8
0
 10
53.54985784623872
 20
203.5602878947823
 30
0.0
 11
53.54985784623872
 21
203.8942717947823
 31
0.0
  0
LINE
  5
8FAD
  8
0
 10
53.54985784623872
 20
203.8942717947823
 30
0.0
 11
53.21550154623873
 21
203.8942717947823
 31
0.0
  0
LINE
  5
8FAE
  8
0
 10
53.21550154623873
 20
203.8942717947823
 30
0.0
 11
53.21550154623873
 21
203.5602878947823
 31
0.0
  0
LINE
  5
8FAF
  8
0
 10
42.53436654623872
 20
203.2262678947823
 30
0.0
 11
42.86872189623872
 21
203.2262678947823
 31
0.0
  0
LINE
  5
8FB0
  8
0
 10
42.86872189623872
 20
203.2262678947823
 30
0.0
 11
42.86872189623872
 21
203.5602527447823
 31
0.0
  0
LINE
  5
8FB1
  8
0
 10
42.86872189623872
 20
203.5602527447823
 30
0.0
 11
42.53436654623872
 21
203.5602527447823
 31
0.0
  0
LINE
  5
8FB2
  8
0
 10
42.53436654623872
 20
203.5602527447823
 30
0.0
 11
42.53436654623872
 21
203.2262678947823
 31
0.0
  0
LINE
  5
8FB3
  8
0
 10
43.20193154623871
 20
203.2262678947823
 30
0.0
 11
44.20351654623872
 21
203.2262678947823
 31
0.0
  0
LINE
  5
8FB4
  8
0
 10
44.20351654623872
 20
203.2262678947823
 30
0.0
 11
44.20351654623872
 21
203.5602527447823
 31
0.0
  0
LINE
  5
8FB5
  8
0
 10
44.20351654623872
 20
203.5602527447823
 30
0.0
 11
43.20193154623871
 21
203.5602527447823
 31
0.0
  0
LINE
  5
8FB6
  8
0
 10
43.20193154623871
 20
203.5602527447823
 30
0.0
 11
43.20193154623871
 21
203.2262678947823
 31
0.0
  0
LINE
  5
8FB7
  8
0
 10
44.53744154623871
 20
203.2262678947823
 30
0.0
 11
44.8714254462387
 21
203.2262678947823
 31
0.0
  0
LINE
  5
8FB8
  8
0
 10
44.8714254462387
 20
203.2262678947823
 30
0.0
 11
44.8714254462387
 21
203.5602527447823
 31
0.0
  0
LINE
  5
8FB9
  8
0
 10
44.8714254462387
 20
203.5602527447823
 30
0.0
 11
44.53744154623871
 21
203.5602527447823
 31
0.0
  0
LINE
  5
8FBA
  8
0
 10
44.53744154623871
 20
203.5602527447823
 30
0.0
 11
44.53744154623871
 21
203.2262678947823
 31
0.0
  0
LINE
  5
8FBB
  8
0
 10
45.87266654623872
 20
203.2262678947823
 30
0.0
 11
46.53989239623871
 21
203.2262678947823
 31
0.0
  0
LINE
  5
8FBC
  8
0
 10
46.53989239623871
 20
203.2262678947823
 30
0.0
 11
46.53989239623871
 21
203.5602527447823
 31
0.0
  0
LINE
  5
8FBD
  8
0
 10
46.53989239623871
 20
203.5602527447823
 30
0.0
 11
45.87266654623872
 21
203.5602527447823
 31
0.0
  0
LINE
  5
8FBE
  8
0
 10
45.87266654623872
 20
203.5602527447823
 30
0.0
 11
45.87266654623872
 21
203.2262678947823
 31
0.0
  0
LINE
  5
8FBF
  8
0
 10
46.87349154623871
 20
203.2262678947823
 30
0.0
 11
47.54108979623874
 21
203.2262678947823
 31
0.0
  0
LINE
  5
8FC0
  8
0
 10
47.54108979623874
 20
203.2262678947823
 30
0.0
 11
47.54108979623874
 21
203.5602527447823
 31
0.0
  0
LINE
  5
8FC1
  8
0
 10
47.54108979623874
 20
203.5602527447823
 30
0.0
 11
46.87349154623871
 21
203.5602527447823
 31
0.0
  0
LINE
  5
8FC2
  8
0
 10
46.87349154623871
 20
203.5602527447823
 30
0.0
 11
46.87349154623871
 21
203.2262678947823
 31
0.0
  0
LINE
  5
8FC3
  8
0
 10
48.54273654623873
 20
203.2262678947823
 30
0.0
 11
49.20996334623874
 21
203.2262678947823
 31
0.0
  0
LINE
  5
8FC4
  8
0
 10
49.20996334623874
 20
203.2262678947823
 30
0.0
 11
49.20996334623874
 21
203.5602527447823
 31
0.0
  0
LINE
  5
8FC5
  8
0
 10
49.20996334623874
 20
203.5602527447823
 30
0.0
 11
48.54273654623873
 21
203.5602527447823
 31
0.0
  0
LINE
  5
8FC6
  8
0
 10
48.54273654623873
 20
203.5602527447823
 30
0.0
 11
48.54273654623873
 21
203.2262678947823
 31
0.0
  0
LINE
  5
8FC7
  8
0
 10
49.54432154623871
 20
203.2262678947823
 30
0.0
 11
49.87830639623871
 21
203.2262678947823
 31
0.0
  0
LINE
  5
8FC8
  8
0
 10
49.87830639623871
 20
203.2262678947823
 30
0.0
 11
49.87830639623871
 21
203.5602527447823
 31
0.0
  0
LINE
  5
8FC9
  8
0
 10
49.87830639623871
 20
203.5602527447823
 30
0.0
 11
49.54432154623871
 21
203.5602527447823
 31
0.0
  0
LINE
  5
8FCA
  8
0
 10
49.54432154623871
 20
203.5602527447823
 30
0.0
 11
49.54432154623871
 21
203.2262678947823
 31
0.0
  0
LINE
  5
8FCB
  8
0
 10
50.54590654623871
 20
203.2262678947823
 30
0.0
 11
52.54832604623871
 21
203.2262678947823
 31
0.0
  0
LINE
  5
8FCC
  8
0
 10
52.54832604623871
 20
203.2262678947823
 30
0.0
 11
52.54832604623871
 21
203.5602527447823
 31
0.0
  0
LINE
  5
8FCD
  8
0
 10
52.54832604623871
 20
203.5602527447823
 30
0.0
 11
50.54590654623871
 21
203.5602527447823
 31
0.0
  0
LINE
  5
8FCE
  8
0
 10
50.54590654623871
 20
203.5602527447823
 30
0.0
 11
50.54590654623871
 21
203.2262678947823
 31
0.0
  0
LINE
  5
8FCF
  8
0
 10
42.53436654623872
 20
202.8919628947824
 30
0.0
 11
42.86872189623872
 21
202.8919628947824
 31
0.0
  0
LINE
  5
8FD0
  8
0
 10
42.86872189623872
 20
202.8919628947824
 30
0.0
 11
42.86872189623872
 21
203.2263182447823
 31
0.0
  0
LINE
  5
8FD1
  8
0
 10
42.86872189623872
 20
203.2263182447823
 30
0.0
 11
42.53436654623872
 21
203.2263182447823
 31
0.0
  0
LINE
  5
8FD2
  8
0
 10
42.53436654623872
 20
203.2263182447823
 30
0.0
 11
42.53436654623872
 21
202.8919628947824
 31
0.0
  0
LINE
  5
8FD3
  8
0
 10
43.20193154623871
 20
202.8919628947824
 30
0.0
 11
44.20351654623872
 21
202.8919628947824
 31
0.0
  0
LINE
  5
8FD4
  8
0
 10
44.20351654623872
 20
202.8919628947824
 30
0.0
 11
44.20351654623872
 21
203.2263182447823
 31
0.0
  0
LINE
  5
8FD5
  8
0
 10
44.20351654623872
 20
203.2263182447823
 30
0.0
 11
43.20193154623871
 21
203.2263182447823
 31
0.0
  0
LINE
  5
8FD6
  8
0
 10
43.20193154623871
 20
203.2263182447823
 30
0.0
 11
43.20193154623871
 21
202.8919628947824
 31
0.0
  0
LINE
  5
8FD7
  8
0
 10
44.53744154623871
 20
202.8919628947824
 30
0.0
 11
44.8714254462387
 21
202.8919628947824
 31
0.0
  0
LINE
  5
8FD8
  8
0
 10
44.8714254462387
 20
202.8919628947824
 30
0.0
 11
44.8714254462387
 21
203.2263182447823
 31
0.0
  0
LINE
  5
8FD9
  8
0
 10
44.8714254462387
 20
203.2263182447823
 30
0.0
 11
44.53744154623871
 21
203.2263182447823
 31
0.0
  0
LINE
  5
8FDA
  8
0
 10
44.53744154623871
 20
203.2263182447823
 30
0.0
 11
44.53744154623871
 21
202.8919628947824
 31
0.0
  0
LINE
  5
8FDB
  8
0
 10
45.5387415462387
 20
202.8919628947824
 30
0.0
 11
46.87356754623872
 21
202.8919628947824
 31
0.0
  0
LINE
  5
8FDC
  8
0
 10
46.87356754623872
 20
202.8919628947824
 30
0.0
 11
46.87356754623872
 21
203.2263182447823
 31
0.0
  0
LINE
  5
8FDD
  8
0
 10
46.87356754623872
 20
203.2263182447823
 30
0.0
 11
45.5387415462387
 21
203.2263182447823
 31
0.0
  0
LINE
  5
8FDE
  8
0
 10
45.5387415462387
 20
203.2263182447823
 30
0.0
 11
45.5387415462387
 21
202.8919628947824
 31
0.0
  0
LINE
  5
8FDF
  8
0
 10
47.20751154623872
 20
202.8919628947824
 30
0.0
 11
47.54149544623874
 21
202.8919628947824
 31
0.0
  0
LINE
  5
8FE0
  8
0
 10
47.54149544623874
 20
202.8919628947824
 30
0.0
 11
47.54149544623874
 21
203.2263182447823
 31
0.0
  0
LINE
  5
8FE1
  8
0
 10
47.54149544623874
 20
203.2263182447823
 30
0.0
 11
47.20751154623872
 21
203.2263182447823
 31
0.0
  0
LINE
  5
8FE2
  8
0
 10
47.20751154623872
 20
203.2263182447823
 30
0.0
 11
47.20751154623872
 21
202.8919628947824
 31
0.0
  0
LINE
  5
8FE3
  8
0
 10
47.87507654623872
 20
202.8919628947824
 30
0.0
 11
48.20906139623872
 21
202.8919628947824
 31
0.0
  0
LINE
  5
8FE4
  8
0
 10
48.20906139623872
 20
202.8919628947824
 30
0.0
 11
48.20906139623872
 21
203.2263182447823
 31
0.0
  0
LINE
  5
8FE5
  8
0
 10
48.20906139623872
 20
203.2263182447823
 30
0.0
 11
47.87507654623872
 21
203.2263182447823
 31
0.0
  0
LINE
  5
8FE6
  8
0
 10
47.87507654623872
 20
203.2263182447823
 30
0.0
 11
47.87507654623872
 21
202.8919628947824
 31
0.0
  0
LINE
  5
8FE7
  8
0
 10
49.20992154623872
 20
202.8919628947824
 30
0.0
 11
49.54427689623873
 21
202.8919628947824
 31
0.0
  0
LINE
  5
8FE8
  8
0
 10
49.54427689623873
 20
202.8919628947824
 30
0.0
 11
49.54427689623873
 21
203.2263182447823
 31
0.0
  0
LINE
  5
8FE9
  8
0
 10
49.54427689623873
 20
203.2263182447823
 30
0.0
 11
49.20992154623872
 21
203.2263182447823
 31
0.0
  0
LINE
  5
8FEA
  8
0
 10
49.20992154623872
 20
203.2263182447823
 30
0.0
 11
49.20992154623872
 21
202.8919628947824
 31
0.0
  0
LINE
  5
8FEB
  8
0
 10
49.87748654623871
 20
202.8919628947824
 30
0.0
 11
50.54508384623873
 21
202.8919628947824
 31
0.0
  0
LINE
  5
8FEC
  8
0
 10
50.54508384623873
 20
202.8919628947824
 30
0.0
 11
50.54508384623873
 21
203.2263182447823
 31
0.0
  0
LINE
  5
8FED
  8
0
 10
50.54508384623873
 20
203.2263182447823
 30
0.0
 11
49.87748654623871
 21
203.2263182447823
 31
0.0
  0
LINE
  5
8FEE
  8
0
 10
49.87748654623871
 20
203.2263182447823
 30
0.0
 11
49.87748654623871
 21
202.8919628947824
 31
0.0
  0
LINE
  5
8FEF
  8
0
 10
50.87907154623872
 20
202.8919628947824
 30
0.0
 11
51.21305639623873
 21
202.8919628947824
 31
0.0
  0
LINE
  5
8FF0
  8
0
 10
51.21305639623873
 20
202.8919628947824
 30
0.0
 11
51.21305639623873
 21
203.2263182447823
 31
0.0
  0
LINE
  5
8FF1
  8
0
 10
51.21305639623873
 20
203.2263182447823
 30
0.0
 11
50.87907154623872
 21
203.2263182447823
 31
0.0
  0
LINE
  5
8FF2
  8
0
 10
50.87907154623872
 20
203.2263182447823
 30
0.0
 11
50.87907154623872
 21
202.8919628947824
 31
0.0
  0
LINE
  5
8FF3
  8
0
 10
51.5467315462387
 20
202.8919628947824
 30
0.0
 11
52.21395834623874
 21
202.8919628947824
 31
0.0
  0
LINE
  5
8FF4
  8
0
 10
52.21395834623874
 20
202.8919628947824
 30
0.0
 11
52.21395834623874
 21
203.2263182447823
 31
0.0
  0
LINE
  5
8FF5
  8
0
 10
52.21395834623874
 20
203.2263182447823
 30
0.0
 11
51.5467315462387
 21
203.2263182447823
 31
0.0
  0
LINE
  5
8FF6
  8
0
 10
51.5467315462387
 20
203.2263182447823
 30
0.0
 11
51.5467315462387
 21
202.8919628947824
 31
0.0
  0
LINE
  5
8FF7
  8
0
 10
52.54831654623871
 20
202.8919628947824
 30
0.0
 11
52.8823004462387
 21
202.8919628947824
 31
0.0
  0
LINE
  5
8FF8
  8
0
 10
52.8823004462387
 20
202.8919628947824
 30
0.0
 11
52.8823004462387
 21
203.2263182447823
 31
0.0
  0
LINE
  5
8FF9
  8
0
 10
52.8823004462387
 20
203.2263182447823
 30
0.0
 11
52.54831654623871
 21
203.2263182447823
 31
0.0
  0
LINE
  5
8FFA
  8
0
 10
52.54831654623871
 20
203.2263182447823
 30
0.0
 11
52.54831654623871
 21
202.8919628947824
 31
0.0
  0
LINE
  5
8FFB
  8
0
 10
53.21550154623873
 20
202.8919628947824
 30
0.0
 11
53.54985784623872
 21
202.8919628947824
 31
0.0
  0
LINE
  5
8FFC
  8
0
 10
53.54985784623872
 20
202.8919628947824
 30
0.0
 11
53.54985784623872
 21
203.2263182447823
 31
0.0
  0
LINE
  5
8FFD
  8
0
 10
53.54985784623872
 20
203.2263182447823
 30
0.0
 11
53.21550154623873
 21
203.2263182447823
 31
0.0
  0
LINE
  5
8FFE
  8
0
 10
53.21550154623873
 20
203.2263182447823
 30
0.0
 11
53.21550154623873
 21
202.8919628947824
 31
0.0
  0
LINE
  5
8FFF
  8
0
 10
42.53436654623872
 20
202.5587028947823
 30
0.0
 11
42.86872189623872
 21
202.5587028947823
 31
0.0
  0
LINE
  5
9000
  8
0
 10
42.86872189623872
 20
202.5587028947823
 30
0.0
 11
42.86872189623872
 21
202.8926867947823
 31
0.0
  0
LINE
  5
9001
  8
0
 10
42.86872189623872
 20
202.8926867947823
 30
0.0
 11
42.53436654623872
 21
202.8926867947823
 31
0.0
  0
LINE
  5
9002
  8
0
 10
42.53436654623872
 20
202.8926867947823
 30
0.0
 11
42.53436654623872
 21
202.5587028947823
 31
0.0
  0
LINE
  5
9003
  8
0
 10
43.20193154623871
 20
202.5587028947823
 30
0.0
 11
44.20351654623872
 21
202.5587028947823
 31
0.0
  0
LINE
  5
9004
  8
0
 10
44.20351654623872
 20
202.5587028947823
 30
0.0
 11
44.20351654623872
 21
202.8926867947823
 31
0.0
  0
LINE
  5
9005
  8
0
 10
44.20351654623872
 20
202.8926867947823
 30
0.0
 11
43.20193154623871
 21
202.8926867947823
 31
0.0
  0
LINE
  5
9006
  8
0
 10
43.20193154623871
 20
202.8926867947823
 30
0.0
 11
43.20193154623871
 21
202.5587028947823
 31
0.0
  0
LINE
  5
9007
  8
0
 10
44.53744154623871
 20
202.5587028947823
 30
0.0
 11
44.8714254462387
 21
202.5587028947823
 31
0.0
  0
LINE
  5
9008
  8
0
 10
44.8714254462387
 20
202.5587028947823
 30
0.0
 11
44.8714254462387
 21
202.8926867947823
 31
0.0
  0
LINE
  5
9009
  8
0
 10
44.8714254462387
 20
202.8926867947823
 30
0.0
 11
44.53744154623871
 21
202.8926867947823
 31
0.0
  0
LINE
  5
900A
  8
0
 10
44.53744154623871
 20
202.8926867947823
 30
0.0
 11
44.53744154623871
 21
202.5587028947823
 31
0.0
  0
LINE
  5
900B
  8
0
 10
45.87266654623872
 20
202.5587028947823
 30
0.0
 11
47.20749254623871
 21
202.5587028947823
 31
0.0
  0
LINE
  5
900C
  8
0
 10
47.20749254623871
 20
202.5587028947823
 30
0.0
 11
47.20749254623871
 21
202.8926867947823
 31
0.0
  0
LINE
  5
900D
  8
0
 10
47.20749254623871
 20
202.8926867947823
 30
0.0
 11
45.87266654623872
 21
202.8926867947823
 31
0.0
  0
LINE
  5
900E
  8
0
 10
45.87266654623872
 20
202.8926867947823
 30
0.0
 11
45.87266654623872
 21
202.5587028947823
 31
0.0
  0
LINE
  5
900F
  8
0
 10
47.87507654623872
 20
202.5587028947823
 30
0.0
 11
48.20906139623872
 21
202.5587028947823
 31
0.0
  0
LINE
  5
9010
  8
0
 10
48.20906139623872
 20
202.5587028947823
 30
0.0
 11
48.20906139623872
 21
202.8926867947823
 31
0.0
  0
LINE
  5
9011
  8
0
 10
48.20906139623872
 20
202.8926867947823
 30
0.0
 11
47.87507654623872
 21
202.8926867947823
 31
0.0
  0
LINE
  5
9012
  8
0
 10
47.87507654623872
 20
202.8926867947823
 30
0.0
 11
47.87507654623872
 21
202.5587028947823
 31
0.0
  0
LINE
  5
9013
  8
0
 10
48.54273654623873
 20
202.5587028947823
 30
0.0
 11
48.87672139623871
 21
202.5587028947823
 31
0.0
  0
LINE
  5
9014
  8
0
 10
48.87672139623871
 20
202.5587028947823
 30
0.0
 11
48.87672139623871
 21
202.8926867947823
 31
0.0
  0
LINE
  5
9015
  8
0
 10
48.87672139623871
 20
202.8926867947823
 30
0.0
 11
48.54273654623873
 21
202.8926867947823
 31
0.0
  0
LINE
  5
9016
  8
0
 10
48.54273654623873
 20
202.8926867947823
 30
0.0
 11
48.54273654623873
 21
202.5587028947823
 31
0.0
  0
LINE
  5
9017
  8
0
 10
49.20992154623872
 20
202.5587028947823
 30
0.0
 11
49.54427689623873
 21
202.5587028947823
 31
0.0
  0
LINE
  5
9018
  8
0
 10
49.54427689623873
 20
202.5587028947823
 30
0.0
 11
49.54427689623873
 21
202.8926867947823
 31
0.0
  0
LINE
  5
9019
  8
0
 10
49.54427689623873
 20
202.8926867947823
 30
0.0
 11
49.20992154623872
 21
202.8926867947823
 31
0.0
  0
LINE
  5
901A
  8
0
 10
49.20992154623872
 20
202.8926867947823
 30
0.0
 11
49.20992154623872
 21
202.5587028947823
 31
0.0
  0
LINE
  5
901B
  8
0
 10
49.87748654623871
 20
202.5587028947823
 30
0.0
 11
50.21147044623874
 21
202.5587028947823
 31
0.0
  0
LINE
  5
901C
  8
0
 10
50.21147044623874
 20
202.5587028947823
 30
0.0
 11
50.21147044623874
 21
202.8926867947823
 31
0.0
  0
LINE
  5
901D
  8
0
 10
50.21147044623874
 20
202.8926867947823
 30
0.0
 11
49.87748654623871
 21
202.8926867947823
 31
0.0
  0
LINE
  5
901E
  8
0
 10
49.87748654623871
 20
202.8926867947823
 30
0.0
 11
49.87748654623871
 21
202.5587028947823
 31
0.0
  0
LINE
  5
901F
  8
0
 10
50.54590654623871
 20
202.5587028947823
 30
0.0
 11
50.87989139623872
 21
202.5587028947823
 31
0.0
  0
LINE
  5
9020
  8
0
 10
50.87989139623872
 20
202.5587028947823
 30
0.0
 11
50.87989139623872
 21
202.8926867947823
 31
0.0
  0
LINE
  5
9021
  8
0
 10
50.87989139623872
 20
202.8926867947823
 30
0.0
 11
50.54590654623871
 21
202.8926867947823
 31
0.0
  0
LINE
  5
9022
  8
0
 10
50.54590654623871
 20
202.8926867947823
 30
0.0
 11
50.54590654623871
 21
202.5587028947823
 31
0.0
  0
LINE
  5
9023
  8
0
 10
51.5467315462387
 20
202.5587028947823
 30
0.0
 11
52.21395834623874
 21
202.5587028947823
 31
0.0
  0
LINE
  5
9024
  8
0
 10
52.21395834623874
 20
202.5587028947823
 30
0.0
 11
52.21395834623874
 21
202.8926867947823
 31
0.0
  0
LINE
  5
9025
  8
0
 10
52.21395834623874
 20
202.8926867947823
 30
0.0
 11
51.5467315462387
 21
202.8926867947823
 31
0.0
  0
LINE
  5
9026
  8
0
 10
51.5467315462387
 20
202.8926867947823
 30
0.0
 11
51.5467315462387
 21
202.5587028947823
 31
0.0
  0
LINE
  5
9027
  8
0
 10
52.88157654623873
 20
202.5587028947823
 30
0.0
 11
53.54917384623872
 21
202.5587028947823
 31
0.0
  0
LINE
  5
9028
  8
0
 10
53.54917384623872
 20
202.5587028947823
 30
0.0
 11
53.54917384623872
 21
202.8926867947823
 31
0.0
  0
LINE
  5
9029
  8
0
 10
53.54917384623872
 20
202.8926867947823
 30
0.0
 11
52.88157654623873
 21
202.8926867947823
 31
0.0
  0
LINE
  5
902A
  8
0
 10
52.88157654623873
 20
202.8926867947823
 30
0.0
 11
52.88157654623873
 21
202.5587028947823
 31
0.0
  0
LINE
  5
902B
  8
0
 10
42.53436654623872
 20
202.2247778947823
 30
0.0
 11
42.86872189623872
 21
202.2247778947823
 31
0.0
  0
LINE
  5
902C
  8
0
 10
42.86872189623872
 20
202.2247778947823
 30
0.0
 11
42.86872189623872
 21
202.5587627447823
 31
0.0
  0
LINE
  5
902D
  8
0
 10
42.86872189623872
 20
202.5587627447823
 30
0.0
 11
42.53436654623872
 21
202.5587627447823
 31
0.0
  0
LINE
  5
902E
  8
0
 10
42.53436654623872
 20
202.5587627447823
 30
0.0
 11
42.53436654623872
 21
202.2247778947823
 31
0.0
  0
LINE
  5
902F
  8
0
 10
44.53744154623871
 20
202.2247778947823
 30
0.0
 11
44.8714254462387
 21
202.2247778947823
 31
0.0
  0
LINE
  5
9030
  8
0
 10
44.8714254462387
 20
202.2247778947823
 30
0.0
 11
44.8714254462387
 21
202.5587627447823
 31
0.0
  0
LINE
  5
9031
  8
0
 10
44.8714254462387
 20
202.5587627447823
 30
0.0
 11
44.53744154623871
 21
202.5587627447823
 31
0.0
  0
LINE
  5
9032
  8
0
 10
44.53744154623871
 20
202.5587627447823
 30
0.0
 11
44.53744154623871
 21
202.2247778947823
 31
0.0
  0
LINE
  5
9033
  8
0
 10
45.87266654623872
 20
202.2247778947823
 30
0.0
 11
46.53989239623871
 21
202.2247778947823
 31
0.0
  0
LINE
  5
9034
  8
0
 10
46.53989239623871
 20
202.2247778947823
 30
0.0
 11
46.53989239623871
 21
202.5587627447823
 31
0.0
  0
LINE
  5
9035
  8
0
 10
46.53989239623871
 20
202.5587627447823
 30
0.0
 11
45.87266654623872
 21
202.5587627447823
 31
0.0
  0
LINE
  5
9036
  8
0
 10
45.87266654623872
 20
202.5587627447823
 30
0.0
 11
45.87266654623872
 21
202.2247778947823
 31
0.0
  0
LINE
  5
9037
  8
0
 10
47.20751154623872
 20
202.2247778947823
 30
0.0
 11
48.20909654623873
 21
202.2247778947823
 31
0.0
  0
LINE
  5
9038
  8
0
 10
48.20909654623873
 20
202.2247778947823
 30
0.0
 11
48.20909654623873
 21
202.5587627447823
 31
0.0
  0
LINE
  5
9039
  8
0
 10
48.20909654623873
 20
202.5587627447823
 30
0.0
 11
47.20751154623872
 21
202.5587627447823
 31
0.0
  0
LINE
  5
903A
  8
0
 10
47.20751154623872
 20
202.5587627447823
 30
0.0
 11
47.20751154623872
 21
202.2247778947823
 31
0.0
  0
LINE
  5
903B
  8
0
 10
48.87666154623872
 20
202.2247778947823
 30
0.0
 11
49.54425884623871
 21
202.2247778947823
 31
0.0
  0
LINE
  5
903C
  8
0
 10
49.54425884623871
 20
202.2247778947823
 30
0.0
 11
49.54425884623871
 21
202.5587627447823
 31
0.0
  0
LINE
  5
903D
  8
0
 10
49.54425884623871
 20
202.5587627447823
 30
0.0
 11
48.87666154623872
 21
202.5587627447823
 31
0.0
  0
LINE
  5
903E
  8
0
 10
48.87666154623872
 20
202.5587627447823
 30
0.0
 11
48.87666154623872
 21
202.2247778947823
 31
0.0
  0
LINE
  5
903F
  8
0
 10
51.5467315462387
 20
202.2247778947823
 30
0.0
 11
52.88155754623872
 21
202.2247778947823
 31
0.0
  0
LINE
  5
9040
  8
0
 10
52.88155754623872
 20
202.2247778947823
 30
0.0
 11
52.88155754623872
 21
202.5587627447823
 31
0.0
  0
LINE
  5
9041
  8
0
 10
52.88155754623872
 20
202.5587627447823
 30
0.0
 11
51.5467315462387
 21
202.5587627447823
 31
0.0
  0
LINE
  5
9042
  8
0
 10
51.5467315462387
 20
202.5587627447823
 30
0.0
 11
51.5467315462387
 21
202.2247778947823
 31
0.0
  0
LINE
  5
9043
  8
0
 10
42.53436654623872
 20
201.8911378947823
 30
0.0
 11
44.87114804623874
 21
201.8911378947823
 31
0.0
  0
LINE
  5
9044
  8
0
 10
44.87114804623874
 20
201.8911378947823
 30
0.0
 11
44.87114804623874
 21
202.2251227447823
 31
0.0
  0
LINE
  5
9045
  8
0
 10
44.87114804623874
 20
202.2251227447823
 30
0.0
 11
42.53436654623872
 21
202.2251227447823
 31
0.0
  0
LINE
  5
9046
  8
0
 10
42.53436654623872
 20
202.2251227447823
 30
0.0
 11
42.53436654623872
 21
201.8911378947823
 31
0.0
  0
LINE
  5
9047
  8
0
 10
45.20510154623872
 20
201.8911378947823
 30
0.0
 11
45.53908639623873
 21
201.8911378947823
 31
0.0
  0
LINE
  5
9048
  8
0
 10
45.53908639623873
 20
201.8911378947823
 30
0.0
 11
45.53908639623873
 21
202.2251227447823
 31
0.0
  0
LINE
  5
9049
  8
0
 10
45.53908639623873
 20
202.2251227447823
 30
0.0
 11
45.20510154623872
 21
202.2251227447823
 31
0.0
  0
LINE
  5
904A
  8
0
 10
45.20510154623872
 20
202.2251227447823
 30
0.0
 11
45.20510154623872
 21
201.8911378947823
 31
0.0
  0
LINE
  5
904B
  8
0
 10
46.20592654623871
 20
201.8911378947823
 30
0.0
 11
46.53991044623874
 21
201.8911378947823
 31
0.0
  0
LINE
  5
904C
  8
0
 10
46.53991044623874
 20
201.8911378947823
 30
0.0
 11
46.53991044623874
 21
202.2251227447823
 31
0.0
  0
LINE
  5
904D
  8
0
 10
46.53991044623874
 20
202.2251227447823
 30
0.0
 11
46.20592654623871
 21
202.2251227447823
 31
0.0
  0
LINE
  5
904E
  8
0
 10
46.20592654623871
 20
202.2251227447823
 30
0.0
 11
46.20592654623871
 21
201.8911378947823
 31
0.0
  0
LINE
  5
904F
  8
0
 10
47.20751154623872
 20
201.8911378947823
 30
0.0
 11
47.54149544623874
 21
201.8911378947823
 31
0.0
  0
LINE
  5
9050
  8
0
 10
47.54149544623874
 20
201.8911378947823
 30
0.0
 11
47.54149544623874
 21
202.2251227447823
 31
0.0
  0
LINE
  5
9051
  8
0
 10
47.54149544623874
 20
202.2251227447823
 30
0.0
 11
47.20751154623872
 21
202.2251227447823
 31
0.0
  0
LINE
  5
9052
  8
0
 10
47.20751154623872
 20
202.2251227447823
 30
0.0
 11
47.20751154623872
 21
201.8911378947823
 31
0.0
  0
LINE
  5
9053
  8
0
 10
48.20909654623873
 20
201.8911378947823
 30
0.0
 11
48.54308044623872
 21
201.8911378947823
 31
0.0
  0
LINE
  5
9054
  8
0
 10
48.54308044623872
 20
201.8911378947823
 30
0.0
 11
48.54308044623872
 21
202.2251227447823
 31
0.0
  0
LINE
  5
9055
  8
0
 10
48.54308044623872
 20
202.2251227447823
 30
0.0
 11
48.20909654623873
 21
202.2251227447823
 31
0.0
  0
LINE
  5
9056
  8
0
 10
48.20909654623873
 20
202.2251227447823
 30
0.0
 11
48.20909654623873
 21
201.8911378947823
 31
0.0
  0
LINE
  5
9057
  8
0
 10
48.87666154623872
 20
201.8911378947823
 30
0.0
 11
49.21064544623871
 21
201.8911378947823
 31
0.0
  0
LINE
  5
9058
  8
0
 10
49.21064544623871
 20
201.8911378947823
 30
0.0
 11
49.21064544623871
 21
202.2251227447823
 31
0.0
  0
LINE
  5
9059
  8
0
 10
49.21064544623871
 20
202.2251227447823
 30
0.0
 11
48.87666154623872
 21
202.2251227447823
 31
0.0
  0
LINE
  5
905A
  8
0
 10
48.87666154623872
 20
202.2251227447823
 30
0.0
 11
48.87666154623872
 21
201.8911378947823
 31
0.0
  0
LINE
  5
905B
  8
0
 10
49.87748654623871
 20
201.8911378947823
 30
0.0
 11
51.21231254623871
 21
201.8911378947823
 31
0.0
  0
LINE
  5
905C
  8
0
 10
51.21231254623871
 20
201.8911378947823
 30
0.0
 11
51.21231254623871
 21
202.2251227447823
 31
0.0
  0
LINE
  5
905D
  8
0
 10
51.21231254623871
 20
202.2251227447823
 30
0.0
 11
49.87748654623871
 21
202.2251227447823
 31
0.0
  0
LINE
  5
905E
  8
0
 10
49.87748654623871
 20
202.2251227447823
 30
0.0
 11
49.87748654623871
 21
201.8911378947823
 31
0.0
  0
LINE
  5
905F
  8
0
 10
51.5467315462387
 20
201.8911378947823
 30
0.0
 11
51.88071544623872
 21
201.8911378947823
 31
0.0
  0
LINE
  5
9060
  8
0
 10
51.88071544623872
 20
201.8911378947823
 30
0.0
 11
51.88071544623872
 21
202.2251227447823
 31
0.0
  0
LINE
  5
9061
  8
0
 10
51.88071544623872
 20
202.2251227447823
 30
0.0
 11
51.5467315462387
 21
202.2251227447823
 31
0.0
  0
LINE
  5
9062
  8
0
 10
51.5467315462387
 20
202.2251227447823
 30
0.0
 11
51.5467315462387
 21
201.8911378947823
 31
0.0
  0
LINE
  5
9063
  8
0
 10
52.21391654623872
 20
201.8911378947823
 30
0.0
 11
52.54827189623873
 21
201.8911378947823
 31
0.0
  0
LINE
  5
9064
  8
0
 10
52.54827189623873
 20
201.8911378947823
 30
0.0
 11
52.54827189623873
 21
202.2251227447823
 31
0.0
  0
LINE
  5
9065
  8
0
 10
52.54827189623873
 20
202.2251227447823
 30
0.0
 11
52.21391654623872
 21
202.2251227447823
 31
0.0
  0
LINE
  5
9066
  8
0
 10
52.21391654623872
 20
202.2251227447823
 30
0.0
 11
52.21391654623872
 21
201.8911378947823
 31
0.0
  0
LINE
  5
9067
  8
0
 10
52.88157654623873
 20
201.8911378947823
 30
0.0
 11
53.21556044623873
 21
201.8911378947823
 31
0.0
  0
LINE
  5
9068
  8
0
 10
53.21556044623873
 20
201.8911378947823
 30
0.0
 11
53.21556044623873
 21
202.2251227447823
 31
0.0
  0
LINE
  5
9069
  8
0
 10
53.21556044623873
 20
202.2251227447823
 30
0.0
 11
52.88157654623873
 21
202.2251227447823
 31
0.0
  0
LINE
  5
906A
  8
0
 10
52.88157654623873
 20
202.2251227447823
 30
0.0
 11
52.88157654623873
 21
201.8911378947823
 31
0.0
  0
CIRCLE
  5
9240
  8
0
 10
63.52185615177356
 20
209.8911378947826
 30
0.0
 40
1.5
  0
TEXT
  5
9241
  8
0
 10
44.4730229780838
 20
198.5567206811388
 30
0.0
 40
1.3
  1
冬期以外(凍結の心配がない期間)や長期間使用しないときは電源をOFFにしてください
  0
POLYLINE
  5
9242
  8
0
 66
     1
 10
0.0
 20
0.0
 30
0.0
 70
     1
  0
VERTEX
  5
A859
  8
0
 10
42.75218928780006
 20
200.4403722225793
 30
0.0
  0
VERTEX
  5
A85A
  8
0
 10
41.5397537225019
 20
198.3403722225789
 30
0.0
 42
0.5773502691896262
  0
VERTEX
  5
A85B
  8
0
 10
41.62635626288031
 20
198.1903722225793
 30
0.0
  0
VERTEX
  5
A85C
  8
0
 10
44.05122739347664
 20
198.1903722225793
 30
0.0
 42
0.577350269189628
  0
VERTEX
  5
A85D
  8
0
 10
44.13782993385504
 20
198.3403722225789
 30
0.0
  0
VERTEX
  5
A85E
  8
0
 10
42.92539436855688
 20
200.4403722225793
 30
0.0
 42
0.577350269189626
  0
SEQEND
  5
A879
  8
0
  0
POLYLINE
  5
9243
  8
0
 66
     1
 10
0.0
 20
0.0
 30
0.0
 70
     1
  0
VERTEX
  5
A85F
  8
0
 10
42.79549055868458
 20
200.3153722225793
 30
0.0
  0
VERTEX
  5
A860
  8
0
 10
41.6696575331018
 20
198.3653722225904
 30
0.0
 42
0.577350269275458
  0
VERTEX
  5
A861
  8
0
 10
41.71295880328464
 20
198.2903722225788
 30
0.0
  0
VERTEX
  5
A862
  8
0
 10
43.96462485312415
 20
198.2903722225788
 30
0.0
 42
0.5773502691037941
  0
VERTEX
  5
A863
  8
0
 10
44.00792612331972
 20
198.3653722225677
 30
0.0
  0
VERTEX
  5
A864
  8
0
 10
42.88209309906298
 20
200.3153722225793
 30
0.0
 42
0.5773502691896244
  0
SEQEND
  5
A87A
  8
0
  0
CIRCLE
  5
9244
  8
0
 10
42.83879182817847
 20
198.5903722225789
 30
0.0
 40
0.1
  0
LINE
  5
9245
  8
0
 10
42.73879182817856
 20
199.5903722225789
 30
0.0
 11
42.78923430605457
 21
198.8337350544384
 31
0.0
  0
LINE
  5
9246
  8
0
 10
42.93879182817884
 20
199.5903722225789
 30
0.0
 11
42.88834935030238
 21
198.8337350544366
 31
0.0
  0
ARC
  5
9247
  8
0
 10
42.83879182817847
 20
199.5903722225789
 30
0.0
 40
0.1
 50
0.0
 51
180.0
  0
ARC
  5
9248
  8
0
 10
42.83879182817847
 20
198.8403722225789
 30
0.0
 40
0.05
 50
187.6281496673324
 51
352.3718503305627
  0
CIRCLE
  5
924C
  8
0
 10
82.52185615177362
 20
213.8911378947826
 30
0.0
 40
1.5
  0
CIRCLE
  5
924D
  8
0
 10
82.52185615177362
 20
205.8911378947826
 30
0.0
 40
1.5
  0
POLYLINE
  5
924E
  8
0
 66
     1
 10
0.0
 20
0.0
 30
0.0
 70
     1
  0
VERTEX
  5
A865
  8
0
 10
77.47346969118828
 20
206.201004343583
 30
0.0
  0
VERTEX
  5
A866
  8
0
 10
77.20511747474669
 20
206.0460711191829
 30
0.0
  0
VERTEX
  5
A867
  8
0
 10
77.20511747474669
 20
205.7362046703826
 30
0.0
  0
VERTEX
  5
A868
  8
0
 10
77.47346969118828
 20
205.5812714459825
 30
0.0
  0
VERTEX
  5
A869
  8
0
 10
77.74182190762988
 20
205.7362046703826
 30
0.0
  0
VERTEX
  5
A86A
  8
0
 10
77.74182190762988
 20
206.0460711191829
 30
0.0
  0
SEQEND
  5
A87B
  8
0
  0
POLYLINE
  5
924F
  8
0
 66
     1
 10
0.0
 20
0.0
 30
0.0
  0
VERTEX
  5
A86B
  8
0
 10
77.3234696911882
 20
206.498654730172
 30
0.0
  0
VERTEX
  5
A86C
  8
0
 10
77.02234467851466
 20
206.3248001230451
 30
0.0
  0
SEQEND
  5
A87C
  8
0
  0
LINE
  5
9250
  8
0
 10
77.3234696911882
 20
202.7911378947827
 30
0.0
 11
77.3234696911882
 21
203.3375845041894
 31
0.0
1001
GENIUS_GENODEF_13
1002
{
1000
HIER
1070
     0
1002
}
1002
{
1000
MANEDIT
1070
     0
1002
}
1002
{
1000
NOSEL
1070
     0
1002
}
1002
{
1000
BEHIND
1070
     0
1002
}
1002
{
1000
OTHER
1070
     0
1002
}
1002
{
1000
REACTOR
1002
}
1001
GENIUS_GENOBJ-N-CEN_13
1002
{
1000
OWNER
1000
GEN
1002
}
1001
GENIUS_GENCEN_19
1002
{
1040
3.0
1002
}
  0
LINE
  5
9251
  8
0
 10
77.62346969118838
 20
202.7911378947827
 30
0.0
 11
77.62346969118838
 21
203.3375845041894
 31
0.0
1001
GENIUS_GENODEF_13
1002
{
1000
HIER
1070
     0
1002
}
1002
{
1000
MANEDIT
1070
     0
1002
}
1002
{
1000
NOSEL
1070
     0
1002
}
1002
{
1000
BEHIND
1070
     0
1002
}
1002
{
1000
OTHER
1070
     0
1002
}
1002
{
1000
REACTOR
1002
}
1001
GENIUS_GENOBJ-N-CEN_13
1002
{
1000
OWNER
1000
GEN
1002
}
1001
GENIUS_GENCEN_19
1002
{
1040
3.0
1002
}
  0
LINE
  5
9252
  8
0
 10
77.62346969118838
 20
206.8911378947828
 30
0.0
 11
78.26929649613524
 21
207.5369646997298
 31
0.0
  0
LINE
  5
9253
  8
0
 10
77.62346969118838
 20
207.3911378947828
 30
0.0
 11
78.01929649613524
 21
207.7869646997298
 31
0.0
  0
ARC
  5
9254
  8
0
 10
77.47346969118828
 20
208.9911378947827
 30
0.0
 40
0.1499999999999773
 50
0.0
 51
180.0
  0
ARC
  5
9255
  8
0
 10
78.14429649613524
 20
207.6619646997298
 30
0.0
 40
0.1767766952966168
 50
315.0000000000326
 51
135.0000000000065
  0
LINE
  5
9256
  8
0
 10
77.3234696911882
 20
206.8911378947828
 30
0.0
 11
76.67764288624133
 21
207.5369646997298
 31
0.0
  0
LINE
  5
9257
  8
0
 10
77.3234696911882
 20
207.3911378947828
 30
0.0
 11
76.92764288624133
 21
207.7869646997298
 31
0.0
  0
ARC
  5
9258
  8
0
 10
76.80264288624133
 20
207.6619646997298
 30
0.0
 40
0.1767766952966168
 50
44.99999999999348
 51
224.9999999999674
  0
LINE
  5
9259
  8
0
 10
77.62346969118838
 20
208.0911378947827
 30
0.0
 11
78.02225558840976
 21
208.4899237920041
 31
0.0
  0
LINE
  5
925A
  8
0
 10
77.62346969118838
 20
208.4446912853759
 30
0.0
 11
77.8454788931131
 21
208.6667004873007
 31
0.0
  0
ARC
  5
925B
  8
0
 10
77.9338672407612
 20
208.5783121396526
 30
0.0
 40
0.1249999999999206
 50
314.9999999998987
 51
134.9999999999355
  0
LINE
  5
925C
  8
0
 10
79.30372557951412
 20
204.6612340842152
 30
0.0
 11
79.449691348568
 21
204.1164824179398
 31
0.0
  0
LINE
  5
925D
  8
0
 10
79.609911797362
 20
204.4844573889185
 30
0.0
 11
79.69117280514027
 21
204.1811871792155
 31
0.0
  0
ARC
  5
925E
  8
0
 10
80.03082962642728
 20
204.9462667461182
 30
0.0
 40
0.1249999999999206
 50
285.0000000000046
 51
105.0000000000046
  0
LINE
  5
925F
  8
0
 10
77.62346969118838
 20
204.8911378947828
 30
0.0
 11
77.62346969118838
 21
205.2836210593935
 31
0.0
1001
GENIUS_GENODEF_13
1002
{
1000
HIER
1070
     0
1002
}
1002
{
1000
MANEDIT
1070
     0
1002
}
1002
{
1000
NOSEL
1070
     0
1002
}
1002
{
1000
BEHIND
1070
     0
1002
}
1002
{
1000
OTHER
1070
     0
1002
}
1002
{
1000
REACTOR
1002
}
1001
GENIUS_GENOBJ-N-CEN_13
1002
{
1000
OWNER
1000
GEN
1002
}
1001
GENIUS_GENCEN_19
1002
{
1040
3.0
1002
}
  0
LINE
  5
9260
  8
0
 10
79.75991179736187
 20
204.7442650100538
 30
0.0
 11
80.06318200706508
 21
204.8255260178322
 31
0.0
  0
ARC
  5
9261
  8
0
 10
79.57043207685436
 20
204.1488347985776
 30
0.0
 40
0.1249999999999206
 50
194.9999999999509
 51
14.99999999999029
  0
LINE
  5
9262
  8
0
 10
79.45372557951399
 20
204.9210417053505
 30
0.0
 11
79.99847724578947
 21
205.0670074744045
 31
0.0
  0
LINE
  5
9263
  8
0
 10
77.62346969118838
 20
203.6911378947827
 30
0.0
 11
77.62346969118838
 21
204.3911378947828
 31
0.0
1001
GENIUS_GENODEF_13
1002
{
1000
HIER
1070
     0
1002
}
1002
{
1000
MANEDIT
1070
     0
1002
}
1002
{
1000
NOSEL
1070
     0
1002
}
1002
{
1000
BEHIND
1070
     0
1002
}
1002
{
1000
OTHER
1070
     0
1002
}
1002
{
1000
REACTOR
1002
}
1001
GENIUS_GENOBJ-N-CEN_13
1002
{
1000
OWNER
1000
GEN
1002
}
1001
GENIUS_GENCEN_19
1002
{
1040
3.0
1002
}
  0
LINE
  5
9264
  8
0
 10
77.3234696911882
 20
203.6911378947827
 30
0.0
 11
77.3234696911882
 21
204.3911378947828
 31
0.0
1001
GENIUS_GENODEF_13
1002
{
1000
HIER
1070
     0
1002
}
1002
{
1000
MANEDIT
1070
     0
1002
}
1002
{
1000
NOSEL
1070
     0
1002
}
1002
{
1000
BEHIND
1070
     0
1002
}
1002
{
1000
OTHER
1070
     0
1002
}
1002
{
1000
REACTOR
1002
}
1001
GENIUS_GENOBJ-N-CEN_13
1002
{
1000
OWNER
1000
GEN
1002
}
1001
GENIUS_GENCEN_19
1002
{
1040
3.0
1002
}
  0
LINE
  5
9265
  8
0
 10
77.3234696911882
 20
208.4446912853759
 30
0.0
 11
77.3234696911882
 21
208.9911378947827
 31
0.0
1001
GENIUS_GENODEF_13
1002
{
1000
HIER
1070
     0
1002
}
1002
{
1000
MANEDIT
1070
     0
1002
}
1002
{
1000
NOSEL
1070
     0
1002
}
1002
{
1000
BEHIND
1070
     0
1002
}
1002
{
1000
OTHER
1070
     0
1002
}
1002
{
1000
REACTOR
1002
}
1001
GENIUS_GENOBJ-N-CEN_13
1002
{
1000
OWNER
1000
GEN
1002
}
1001
GENIUS_GENCEN_19
1002
{
1040
3.0
1002
}
  0
LINE
  5
9266
  8
0
 10
77.62346969118838
 20
208.4446912853759
 30
0.0
 11
77.62346969118838
 21
208.9911378947827
 31
0.0
1001
GENIUS_GENODEF_13
1002
{
1000
HIER
1070
     0
1002
}
1002
{
1000
MANEDIT
1070
     0
1002
}
1002
{
1000
NOSEL
1070
     0
1002
}
1002
{
1000
BEHIND
1070
     0
1002
}
1002
{
1000
OTHER
1070
     0
1002
}
1002
{
1000
REACTOR
1002
}
1001
GENIUS_GENOBJ-N-CEN_13
1002
{
1000
OWNER
1000
GEN
1002
}
1001
GENIUS_GENCEN_19
1002
{
1040
3.0
1002
}
  0
ARC
  5
9267
  8
0
 10
77.01307214161537
 20
208.5783121396526
 30
0.0
 40
0.1249999999999206
 50
45.00000000006448
 51
224.999999999954
  0
LINE
  5
9268
  8
0
 10
77.3234696911882
 20
208.4446912853759
 30
0.0
 11
77.10146048926347
 21
208.6667004873007
 31
0.0
  0
LINE
  5
9269
  8
0
 10
77.3234696911882
 20
208.0911378947827
 30
0.0
 11
76.9246837939668
 21
208.4899237920041
 31
0.0
  0
LINE
  5
926A
  8
0
 10
77.62346969118838
 20
207.3911378947828
 30
0.0
 11
77.62346969118838
 21
208.0911378947827
 31
0.0
1001
GENIUS_GENODEF_13
1002
{
1000
HIER
1070
     0
1002
}
1002
{
1000
MANEDIT
1070
     0
1002
}
1002
{
1000
NOSEL
1070
     0
1002
}
1002
{
1000
BEHIND
1070
     0
1002
}
1002
{
1000
OTHER
1070
     0
1002
}
1002
{
1000
REACTOR
1002
}
1001
GENIUS_GENOBJ-N-CEN_13
1002
{
1000
OWNER
1000
GEN
1002
}
1001
GENIUS_GENCEN_19
1002
{
1040
3.0
1002
}
  0
LINE
  5
926B
  8
0
 10
77.3234696911882
 20
207.3911378947828
 30
0.0
 11
77.3234696911882
 21
208.0911378947827
 31
0.0
1001
GENIUS_GENODEF_13
1002
{
1000
HIER
1070
     0
1002
}
1002
{
1000
MANEDIT
1070
     0
1002
}
1002
{
1000
NOSEL
1070
     0
1002
}
1002
{
1000
BEHIND
1070
     0
1002
}
1002
{
1000
OTHER
1070
     0
1002
}
1002
{
1000
REACTOR
1002
}
1001
GENIUS_GENOBJ-N-CEN_13
1002
{
1000
OWNER
1000
GEN
1002
}
1001
GENIUS_GENCEN_19
1002
{
1040
3.0
1002
}
  0
LINE
  5
926C
  8
0
 10
77.62346969118838
 20
203.3375845041894
 30
0.0
 11
77.8454788931131
 21
203.1155753022647
 31
0.0
  0
LINE
  5
926D
  8
0
 10
77.3234696911882
 20
204.3911378947828
 30
0.0
 11
76.92764288624133
 21
203.9953110898357
 31
0.0
  0
ARC
  5
926E
  8
0
 10
77.47346969118828
 20
202.7911378947827
 30
0.0
 40
0.1499999999999773
 50
180.0
 51
0.0
  0
ARC
  5
926F
  8
0
 10
78.14429649613524
 20
204.1203110898357
 30
0.0
 40
0.1767766952966168
 50
224.9999999999935
 51
44.99999999999348
  0
ARC
  5
9270
  8
0
 10
76.80264288624133
 20
204.1203110898357
 30
0.0
 40
0.1767766952966168
 50
135.0000000000065
 51
315.0000000000065
  0
LINE
  5
9271
  8
0
 10
77.62346969118838
 20
204.3911378947828
 30
0.0
 11
78.01929649613524
 21
203.9953110898357
 31
0.0
  0
LINE
  5
9272
  8
0
 10
77.3234696911882
 20
204.8911378947828
 30
0.0
 11
76.67764288624133
 21
204.2453110898357
 31
0.0
  0
ARC
  5
9273
  8
0
 10
77.9338672407612
 20
203.2039636499129
 30
0.0
 40
0.1249999999999206
 50
225.0000000000645
 51
44.99999999995394
  0
LINE
  5
9274
  8
0
 10
77.3234696911882
 20
203.6911378947827
 30
0.0
 11
76.9246837939668
 21
203.2923519975614
 31
0.0
  0
LINE
  5
9275
  8
0
 10
77.62346969118838
 20
203.6911378947827
 30
0.0
 11
78.02225558840976
 21
203.2923519975614
 31
0.0
  0
LINE
  5
9276
  8
0
 10
77.62346969118838
 20
204.8911378947828
 30
0.0
 11
78.26929649613524
 21
204.2453110898357
 31
0.0
  0
ARC
  5
9277
  8
0
 10
77.01307214161537
 20
203.2039636499129
 30
0.0
 40
0.1249999999999206
 50
134.9999999998987
 51
314.9999999998987
  0
LINE
  5
9278
  8
0
 10
77.3234696911882
 20
203.3375845041894
 30
0.0
 11
77.10146048926347
 21
203.1155753022647
 31
0.0
  0
LINE
  5
9279
  8
0
 10
78.69750779686504
 20
206.7710417053504
 30
0.0
 11
78.84239046297446
 21
207.3117511764068
 31
0.0
  0
ARC
  5
927A
  8
0
 10
78.67163728750145
 20
207.3575043518799
 30
0.0
 40
0.1767766952966168
 50
344.9999999999747
 51
164.9999999999747
  0
LINE
  5
927B
  8
0
 10
75.33702758501457
 20
204.4844573889185
 30
0.0
 11
74.86379093945655
 21
204.2112340842151
 31
0.0
1001
GENIUS_GENODEF_13
1002
{
1000
HIER
1070
     0
1002
}
1002
{
1000
MANEDIT
1070
     0
1002
}
1002
{
1000
NOSEL
1070
     0
1002
}
1002
{
1000
BEHIND
1070
     0
1002
}
1002
{
1000
OTHER
1070
     0
1002
}
1002
{
1000
REACTOR
1002
}
1001
GENIUS_GENOBJ-N-CEN_13
1002
{
1000
OWNER
1000
GEN
1002
}
1001
GENIUS_GENCEN_19
1002
{
1040
3.0
1002
}
  0
LINE
  5
927C
  8
0
 10
78.41449509497264
 20
206.2612340842151
 30
0.0
 11
79.2967109169754
 21
206.0248450671595
 31
0.0
  0
LINE
  5
927D
  8
0
 10
79.45372557951399
 20
206.8612340842151
 30
0.0
 11
79.99847724578947
 21
206.7152683151611
 31
0.0
  0
LINE
  5
927E
  8
0
 10
79.75991179736187
 20
207.0380107795118
 30
0.0
 11
80.06318200706508
 21
206.9567497717334
 31
0.0
  0
ARC
  5
927F
  8
0
 10
80.03082962642728
 20
206.8360090434473
 30
0.0
 40
0.1249999999999206
 50
254.9999999999954
 51
74.99999999999544
  0
LINE
  5
9280
  8
0
 10
79.30372557951412
 20
207.1210417053504
 30
0.0
 11
79.449691348568
 21
207.6657933716258
 31
0.0
  0
LINE
  5
9281
  8
0
 10
76.09943158551167
 20
205.2710417053504
 30
0.0
 11
75.49321380286258
 21
204.9210417053504
 31
0.0
1001
GENIUS_GENODEF_13
1002
{
1000
HIER
1070
     0
1002
}
1002
{
1000
MANEDIT
1070
     0
1002
}
1002
{
1000
NOSEL
1070
     0
1002
}
1002
{
1000
BEHIND
1070
     0
1002
}
1002
{
1000
OTHER
1070
     0
1002
}
1002
{
1000
REACTOR
1002
}
1001
GENIUS_GENOBJ-N-CEN_13
1002
{
1000
OWNER
1000
GEN
1002
}
1001
GENIUS_GENCEN_19
1002
{
1040
3.0
1002
}
  0
ARC
  5
9282
  8
0
 10
76.27530209487512
 20
204.4247714376855
 30
0.0
 40
0.1767766952966168
 50
164.9999999999747
 51
345.0000000000139
  0
LINE
  5
9283
  8
0
 10
76.09943158551167
 20
205.2710417053504
 30
0.0
 11
75.55872211445515
 21
205.4159243714598
 31
0.0
  0
ARC
  5
9284
  8
0
 10
80.15814844292007
 20
207.4411378947827
 30
0.0
 40
0.1499999999999773
 50
300.0000000000254
 51
120.0000000000254
  0
LINE
  5
9285
  8
0
 10
78.41449509497264
 20
206.2612340842151
 30
0.0
 11
78.074594703862
 21
206.0649925019096
 31
0.0
1001
GENIUS_GENODEF_13
1002
{
1000
HIER
1070
     0
1002
}
1002
{
1000
MANEDIT
1070
     0
1002
}
1002
{
1000
NOSEL
1070
     0
1002
}
1002
{
1000
BEHIND
1070
     0
1002
}
1002
{
1000
OTHER
1070
     0
1002
}
1002
{
1000
REACTOR
1002
}
1001
GENIUS_GENOBJ-N-CEN_13
1002
{
1000
OWNER
1000
GEN
1002
}
1001
GENIUS_GENCEN_19
1002
{
1040
3.0
1002
}
  0
LINE
  5
9286
  8
0
 10
78.26449509497277
 20
206.5210417053504
 30
0.0
 11
77.92459470386214
 21
206.324800123045
 31
0.0
1001
GENIUS_GENODEF_13
1002
{
1000
HIER
1070
     0
1002
}
1002
{
1000
MANEDIT
1070
     0
1002
}
1002
{
1000
NOSEL
1070
     0
1002
}
1002
{
1000
BEHIND
1070
     0
1002
}
1002
{
1000
OTHER
1070
     0
1002
}
1002
{
1000
REACTOR
1002
}
1001
GENIUS_GENOBJ-N-CEN_13
1002
{
1000
OWNER
1000
GEN
1002
}
1001
GENIUS_GENCEN_19
1002
{
1040
3.0
1002
}
  0
LINE
  5
9287
  8
0
 10
76.24943158551153
 20
205.0112340842151
 30
0.0
 11
76.1045489194021
 21
204.4705246131587
 31
0.0
  0
LINE
  5
9288
  8
0
 10
76.6824442874038
 20
205.2612340842151
 30
0.0
 11
76.44605527034835
 21
204.3790182622125
 31
0.0
  0
LINE
  5
9289
  8
0
 10
80.23314844292011
 20
207.3112340842151
 30
0.0
 11
79.75991179736187
 21
207.0380107795118
 31
0.0
1001
GENIUS_GENODEF_13
1002
{
1000
HIER
1070
     0
1002
}
1002
{
1000
MANEDIT
1070
     0
1002
}
1002
{
1000
NOSEL
1070
     0
1002
}
1002
{
1000
BEHIND
1070
     0
1002
}
1002
{
1000
OTHER
1070
     0
1002
}
1002
{
1000
REACTOR
1002
}
1001
GENIUS_GENOBJ-N-CEN_13
1002
{
1000
OWNER
1000
GEN
1002
}
1001
GENIUS_GENCEN_19
1002
{
1040
3.0
1002
}
  0
ARC
  5
928A
  8
0
 10
74.7887909394565
 20
204.3411378947827
 30
0.0
 40
0.1499999999999773
 50
120.0000000000254
 51
300.0000000000254
  0
ARC
  5
928B
  8
0
 10
75.60447528992816
 20
205.5866775469328
 30
0.0
 40
0.1767766952966168
 50
75.0000000000127
 51
255.0000000000127
  0
LINE
  5
928C
  8
0
 10
80.08314844292002
 20
207.5710417053505
 30
0.0
 11
79.609911797362
 21
207.2978184006471
 31
0.0
1001
GENIUS_GENODEF_13
1002
{
1000
HIER
1070
     0
1002
}
1002
{
1000
MANEDIT
1070
     0
1002
}
1002
{
1000
NOSEL
1070
     0
1002
}
1002
{
1000
BEHIND
1070
     0
1002
}
1002
{
1000
OTHER
1070
     0
1002
}
1002
{
1000
REACTOR
1002
}
1001
GENIUS_GENOBJ-N-CEN_13
1002
{
1000
OWNER
1000
GEN
1002
}
1001
GENIUS_GENCEN_19
1002
{
1040
3.0
1002
}
  0
LINE
  5
928D
  8
0
 10
79.30372557951412
 20
207.1210417053504
 30
0.0
 11
78.69750779686504
 21
206.7710417053504
 31
0.0
1001
GENIUS_GENODEF_13
1002
{
1000
HIER
1070
     0
1002
}
1002
{
1000
MANEDIT
1070
     0
1002
}
1002
{
1000
NOSEL
1070
     0
1002
}
1002
{
1000
BEHIND
1070
     0
1002
}
1002
{
1000
OTHER
1070
     0
1002
}
1002
{
1000
REACTOR
1002
}
1001
GENIUS_GENOBJ-N-CEN_13
1002
{
1000
OWNER
1000
GEN
1002
}
1001
GENIUS_GENCEN_19
1002
{
1040
3.0
1002
}
  0
LINE
  5
928E
  8
0
 10
75.1870275850147
 20
204.7442650100538
 30
0.0
 11
74.71379093945646
 21
204.4710417053504
 31
0.0
1001
GENIUS_GENODEF_13
1002
{
1000
HIER
1070
     0
1002
}
1002
{
1000
MANEDIT
1070
     0
1002
}
1002
{
1000
NOSEL
1070
     0
1002
}
1002
{
1000
BEHIND
1070
     0
1002
}
1002
{
1000
OTHER
1070
     0
1002
}
1002
{
1000
REACTOR
1002
}
1001
GENIUS_GENOBJ-N-CEN_13
1002
{
1000
OWNER
1000
GEN
1002
}
1001
GENIUS_GENCEN_19
1002
{
1040
3.0
1002
}
  0
LINE
  5
928F
  8
0
 10
79.45372557951399
 20
206.8612340842151
 30
0.0
 11
78.8475077968649
 21
206.5112340842151
 31
0.0
1001
GENIUS_GENODEF_13
1002
{
1000
HIER
1070
     0
1002
}
1002
{
1000
MANEDIT
1070
     0
1002
}
1002
{
1000
NOSEL
1070
     0
1002
}
1002
{
1000
BEHIND
1070
     0
1002
}
1002
{
1000
OTHER
1070
     0
1002
}
1002
{
1000
REACTOR
1002
}
1001
GENIUS_GENOBJ-N-CEN_13
1002
{
1000
OWNER
1000
GEN
1002
}
1001
GENIUS_GENCEN_19
1002
{
1040
3.0
1002
}
  0
LINE
  5
9290
  8
0
 10
75.64321380286245
 20
204.661234084215
 30
0.0
 11
75.49724803380857
 21
204.1164824179397
 31
0.0
  0
LINE
  5
9291
  8
0
 10
75.33702758501457
 20
204.4844573889185
 30
0.0
 11
75.2557665772363
 21
204.1811871792154
 31
0.0
  0
ARC
  5
9292
  8
0
 10
75.37650730552221
 20
204.1488347985775
 30
0.0
 40
0.1249999999999206
 50
165.0000000000097
 51
345.0000000001045
  0
LINE
  5
9293
  8
0
 10
75.49321380286258
 20
204.9210417053504
 30
0.0
 11
74.9484621365871
 21
205.0670074744044
 31
0.0
  0
LINE
  5
9294
  8
0
 10
75.1870275850147
 20
204.7442650100538
 30
0.0
 11
74.88375737531149
 21
204.8255260178321
 31
0.0
  0
LINE
  5
9295
  8
0
 10
76.24943158551153
 20
205.0112340842151
 30
0.0
 11
75.64321380286245
 21
204.661234084215
 31
0.0
1001
GENIUS_GENODEF_13
1002
{
1000
HIER
1070
     0
1002
}
1002
{
1000
MANEDIT
1070
     0
1002
}
1002
{
1000
NOSEL
1070
     0
1002
}
1002
{
1000
BEHIND
1070
     0
1002
}
1002
{
1000
OTHER
1070
     0
1002
}
1002
{
1000
REACTOR
1002
}
1001
GENIUS_GENOBJ-N-CEN_13
1002
{
1000
OWNER
1000
GEN
1002
}
1001
GENIUS_GENCEN_19
1002
{
1040
3.0
1002
}
  0
LINE
  5
9296
  8
0
 10
76.53244428740393
 20
205.5210417053504
 30
0.0
 11
75.65022846540117
 21
205.757430722406
 31
0.0
  0
ARC
  5
9297
  8
0
 10
74.9161097559493
 20
204.9462667461181
 30
0.0
 40
0.1249999999999206
 50
74.99999999999544
 51
254.9999999999954
  0
LINE
  5
9298
  8
0
 10
78.8475077968649
 20
206.5112340842151
 30
0.0
 11
79.38821726792142
 21
206.3663514181056
 31
0.0
  0
ARC
  5
9299
  8
0
 10
79.34246409244841
 20
206.1955982426326
 30
0.0
 40
0.1767766952966168
 50
255.0000000000127
 51
75.0000000000127
  0
LINE
  5
929A
  8
0
 10
78.26449509497277
 20
206.5210417053504
 30
0.0
 11
78.50088411202844
 21
207.4032575273529
 31
0.0
  0
LINE
  5
929B
  8
0
 10
77.3234696911882
 20
204.8911378947828
 30
0.0
 11
77.3234696911882
 21
205.2836210593935
 31
0.0
1001
GENIUS_GENODEF_13
1002
{
1000
HIER
1070
     0
1002
}
1002
{
1000
MANEDIT
1070
     0
1002
}
1002
{
1000
NOSEL
1070
     0
1002
}
1002
{
1000
BEHIND
1070
     0
1002
}
1002
{
1000
OTHER
1070
     0
1002
}
1002
{
1000
REACTOR
1002
}
1001
GENIUS_GENOBJ-N-CEN_13
1002
{
1000
OWNER
1000
GEN
1002
}
1001
GENIUS_GENCEN_19
1002
{
1040
3.0
1002
}
  0
LINE
  5
929C
  8
0
 10
79.609911797362
 20
207.2978184006471
 30
0.0
 11
79.69117280514027
 21
207.6010886103501
 31
0.0
  0
ARC
  5
929D
  8
0
 10
79.57043207685436
 20
207.633440990988
 30
0.0
 40
0.1249999999999206
 50
345.0000000000097
 51
165.0000000001046
  0
LINE
  5
929E
  8
0
 10
75.33702758501457
 20
207.2978184006471
 30
0.0
 11
75.2557665772363
 21
207.6010886103502
 31
0.0
  0
LINE
  5
929F
  8
0
 10
75.49321380286258
 20
206.8612340842151
 30
0.0
 11
74.9484621365871
 21
206.7152683151611
 31
0.0
  0
LINE
  5
92A0
  8
0
 10
75.1870275850147
 20
207.0380107795118
 30
0.0
 11
74.88375737531149
 21
206.9567497717335
 31
0.0
  0
LINE
  5
92A1
  8
0
 10
79.30372557951412
 20
204.6612340842152
 30
0.0
 11
78.69750779686504
 21
205.0112340842152
 31
0.0
1001
GENIUS_GENODEF_13
1002
{
1000
HIER
1070
     0
1002
}
1002
{
1000
MANEDIT
1070
     0
1002
}
1002
{
1000
NOSEL
1070
     0
1002
}
1002
{
1000
BEHIND
1070
     0
1002
}
1002
{
1000
OTHER
1070
     0
1002
}
1002
{
1000
REACTOR
1002
}
1001
GENIUS_GENOBJ-N-CEN_13
1002
{
1000
OWNER
1000
GEN
1002
}
1001
GENIUS_GENCEN_19
1002
{
1040
3.0
1002
}
  0
LINE
  5
92A2
  8
0
 10
79.45372557951399
 20
204.9210417053505
 30
0.0
 11
78.8475077968649
 21
205.2710417053505
 31
0.0
1001
GENIUS_GENODEF_13
1002
{
1000
HIER
1070
     0
1002
}
1002
{
1000
MANEDIT
1070
     0
1002
}
1002
{
1000
NOSEL
1070
     0
1002
}
1002
{
1000
BEHIND
1070
     0
1002
}
1002
{
1000
OTHER
1070
     0
1002
}
1002
{
1000
REACTOR
1002
}
1001
GENIUS_GENOBJ-N-CEN_13
1002
{
1000
OWNER
1000
GEN
1002
}
1001
GENIUS_GENCEN_19
1002
{
1040
3.0
1002
}
  0
ARC
  5
92A3
  8
0
 10
75.37650730552221
 20
207.633440990988
 30
0.0
 40
0.1249999999999206
 50
14.99999999995087
 51
194.9999999999509
  0
ARC
  5
92A4
  8
0
 10
74.9161097559493
 20
206.8360090434473
 30
0.0
 40
0.1249999999999206
 50
105.0000000000046
 51
285.0000000000046
  0
LINE
  5
92A5
  8
0
 10
78.26449509497277
 20
205.2612340842152
 30
0.0
 11
77.92459470386214
 21
205.4574756665205
 31
0.0
1001
GENIUS_GENODEF_13
1002
{
1000
HIER
1070
     0
1002
}
1002
{
1000
MANEDIT
1070
     0
1002
}
1002
{
1000
NOSEL
1070
     0
1002
}
1002
{
1000
BEHIND
1070
     0
1002
}
1002
{
1000
OTHER
1070
     0
1002
}
1002
{
1000
REACTOR
1002
}
1001
GENIUS_GENOBJ-N-CEN_13
1002
{
1000
OWNER
1000
GEN
1002
}
1001
GENIUS_GENCEN_19
1002
{
1040
3.0
1002
}
  0
LINE
  5
92A6
  8
0
 10
75.33702758501457
 20
207.2978184006471
 30
0.0
 11
74.86379093945655
 21
207.5710417053505
 31
0.0
1001
GENIUS_GENODEF_13
1002
{
1000
HIER
1070
     0
1002
}
1002
{
1000
MANEDIT
1070
     0
1002
}
1002
{
1000
NOSEL
1070
     0
1002
}
1002
{
1000
BEHIND
1070
     0
1002
}
1002
{
1000
OTHER
1070
     0
1002
}
1002
{
1000
REACTOR
1002
}
1001
GENIUS_GENOBJ-N-CEN_13
1002
{
1000
OWNER
1000
GEN
1002
}
1001
GENIUS_GENCEN_19
1002
{
1040
3.0
1002
}
  0
LINE
  5
92A7
  8
0
 10
76.24943158551153
 20
206.7710417053505
 30
0.0
 11
76.1045489194021
 21
207.3117511764069
 31
0.0
  0
LINE
  5
92A8
  8
0
 10
78.41449509497264
 20
205.5210417053505
 30
0.0
 11
79.2967109169754
 21
205.757430722406
 31
0.0
  0
ARC
  5
92A9
  8
0
 10
76.27530209487512
 20
207.3575043518799
 30
0.0
 40
0.1767766952966168
 50
15.00000000002528
 51
194.9999999999861
  0
LINE
  5
92AA
  8
0
 10
80.08314844292002
 20
204.2112340842151
 30
0.0
 11
79.609911797362
 21
204.4844573889185
 31
0.0
1001
GENIUS_GENODEF_13
1002
{
1000
HIER
1070
     0
1002
}
1002
{
1000
MANEDIT
1070
     0
1002
}
1002
{
1000
NOSEL
1070
     0
1002
}
1002
{
1000
BEHIND
1070
     0
1002
}
1002
{
1000
OTHER
1070
     0
1002
}
1002
{
1000
REACTOR
1002
}
1001
GENIUS_GENOBJ-N-CEN_13
1002
{
1000
OWNER
1000
GEN
1002
}
1001
GENIUS_GENCEN_19
1002
{
1040
3.0
1002
}
  0
LINE
  5
92AB
  8
0
 10
76.53244428740393
 20
206.2612340842152
 30
0.0
 11
75.65022846540117
 21
206.0248450671596
 31
0.0
  0
LINE
  5
92AC
  8
0
 10
78.41449509497264
 20
205.5210417053505
 30
0.0
 11
78.074594703862
 21
205.7172832876558
 31
0.0
1001
GENIUS_GENODEF_13
1002
{
1000
HIER
1070
     0
1002
}
1002
{
1000
MANEDIT
1070
     0
1002
}
1002
{
1000
NOSEL
1070
     0
1002
}
1002
{
1000
BEHIND
1070
     0
1002
}
1002
{
1000
OTHER
1070
     0
1002
}
1002
{
1000
REACTOR
1002
}
1001
GENIUS_GENOBJ-N-CEN_13
1002
{
1000
OWNER
1000
GEN
1002
}
1001
GENIUS_GENCEN_19
1002
{
1040
3.0
1002
}
  0
LINE
  5
92AD
  8
0
 10
80.23314844292011
 20
204.4710417053504
 30
0.0
 11
79.75991179736187
 21
204.7442650100538
 31
0.0
1001
GENIUS_GENODEF_13
1002
{
1000
HIER
1070
     0
1002
}
1002
{
1000
MANEDIT
1070
     0
1002
}
1002
{
1000
NOSEL
1070
     0
1002
}
1002
{
1000
BEHIND
1070
     0
1002
}
1002
{
1000
OTHER
1070
     0
1002
}
1002
{
1000
REACTOR
1002
}
1001
GENIUS_GENOBJ-N-CEN_13
1002
{
1000
OWNER
1000
GEN
1002
}
1001
GENIUS_GENCEN_19
1002
{
1040
3.0
1002
}
  0
LINE
  5
92AE
  8
0
 10
75.64321380286245
 20
207.1210417053504
 30
0.0
 11
75.49724803380857
 21
207.6657933716258
 31
0.0
  0
ARC
  5
92AF
  8
0
 10
75.60447528992816
 20
206.1955982426326
 30
0.0
 40
0.1767766952966168
 50
104.9999999999873
 51
284.9999999999873
  0
ARC
  5
92B0
  8
0
 10
74.7887909394565
 20
207.4411378947829
 30
0.0
 40
0.1499999999999773
 50
59.99999999997465
 51
239.9999999999746
  0
LINE
  5
92B1
  8
0
 10
78.8475077968649
 20
205.2710417053505
 30
0.0
 11
79.38821726792142
 21
205.4159243714598
 31
0.0
  0
LINE
  5
92B2
  8
0
 10
76.24943158551153
 20
206.7710417053505
 30
0.0
 11
75.64321380286245
 21
207.1210417053504
 31
0.0
1001
GENIUS_GENODEF_13
1002
{
1000
HIER
1070
     0
1002
}
1002
{
1000
MANEDIT
1070
     0
1002
}
1002
{
1000
NOSEL
1070
     0
1002
}
1002
{
1000
BEHIND
1070
     0
1002
}
1002
{
1000
OTHER
1070
     0
1002
}
1002
{
1000
REACTOR
1002
}
1001
GENIUS_GENOBJ-N-CEN_13
1002
{
1000
OWNER
1000
GEN
1002
}
1001
GENIUS_GENCEN_19
1002
{
1040
3.0
1002
}
  0
ARC
  5
92B3
  8
0
 10
80.15814844292007
 20
204.3411378947828
 30
0.0
 40
0.1499999999999773
 50
239.9999999999746
 51
59.99999999997465
  0
ARC
  5
92B4
  8
0
 10
79.34246409244841
 20
205.5866775469329
 30
0.0
 40
0.1767766952966168
 50
284.9999999999873
 51
104.9999999999873
  0
LINE
  5
92B5
  8
0
 10
78.26449509497277
 20
205.2612340842152
 30
0.0
 11
78.50088411202844
 21
204.3790182622125
 31
0.0
  0
LINE
  5
92B6
  8
0
 10
75.1870275850147
 20
207.0380107795118
 30
0.0
 11
74.71379093945646
 21
207.3112340842151
 31
0.0
1001
GENIUS_GENODEF_13
1002
{
1000
HIER
1070
     0
1002
}
1002
{
1000
MANEDIT
1070
     0
1002
}
1002
{
1000
NOSEL
1070
     0
1002
}
1002
{
1000
BEHIND
1070
     0
1002
}
1002
{
1000
OTHER
1070
     0
1002
}
1002
{
1000
REACTOR
1002
}
1001
GENIUS_GENOBJ-N-CEN_13
1002
{
1000
OWNER
1000
GEN
1002
}
1001
GENIUS_GENCEN_19
1002
{
1040
3.0
1002
}
  0
LINE
  5
92B7
  8
0
 10
78.69750779686504
 20
205.0112340842152
 30
0.0
 11
78.84239046297446
 21
204.4705246131587
 31
0.0
  0
LINE
  5
92B8
  8
0
 10
76.09943158551167
 20
206.5112340842152
 30
0.0
 11
75.55872211445515
 21
206.3663514181058
 31
0.0
  0
LINE
  5
92B9
  8
0
 10
76.6824442874038
 20
206.5210417053505
 30
0.0
 11
76.44605527034835
 21
207.403257527353
 31
0.0
  0
ARC
  5
92BA
  8
0
 10
78.67163728750145
 20
204.4247714376856
 30
0.0
 40
0.1767766952966168
 50
195.0000000000253
 51
14.99999999998613
  0
LINE
  5
92BB
  8
0
 10
76.09943158551167
 20
206.5112340842152
 30
0.0
 11
75.49321380286258
 21
206.8612340842151
 31
0.0
1001
GENIUS_GENODEF_13
1002
{
1000
HIER
1070
     0
1002
}
1002
{
1000
MANEDIT
1070
     0
1002
}
1002
{
1000
NOSEL
1070
     0
1002
}
1002
{
1000
BEHIND
1070
     0
1002
}
1002
{
1000
OTHER
1070
     0
1002
}
1002
{
1000
REACTOR
1002
}
1001
GENIUS_GENOBJ-N-CEN_13
1002
{
1000
OWNER
1000
GEN
1002
}
1001
GENIUS_GENCEN_19
1002
{
1040
3.0
1002
}
  0
POLYLINE
  5
92BC
  8
0
 66
     1
 10
0.0
 20
0.0
 30
0.0
  0
VERTEX
  5
A86D
  8
0
 10
77.92459470386214
 20
206.324800123045
 30
0.0
  0
VERTEX
  5
A86E
  8
0
 10
77.62346969118838
 20
206.498654730172
 30
0.0
  0
SEQEND
  5
A87D
  8
0
  0
POLYLINE
  5
92BD
  8
0
 66
     1
 10
0.0
 20
0.0
 30
0.0
  0
VERTEX
  5
A86F
  8
0
 10
77.02234467851443
 20
205.4574756665204
 30
0.0
  0
VERTEX
  5
A870
  8
0
 10
77.3234696911882
 20
205.2836210593935
 30
0.0
  0
SEQEND
  5
A87E
  8
0
  0
POLYLINE
  5
92BE
  8
0
 66
     1
 10
0.0
 20
0.0
 30
0.0
  0
VERTEX
  5
A871
  8
0
 10
77.62346969118838
 20
205.2836210593935
 30
0.0
  0
VERTEX
  5
A872
  8
0
 10
77.92459470386214
 20
205.4574756665205
 30
0.0
  0
SEQEND
  5
A87F
  8
0
  0
POLYLINE
  5
92BF
  8
0
 66
     1
 10
0.0
 20
0.0
 30
0.0
  0
VERTEX
  5
A873
  8
0
 10
78.074594703862
 20
205.7172832876558
 30
0.0
  0
VERTEX
  5
A874
  8
0
 10
78.074594703862
 20
206.0649925019096
 30
0.0
  0
SEQEND
  5
A880
  8
0
  0
POLYLINE
  5
92C0
  8
0
 66
     1
 10
0.0
 20
0.0
 30
0.0
  0
VERTEX
  5
A875
  8
0
 10
76.87234467851457
 20
206.0649925019097
 30
0.0
  0
VERTEX
  5
A876
  8
0
 10
76.87234467851457
 20
205.7172832876557
 30
0.0
  0
SEQEND
  5
A881
  8
0
  0
LINE
  5
92C1
  8
0
 10
76.87234467851457
 20
206.0649925019097
 30
0.0
 11
76.53244428740393
 21
206.2612340842152
 31
0.0
1001
GENIUS_GENODEF_13
1002
{
1000
HIER
1070
     0
1002
}
1002
{
1000
MANEDIT
1070
     0
1002
}
1002
{
1000
NOSEL
1070
     0
1002
}
1002
{
1000
BEHIND
1070
     0
1002
}
1002
{
1000
OTHER
1070
     0
1002
}
1002
{
1000
REACTOR
1002
}
1001
GENIUS_GENOBJ-N-CEN_13
1002
{
1000
OWNER
1000
GEN
1002
}
1001
GENIUS_GENCEN_19
1002
{
1040
3.0
1002
}
  0
LINE
  5
92C2
  8
0
 10
77.02234467851443
 20
205.4574756665204
 30
0.0
 11
76.6824442874038
 21
205.2612340842151
 31
0.0
1001
GENIUS_GENODEF_13
1002
{
1000
HIER
1070
     0
1002
}
1002
{
1000
MANEDIT
1070
     0
1002
}
1002
{
1000
NOSEL
1070
     0
1002
}
1002
{
1000
BEHIND
1070
     0
1002
}
1002
{
1000
OTHER
1070
     0
1002
}
1002
{
1000
REACTOR
1002
}
1001
GENIUS_GENOBJ-N-CEN_13
1002
{
1000
OWNER
1000
GEN
1002
}
1001
GENIUS_GENCEN_19
1002
{
1040
3.0
1002
}
  0
LINE
  5
92C3
  8
0
 10
77.62346969118838
 20
206.498654730172
 30
0.0
 11
77.62346969118838
 21
206.8911378947828
 31
0.0
1001
GENIUS_GENODEF_13
1002
{
1000
HIER
1070
     0
1002
}
1002
{
1000
MANEDIT
1070
     0
1002
}
1002
{
1000
NOSEL
1070
     0
1002
}
1002
{
1000
BEHIND
1070
     0
1002
}
1002
{
1000
OTHER
1070
     0
1002
}
1002
{
1000
REACTOR
1002
}
1001
GENIUS_GENOBJ-N-CEN_13
1002
{
1000
OWNER
1000
GEN
1002
}
1001
GENIUS_GENCEN_19
1002
{
1040
3.0
1002
}
  0
LINE
  5
92C4
  8
0
 10
76.87234467851457
 20
205.7172832876557
 30
0.0
 11
76.53244428740393
 21
205.5210417053504
 31
0.0
1001
GENIUS_GENODEF_13
1002
{
1000
HIER
1070
     0
1002
}
1002
{
1000
MANEDIT
1070
     0
1002
}
1002
{
1000
NOSEL
1070
     0
1002
}
1002
{
1000
BEHIND
1070
     0
1002
}
1002
{
1000
OTHER
1070
     0
1002
}
1002
{
1000
REACTOR
1002
}
1001
GENIUS_GENOBJ-N-CEN_13
1002
{
1000
OWNER
1000
GEN
1002
}
1001
GENIUS_GENCEN_19
1002
{
1040
3.0
1002
}
  0
LINE
  5
92C5
  8
0
 10
77.02234467851466
 20
206.3248001230451
 30
0.0
 11
76.6824442874038
 21
206.5210417053505
 31
0.0
1001
GENIUS_GENODEF_13
1002
{
1000
HIER
1070
     0
1002
}
1002
{
1000
MANEDIT
1070
     0
1002
}
1002
{
1000
NOSEL
1070
     0
1002
}
1002
{
1000
BEHIND
1070
     0
1002
}
1002
{
1000
OTHER
1070
     0
1002
}
1002
{
1000
REACTOR
1002
}
1001
GENIUS_GENOBJ-N-CEN_13
1002
{
1000
OWNER
1000
GEN
1002
}
1001
GENIUS_GENCEN_19
1002
{
1040
3.0
1002
}
  0
LINE
  5
92C6
  8
0
 10
77.3234696911882
 20
206.498654730172
 30
0.0
 11
77.3234696911882
 21
206.8911378947828
 31
0.0
1001
GENIUS_GENODEF_13
1002
{
1000
HIER
1070
     0
1002
}
1002
{
1000
MANEDIT
1070
     0
1002
}
1002
{
1000
NOSEL
1070
     0
1002
}
1002
{
1000
BEHIND
1070
     0
1002
}
1002
{
1000
OTHER
1070
     0
1002
}
1002
{
1000
REACTOR
1002
}
1001
GENIUS_GENOBJ-N-CEN_13
1002
{
1000
OWNER
1000
GEN
1002
}
1001
GENIUS_GENCEN_19
1002
{
1040
3.0
1002
}
  0
POINT
  5
92C7
  8
0
 10
77.47346969118828
 20
205.8911378947828
 30
0.0
  0
ARC
  5
A665
  8
0
 10
57.65747357530604
 20
237.9020931204256
 30
0.0
 40
2.818784487207035
 50
42.10643774613582
 51
72.54963860556856
  0
ARC
  5
A666
  8
0
 10
57.6620404200961
 20
237.8940200898168
 30
0.0
 40
2.825124600724308
 50
72.68709389380213
 51
114.8350808121767
  0
ARC
  5
A667
  8
0
 10
57.66886519956004
 20
237.8951251760519
 30
0.0
 40
2.82699601279636
 50
114.9700164788606
 51
159.7658782060661
  0
ARC
  5
A668
  8
0
 10
57.67023802492437
 20
237.9019418616501
 30
0.0
 40
2.825934871198894
 50
159.905183900427
 51
208.1033156220139
  0
ARC
  5
A669
  8
0
 10
57.66700786976536
 20
237.9059775349342
 30
0.0
 40
2.824991178843034
 50
208.2063768521136
 51
252.9917058831043
  0
ARC
  5
A66A
  8
0
 10
57.66113741822067
 20
237.8985091056979
 30
0.0
 40
2.816134321775382
 50
253.0614728184792
 51
303.6104044070932
  0
ARC
  5
A66B
  8
0
 10
57.65197731125314
 20
237.9078129834101
 30
0.0
 40
2.828954381084524
 50
303.6606050060742
 51
336.6888212394869
  0
ARC
  5
A66C
  8
0
 10
57.67302204206237
 20
237.896201719023
 30
0.0
 40
2.805033656979198
 50
336.7365264644543
 51
352.0115546408769
  0
ARC
  5
A66D
  8
0
 10
60.88196512445779
 20
237.4395139445809
 30
0.0
 40
0.4362831274249897
 50
124.9417661980038
 51
171.1843733476157
  0
ARC
  5
A66E
  8
0
 10
60.95858726098088
 20
237.3812926282232
 30
0.0
 40
0.5287156028486799
 50
68.49894250646598
 51
128.1363643025125
  0
ARC
  5
A66F
  8
0
 10
60.95744437000722
 20
237.3781542288012
 30
0.0
 40
0.5320545012467646
 50
21.1786845759315
 51
68.50830305575624
  0
ARC
  5
A670
  8
0
 10
60.90062769955986
 20
237.3654674059452
 30
0.0
 40
0.589681274627146
 50
351.3677592453785
 51
20.3336515506318
  0
ARC
  5
A671
  8
0
 10
57.68343705213383
 20
237.8923728658909
 30
0.0
 40
3.849700154783129
 50
329.2955579547443
 51
350.8012500119645
  0
ARC
  5
A672
  8
0
 10
57.66066851953241
 20
237.9020155056541
 30
0.0
 40
3.874201887614873
 50
272.110292872708
 51
329.3448789643533
  0
ARC
  5
A673
  8
0
 10
57.65755494499683
 20
237.8871220378322
 30
0.0
 40
3.859434907830362
 50
228.1538869054162
 51
272.1646262877288
  0
ARC
  5
A674
  8
0
 10
57.65900386452161
 20
237.9001849135703
 30
0.0
 40
3.870140110233152
 50
191.6688789272142
 51
228.2669244735644
  0
ARC
  5
A675
  8
0
 10
54.43289767128081
 20
239.2068410104763
 30
0.0
 40
2.164208178393929
 50
198.723963475941
 51
254.8927875963115
  0
ARC
  5
A676
  8
0
 10
52.35567876398024
 20
239.7876077913715
 30
0.0
 40
1.275794832121307
 50
159.5889286416676
 51
271.2373210171075
  0
ARC
  5
A677
  8
0
 10
52.35551363530638
 20
239.7874627708316
 30
0.0
 40
1.27569066216106
 50
56.35876753652801
 51
159.5802376694569
  0
ARC
  5
A678
  8
0
 10
52.35508848122097
 20
239.7872880343398
 30
0.0
 40
1.27607169163755
 50
300.8474340774569
 51
56.3472215566183
  0
ARC
  5
A679
  8
0
 10
54.43269053159622
 20
239.205766667756
 30
0.0
 40
1.513270340059136
 50
199.8575424768347
 51
244.8702054099216
  0
ARC
  5
A67A
  8
0
 10
57.65322924019225
 20
237.9057753033925
 30
0.0
 40
3.863814594731709
 50
128.8924189419203
 51
181.0387416655363
  0
ARC
  5
A67B
  8
0
 10
57.65982246991536
 20
237.9092508948349
 30
0.0
 40
3.865255996170545
 50
64.08752047055657
 51
129.0008345454499
  0
ARC
  5
A67C
  8
0
 10
57.63603020600064
 20
237.8813368582033
 30
0.0
 40
3.900771647075106
 50
41.93148962721691
 51
63.95236016528539
  0
ARC
  5
A67D
  8
0
 10
60.13292493824088
 20
240.1416124457199
 30
0.0
 40
0.5329691384397407
 50
326.9391245431075
 51
40.53482220835286
  0
ARC
  5
A67E
  8
0
 10
60.13437214279045
 20
240.1420804206109
 30
0.0
 40
0.532012855346209
 50
288.8262582044613
 51
326.8118599153547
  0
ARC
  5
A67F
  8
0
 10
60.13890334140635
 20
240.1199653234719
 30
0.0
 40
0.5096266244015553
 50
220.0392534532336
 51
289.1464231932406
  0
ARC
  5
A680
  8
0
 10
52.35555897674914
 20
239.7874967222048
 30
0.0
 40
0.5333610920542913
 50
358.2903179254369
 51
182.8871640299775
  0
ARC
  5
A681
  8
0
 10
52.35556125442243
 20
239.7872750687479
 30
0.0
 40
0.533352248318835
 50
182.8633706346291
 51
358.3141113207849
  0
ARC
  5
A682
  8
0
 10
56.4144240862955
 20
238.3677784577166
 30
0.0
 40
0.6197235851139764
 50
269.9860909562865
 51
92.215844524471
  0
ARC
  5
A683
  8
0
 10
56.41454741015219
 20
238.3677808277388
 30
0.0
 40
0.619725997344469
 50
92.2272460800959
 51
269.9746892990934
  0
ARC
  5
A684
  8
0
 10
58.91025527816754
 20
238.3677715142145
 30
0.0
 40
0.6197167624590886
 50
269.9616101028838
 51
89.98977670141691
  0
ARC
  5
A685
  8
0
 10
58.90992044989132
 20
238.3677716562587
 30
0.0
 40
0.6197167706109338
 50
89.95882022245952
 51
269.9925665818412
  0
ARC
  5
A686
  8
0
 10
57.66213579924929
 20
238.3884339297767
 30
0.0
 40
1.621966970399848
 50
233.6417470358276
 51
306.8838773871507
  0
ARC
  5
A687
  8
0
 10
58.78581951004265
 20
236.8818330070978
 30
0.0
 40
0.2575808481740123
 50
48.75225273409504
 51
125.6665677964157
  0
ARC
  5
A688
  8
0
 10
58.78543677085516
 20
236.8815711506925
 30
0.0
 40
0.2580301008803177
 50
350.2089239138172
 51
48.72668974044582
  0
ARC
  5
A689
  8
0
 10
58.7822838741664
 20
236.8818145402388
 30
0.0
 40
0.2611786316846578
 50
302.7722891929776
 51
350.2739298216768
  0
ARC
  5
A68A
  8
0
 10
57.65846606407192
 20
238.3944672278577
 30
0.0
 40
2.145096291517153
 50
279.580629416799
 51
306.1433603622944
  0
ARC
  5
A68B
  8
0
 10
57.66204946286878
 20
238.3876046226519
 30
0.0
 40
2.137734336466047
 50
255.4417152635177
 51
279.5165392426289
  0
ARC
  5
A68C
  8
0
 10
57.6629991216026
 20
238.3854049646014
 30
0.0
 40
2.135844522087935
 50
232.8702473643658
 51
255.4022254017396
  0
ARC
  5
A68D
  8
0
 10
56.53944883532791
 20
236.8814633550895
 30
0.0
 40
0.25887643170293
 50
155.1529278431441
 51
230.2048092005848
  0
ARC
  5
A68E
  8
0
 10
56.53824733876176
 20
236.8819029289717
 30
0.0
 40
0.2576014684421306
 50
103.7622011258897
 51
155.1293551933427
  0
ARC
  5
A68F
  8
0
 10
56.5385726024393
 20
236.8821431168007
 30
0.0
 40
0.2574458242313935
 50
51.00202248787202
 51
103.845228473221
  0
ARC
  5
A690
  8
0
 10
49.67809520652039
 20
234.8564016420979
 30
0.0
 40
0.9091768622367206
 50
133.222959671733
 51
270.1894734199499
  0
ARC
  5
A691
  8
0
 10
49.67852055412756
 20
234.856017953103
 30
0.0
 40
0.9087918676904274
 50
270.1627370543721
 51
50.19893912908906
  0
ARC
  5
A692
  8
0
 10
49.65784207733936
 20
241.2524881087237
 30
0.0
 40
0.6024320394943272
 50
2.835526177202197
 51
174.3732816204337
  0
ARC
  5
A693
  8
0
 10
49.65787804371772
 20
241.2524100197583
 30
0.0
 40
0.2295028634559424
 50
358.9188453068101
 51
179.9730971000994
  0
ARC
  5
A694
  8
0
 10
46.78493243185758
 20
235.9457532626368
 30
0.0
 40
0.0873768611613766
 50
87.47256260673397
 51
234.0891406317526
  0
ARC
  5
A695
  8
0
 10
48.19601220484156
 20
235.9466667433408
 30
0.0
 40
0.0863646317370953
 50
317.9031549580241
 51
87.18148688827209
  0
ARC
  5
A696
  8
0
 10
47.49016881076258
 20
235.240568374189
 30
0.0
 40
0.086253216996548
 50
226.0322552542306
 51
315.2107938570516
  0
LINE
  5
A697
  8
0
 10
49.42837520556122
 20
241.2525177814886
 30
0.0
 11
49.42837520556122
 21
237.7288068439883
 31
0.0
  0
LINE
  5
A698
  8
0
 10
49.42837520556122
 20
237.7288068439883
 30
0.0
 11
49.88734004931166
 21
237.7288068439883
 31
0.0
  0
LINE
  5
A699
  8
0
 10
49.88734004931166
 20
237.7288068439883
 30
0.0
 11
49.88734004931166
 21
241.2480796244779
 31
0.0
  0
LINE
  5
A69A
  8
0
 10
50.25953653284297
 20
241.2822898607781
 30
0.0
 11
50.26025997118631
 21
235.5542170002381
 31
0.0
  0
LINE
  5
A69B
  8
0
 10
49.05545528368657
 20
235.5189135992127
 30
0.0
 11
49.05545528368657
 21
237.499412312738
 31
0.0
  0
LINE
  5
A69C
  8
0
 10
49.05545528368657
 20
237.499412312738
 30
0.0
 11
46.59223262743626
 21
237.499412312738
 31
0.0
  0
LINE
  5
A69D
  8
0
 10
46.59223262743626
 20
237.499412312738
 30
0.0
 11
46.59223262743626
 21
237.7287229003818
 31
0.0
  0
LINE
  5
A69E
  8
0
 10
46.59223262743626
 20
237.7287229003818
 30
0.0
 11
49.05545528368657
 21
237.7288068439883
 31
0.0
  0
LINE
  5
A69F
  8
0
 10
49.05545528368657
 20
237.7288068439883
 30
0.0
 11
49.05831268399731
 21
241.311554755219
 31
0.0
  0
LINE
  5
A6A0
  8
0
 10
46.73368364192788
 20
235.8749840786854
 30
0.0
 11
47.43028723017616
 21
235.1784892815029
 31
0.0
  0
LINE
  5
A6A1
  8
0
 10
47.55138301806164
 20
235.1798029377386
 30
0.0
 11
48.26009586330037
 21
235.8887691239284
 31
0.0
  0
LINE
  5
A6A2
  8
0
 10
48.2002589693709
 20
236.0329268998797
 30
0.0
 11
47.81909786181131
 21
236.0330451252384
 31
0.0
  0
LINE
  5
A6A3
  8
0
 10
47.81909786181131
 20
236.0330451252384
 30
0.0
 11
47.81909786181131
 21
237.047175194503
 31
0.0
  0
LINE
  5
A6A4
  8
0
 10
47.81909786181131
 20
237.047175194503
 30
0.0
 11
47.16114864306155
 21
237.047302937738
 31
0.0
  0
LINE
  5
A6A5
  8
0
 10
47.16114864306155
 20
237.047302937738
 30
0.0
 11
47.16114864306155
 21
236.0330451252384
 31
0.0
  0
LINE
  5
A6A6
  8
0
 10
47.16114864306155
 20
236.0330451252384
 30
0.0
 11
46.78878555915463
 21
236.0330451252384
 31
0.0
  0
LINE
  5
A6A7
  8
0
 10
48.38810176806146
 20
239.6239045002384
 30
0.0
 11
48.18735958056141
 21
239.7397443439885
 31
0.0
  0
LINE
  5
A6A8
  8
0
 10
48.18735958056141
 20
239.7397443439885
 30
0.0
 11
47.69104122118642
 21
239.4532209064882
 31
0.0
  0
LINE
  5
A6A9
  8
0
 10
47.69104122118642
 20
239.4532209064882
 30
0.0
 11
47.69095333056157
 21
240.0264435627386
 31
0.0
  0
LINE
  5
A6AA
  8
0
 10
47.69095333056157
 20
240.0264435627386
 30
0.0
 11
47.49021114306152
 21
240.1422834064882
 31
0.0
  0
LINE
  5
A6AB
  8
0
 10
47.49021114306152
 20
240.1422834064882
 30
0.0
 11
47.28938106493661
 21
240.0264435627386
 31
0.0
  0
LINE
  5
A6AC
  8
0
 10
47.28938106493661
 20
240.0264435627386
 30
0.0
 11
47.28938106493661
 21
239.4532209064882
 31
0.0
  0
LINE
  5
A6AD
  8
0
 10
47.28938106493661
 20
239.4532209064882
 30
0.0
 11
46.79297481493631
 21
239.7397443439885
 31
0.0
  0
LINE
  5
A6AE
  8
0
 10
46.79297481493631
 20
239.7397443439885
 30
0.0
 11
46.59223262743626
 21
239.6239045002384
 31
0.0
  0
LINE
  5
A6AF
  8
0
 10
46.59223262743626
 20
239.6239045002384
 30
0.0
 11
46.59223262743626
 21
239.3920490314885
 31
0.0
  0
LINE
  5
A6B0
  8
0
 10
46.59223262743626
 20
239.3920490314885
 30
0.0
 11
47.08863887743655
 21
239.1055255939881
 31
0.0
  0
LINE
  5
A6B1
  8
0
 10
47.08863887743655
 20
239.1055255939881
 30
0.0
 11
46.59223262743626
 21
238.818826375238
 31
0.0
  0
LINE
  5
A6B2
  8
0
 10
46.59223262743626
 20
238.818826375238
 30
0.0
 11
46.59223262743626
 21
238.5869709064881
 31
0.0
  0
LINE
  5
A6B3
  8
0
 10
46.59223262743626
 20
238.5869709064881
 30
0.0
 11
46.79297481493631
 21
238.471131062738
 31
0.0
  0
LINE
  5
A6B4
  8
0
 10
46.79297481493631
 20
238.471131062738
 30
0.0
 11
47.28938106493661
 21
238.7576545002384
 31
0.0
  0
LINE
  5
A6B5
  8
0
 10
47.28938106493661
 20
238.7576545002384
 30
0.0
 11
47.28946895556146
 21
238.1844318439884
 31
0.0
  0
LINE
  5
A6B6
  8
0
 10
47.28946895556146
 20
238.1844318439884
 30
0.0
 11
47.49021114306152
 21
238.0685920002383
 31
0.0
  0
LINE
  5
A6B7
  8
0
 10
47.49021114306152
 20
238.0685920002383
 30
0.0
 11
47.69104122118642
 21
238.1844318439884
 31
0.0
  0
LINE
  5
A6B8
  8
0
 10
47.69104122118642
 20
238.1844318439884
 30
0.0
 11
47.69095333056157
 21
238.7576545002384
 31
0.0
  0
LINE
  5
A6B9
  8
0
 10
47.69095333056157
 20
238.7576545002384
 30
0.0
 11
48.18735958056141
 21
238.471131062738
 31
0.0
  0
LINE
  5
A6BA
  8
0
 10
48.18735958056141
 20
238.471131062738
 30
0.0
 11
48.38810176806146
 21
238.5869709064881
 31
0.0
  0
LINE
  5
A6BB
  8
0
 10
48.38810176806146
 20
238.5869709064881
 30
0.0
 11
48.38810176806146
 21
238.818826375238
 31
0.0
  0
LINE
  5
A6BC
  8
0
 10
48.38810176806146
 20
238.818826375238
 30
0.0
 11
47.89178340868648
 21
239.1055255939881
 31
0.0
  0
LINE
  5
A6BD
  8
0
 10
47.89178340868648
 20
239.1055255939881
 30
0.0
 11
48.38810176806146
 21
239.3920490314885
 31
0.0
  0
LINE
  5
A6BE
  8
0
 10
48.38810176806146
 20
239.3920490314885
 30
0.0
 11
48.38810176806146
 21
239.6239045002384
 31
0.0
  0
ARC
  5
A6BF
  8
0
 10
43.12195934609593
 20
230.2040461175401
 30
0.0
 40
0.3670849884844836
 50
88.43595018400146
 51
181.5907611346543
  0
ARC
  5
A6C0
  8
0
 10
43.11635833128778
 20
230.17815104295
 30
0.0
 40
0.3616836161732613
 50
177.5113831094955
 51
272.4752596742406
  0
ARC
  5
A6C1
  8
0
 10
47.84987986345515
 20
228.8144651248958
 30
0.0
 40
1.757421872517575
 50
58.63205765538193
 51
91.82624667791212
  0
ARC
  5
A6C2
  8
0
 10
48.0311043742193
 20
229.1539907987195
 30
0.0
 40
1.373363550070809
 50
357.3646905701011
 51
57.71432541069638
  0
ARC
  5
A6C3
  8
0
 10
47.37222606000248
 20
229.1492422607035
 30
0.0
 40
2.031628876196131
 50
312.3580077297276
 51
358.3528725601312
  0
ARC
  5
A6C4
  8
0
 10
46.53428715551012
 20
230.283401936297
 30
0.0
 40
3.437343882281632
 50
279.6428930056555
 51
309.9410387066555
  0
ARC
  5
A6C5
  8
0
 10
45.82933059788145
 20
233.0638061920226
 30
0.0
 40
6.30072093565917
 50
275.4117803201625
 51
281.7281302859267
  0
ARC
  5
A6C6
  8
0
 10
46.41897769867541
 20
226.6870106084653
 30
0.0
 40
0.104260725704256
 50
87.4752300347481
 51
163.7199139015231
  0
ARC
  5
A6C7
  8
0
 10
46.61712834302536
 20
226.6564088110254
 30
0.0
 40
0.3041729537229
 50
168.6561978748385
 51
200.0889648778359
  0
ARC
  5
A6C8
  8
0
 10
46.25955381345899
 20
225.9016457477547
 30
0.0
 40
0.2537512839947012
 50
261.3372320245579
 51
20.62119432797275
  0
ARC
  5
A6C9
  8
0
 10
45.89216037940254
 20
227.3439477861907
 30
0.0
 40
1.693196324176135
 50
200.7119394462078
 51
269.6171287198742
  0
ARC
  5
A6CA
  8
0
 10
44.01207273051698
 20
228.5589452964035
 30
0.0
 40
0.2418104089398966
 50
78.56434552526832
 51
205.2442294015707
  0
ARC
  5
A6CB
  8
0
 10
45.20963082066834
 20
228.2511782454153
 30
0.0
 40
0.5454708950328662
 50
22.03436718337224
 51
87.10976279916946
  0
ARC
  5
A6CC
  8
0
 10
46.42807187546425
 20
228.0722214662464
 30
0.0
 40
0.5575982287956304
 50
198.5615711856641
 51
231.4697421334256
  0
ARC
  5
A6CD
  8
0
 10
46.2752280833615
 20
227.907973676974
 30
0.0
 40
0.3343453227859988
 50
234.4274826077689
 51
282.9237961332864
  0
ARC
  5
A6CE
  8
0
 10
45.96412109231598
 20
228.9255412780149
 30
0.0
 40
1.397765155718417
 50
286.0259576150772
 51
322.7723331413743
  0
ARC
  5
A6CF
  8
0
 10
45.45650265127791
 20
229.3733444574611
 30
0.0
 40
2.073453716718684
 50
321.405557856657
 51
357.0055140470168
  0
ARC
  5
A6D0
  8
0
 10
46.9816655724087
 20
229.3036561898552
 30
0.0
 40
0.5468257340680802
 50
355.949160792519
 51
43.9861427071242
  0
ARC
  5
A6D1
  8
0
 10
46.98970571345917
 20
229.2031068254807
 30
0.0
 40
0.6158215084356161
 50
51.25619189844242
 51
94.75943482914414
  0
ARC
  5
A6D2
  8
0
 10
50.95033516609465
 20
228.1107993292354
 30
0.0
 40
0.9170993127764647
 50
90.00286747961208
 51
268.2497146487426
  0
ARC
  5
A6D3
  8
0
 10
50.95025858474779
 20
228.1108004971224
 30
0.0
 40
0.9170981442542538
 50
268.2544990708273
 51
89.99808305752734
  0
ARC
  5
A6D4
  8
0
 10
53.00544743993542
 20
230.1893399795404
 30
0.0
 40
0.3770840596473977
 50
89.9884213680942
 51
178.6192995487076
  0
ARC
  5
A6D5
  8
0
 10
54.17349042306676
 20
230.1893399589202
 30
0.0
 40
0.3770841082509337
 50
1.380703407340469
 51
90.02492579868495
  0
ARC
  5
A6D6
  8
0
 10
54.17356772625749
 20
227.6231650585276
 30
0.0
 40
0.3768973543141036
 50
269.9633102497762
 51
0.0233356470828619
  0
ARC
  5
A6D7
  8
0
 10
53.00537010634592
 20
227.623165026023
 30
0.0
 40
0.3768972758079303
 50
179.9766594067293
 51
270.0233405932998
  0
ARC
  5
A6D8
  8
0
 10
56.67348593965098
 20
230.1899717974746
 30
0.0
 40
0.3765533069000618
 50
91.32755171042443
 51
178.7135156246359
  0
ARC
  5
A6D9
  8
0
 10
57.84184585275494
 20
230.1892545724271
 30
0.0
 40
0.3772853742403397
 50
1.39293758417252
 51
88.57968746194234
  0
ARC
  5
A6DA
  8
0
 10
55.35470066232916
 20
227.3334167157244
 30
0.0
 40
0.9424222807007966
 50
270.2596160298706
 51
359.1847732707243
  0
ARC
  5
A6DB
  8
0
 10
55.08760860399889
 20
226.0185675861757
 30
0.0
 40
0.3724651062386549
 50
89.29017710179693
 51
270.7098228982031
  0
ARC
  5
A6DC
  8
0
 10
56.02878113638237
 20
227.7815170254549
 30
0.0
 40
2.135678174171317
 50
269.0521856153052
 51
304.9431031995392
  0
ARC
  5
A6DD
  8
0
 10
55.98388093546896
 20
227.8864460633898
 30
0.0
 40
2.247528607778139
 50
304.3492687691318
 51
342.0336073987834
  0
ARC
  5
A6DE
  8
0
 10
55.96985022703156
 20
227.8474222520689
 30
0.0
 40
2.249219839620582
 50
343.0895187182542
 51
0.3832968636579526
  0
ARC
  5
A6DF
  8
0
 10
59.44663312707419
 20
230.2030402424261
 30
0.0
 40
0.3724661917305334
 50
89.27682506750826
 51
270.7231749324918
  0
ARC
  5
A6E0
  8
0
 10
59.21692130887207
 20
228.5260871174256
 30
0.0
 40
0.3541906372867973
 50
86.29944766479187
 51
273.7005523352082
  0
ARC
  5
A6E1
  8
0
 10
60.42079770475281
 20
229.2378800547974
 30
0.0
 40
0.358803858625055
 50
267.0887535299613
 51
356.4733133196503
  0
ARC
  5
A6E2
  8
0
 10
60.44140533907057
 20
229.4931615072567
 30
0.0
 40
0.3396690833730922
 50
354.8685998202262
 51
96.56439594170052
  0
ARC
  5
A6E3
  8
0
 10
64.74309688524865
 20
230.2030402424261
 30
0.0
 40
0.3724651062386495
 50
269.2901771018636
 51
90.7098228981364
  0
ARC
  5
A6E4
  8
0
 10
63.07886620009538
 20
229.4537064744545
 30
0.0
 40
0.3768972758071489
 50
89.97665940658239
 51
180.0233405934893
  0
ARC
  5
A6E5
  8
0
 10
63.03671043351206
 20
229.2116225455045
 30
0.0
 40
0.3347676534002981
 50
179.2835006658344
 51
277.2606919210987
  0
ARC
  5
A6E6
  8
0
 10
63.06765651134682
 20
227.8065124993269
 30
0.0
 40
0.3662987656052747
 50
88.22229995736356
 51
176.6896381244135
  0
ARC
  5
A6E7
  8
0
 10
63.61358972471127
 20
227.2567690069367
 30
0.0
 40
0.9125541393853733
 50
182.5916258786893
 51
271.6600393676819
  0
ARC
  5
A6E8
  8
0
 10
64.76530104827293
 20
225.9953644611759
 30
0.0
 40
0.3502616083451314
 50
265.608746066266
 51
94.39125393373403
  0
ARC
  5
A6E9
  8
0
 10
62.96167971981934
 20
227.8729635991357
 30
0.0
 40
2.227259321723195
 50
225.0349285396396
 51
271.1216669202527
  0
ARC
  5
A6EA
  8
0
 10
62.70746166970247
 20
227.7024394841693
 30
0.0
 40
1.927871578424823
 50
179.3527648258316
 51
226.7994771726991
  0
ARC
  5
A6EB
  8
0
 10
60.60008253863435
 20
227.9573502068817
 30
0.0
 40
0.1798521029892861
 50
357.1558279388276
 51
48.65700890603938
  0
ARC
  5
A6EC
  8
0
 10
60.52984032741133
 20
227.8613072589527
 30
0.0
 40
0.2985497565163959
 50
50.7122642471553
 51
78.58034235835136
  0
ARC
  5
A6ED
  8
0
 10
60.41503395109239
 20
227.3581861819769
 30
0.0
 40
0.8145440850389851
 50
77.67158325142975
 51
90.87644874463575
  0
ARC
  5
A6EE
  8
0
 10
64.94827264105763
 20
228.5523506930924
 30
0.0
 40
0.3797198155434018
 50
270.2659772238895
 51
356.0405792706824
  0
ARC
  5
A6EF
  8
0
 10
64.96166616666896
 20
228.5141065463093
 30
0.0
 40
0.365617762344841
 50
1.884695911894787
 51
91.822965253088
  0
LINE
  5
A6F0
  8
0
 10
43.13197872118644
 20
230.5709943439882
 30
0.0
 11
47.7938732524367
 21
230.5709943439882
 31
0.0
  0
LINE
  5
A6F1
  8
0
 10
46.93860958056166
 20
229.8168048908637
 30
0.0
 11
43.13197872118644
 21
229.8168048908637
 31
0.0
  0
LINE
  5
A6F2
  8
0
 10
44.0600158305615
 20
228.7959552814881
 30
0.0
 11
45.23713497118615
 21
228.7959552814881
 31
0.0
  0
LINE
  5
A6F3
  8
0
 10
45.7152599711867
 20
228.4558185627383
 30
0.0
 11
45.89947872118637
 21
227.8947248127382
 31
0.0
  0
LINE
  5
A6F4
  8
0
 10
43.79335567431143
 20
228.4558185627383
 30
0.0
 11
44.30839473681181
 21
226.7451154377385
 31
0.0
  0
LINE
  5
A6F5
  8
0
 10
45.8808459086863
 20
225.6507892658637
 30
0.0
 11
46.22133418993644
 21
225.6507892658637
 31
0.0
  0
LINE
  5
A6F6
  8
0
 10
46.49704708056152
 20
225.9910138752383
 30
0.0
 11
46.33146114306147
 21
226.5519318439882
 31
0.0
  0
LINE
  5
A6F7
  8
0
 10
52.62847286181113
 20
230.198425984613
 30
0.0
 11
52.62847286181113
 21
227.6233185627383
 31
0.0
  0
LINE
  5
A6F8
  8
0
 10
53.00552364306122
 20
227.2462677814882
 30
0.0
 11
54.1733263774363
 21
227.2462677814882
 31
0.0
  0
LINE
  5
A6F9
  8
0
 10
54.5504650493117
 20
227.6233185627383
 30
0.0
 11
54.5504650493117
 21
230.198425984613
 31
0.0
  0
LINE
  5
A6FA
  8
0
 10
54.1733263774363
 20
230.5664240314881
 30
0.0
 11
53.00552364306122
 21
230.5664240314881
 31
0.0
  0
LINE
  5
A6FB
  8
0
 10
56.29702754931122
 20
230.198425984613
 30
0.0
 11
56.29702754931122
 21
227.320008015863
 31
0.0
  0
LINE
  5
A6FC
  8
0
 10
55.35897090868639
 20
226.3910041096132
 30
0.0
 11
55.09222286181148
 21
226.3910041096132
 31
0.0
  0
LINE
  5
A6FD
  8
0
 10
55.09222286181148
 20
225.6461310627382
 30
0.0
 11
55.99345333056181
 21
225.6461310627382
 31
0.0
  0
LINE
  5
A6FE
  8
0
 10
58.21901973681133
 20
227.8624689533634
 30
0.0
 11
58.21901973681133
 21
230.198425984613
 31
0.0
  0
LINE
  5
A6FF
  8
0
 10
57.85119747118642
 20
230.5664240314881
 30
0.0
 11
56.66476192431173
 21
230.5664240314881
 31
0.0
  0
LINE
  5
A700
  8
0
 10
59.45133418993646
 20
230.5754767658636
 30
0.0
 11
64.7384826274365
 21
230.5754767658636
 31
0.0
  0
LINE
  5
A701
  8
0
 10
64.7384826274365
 20
229.8306037189886
 30
0.0
 11
63.07901973681146
 21
229.8306037189886
 31
0.0
  0
LINE
  5
A702
  8
0
 10
62.70196895556138
 20
229.453552937738
 30
0.0
 11
62.70196895556137
 21
229.2158087971133
 31
0.0
  0
LINE
  5
A703
  8
0
 10
63.07901973681146
 20
228.8795392658629
 30
0.0
 11
64.95003536181139
 21
228.879539265863
 31
0.0
  0
LINE
  5
A704
  8
0
 10
64.95003536181139
 20
228.1726349689883
 30
0.0
 11
63.07901973681146
 21
228.1726349689883
 31
0.0
  0
LINE
  5
A705
  8
0
 10
62.70196895556137
 20
227.8276642658633
 30
0.0
 11
62.70196895556137
 21
227.2155060627382
 31
0.0
  0
LINE
  5
A706
  8
0
 10
63.64002559618666
 20
226.3445978596136
 30
0.0
 11
64.7384826274365
 21
226.3445978596136
 31
0.0
  0
LINE
  5
A707
  8
0
 10
64.7384826274365
 20
225.6461310627382
 30
0.0
 11
63.00527950243622
 21
225.6461310627382
 31
0.0
  0
LINE
  5
A708
  8
0
 10
60.7797130961867
 20
227.7242170002382
 30
0.0
 11
60.7797130961867
 21
227.948425984613
 31
0.0
  0
LINE
  5
A709
  8
0
 10
60.4025744243113
 20
228.1726349689883
 30
0.0
 11
59.23978145556157
 21
228.1726349689883
 31
0.0
  0
LINE
  5
A70A
  8
0
 10
59.23978145556157
 20
228.879539265863
 30
0.0
 11
60.4025744243113
 21
228.879539265863
 31
0.0
  0
LINE
  5
A70B
  8
0
 10
60.77892208056165
 20
229.2158087971133
 30
0.0
 11
60.7797130961867
 21
229.4627814533632
 31
0.0
  0
LINE
  5
A70C
  8
0
 10
60.4025744243113
 20
229.8306037189885
 30
0.0
 11
59.45133418993646
 21
229.8306037189886
 31
0.0
  0
LINE
  5
A710
  8
0
 10
44.90033809618626
 20
232.4509748127383
 30
0.0
 11
44.01844356493666
 21
232.4509748127383
 31
0.0
  0
LINE
  5
A711
  8
0
 10
44.01844356493666
 20
232.4509748127383
 30
0.0
 11
44.01844356493666
 21
232.6163849689882
 31
0.0
  0
LINE
  5
A712
  8
0
 10
44.01844356493666
 20
232.6163849689882
 30
0.0
 11
45.09387325243642
 21
232.6163849689882
 31
0.0
  0
LINE
  5
A713
  8
0
 10
45.09387325243642
 20
232.6163849689882
 30
0.0
 11
45.09387325243642
 21
232.4509748127383
 31
0.0
  0
LINE
  5
A714
  8
0
 10
44.47477168993646
 20
232.0305939533636
 30
0.0
 11
44.32403926806137
 21
232.2360822346135
 31
0.0
  0
LINE
  5
A715
  8
0
 10
44.32403926806137
 20
232.2360822346135
 30
0.0
 11
44.1705822368117
 21
232.1334259846134
 31
0.0
  0
LINE
  5
A716
  8
0
 10
44.57083614306157
 20
231.5636310627387
 30
0.0
 11
44.72824825243652
 21
231.662332234613
 31
0.0
  0
LINE
  5
A717
  8
0
 10
44.72824825243652
 20
231.662332234613
 30
0.0
 11
44.58015254931115
 21
231.8811798908636
 31
0.0
  0
ARC
  5
A718
  8
0
 10
34.35775638356554
 20
224.8149041090205
 30
0.0
 40
12.24141795992888
 50
33.45643062216249
 51
36.71601240395405
  0
ARC
  5
A719
  8
0
 10
44.07174330386146
 20
232.8641922264351
 30
0.0
 40
0.9259146617534648
 50
295.8028544447355
 51
333.4947229782731
  0
ARC
  5
A71A
  8
0
 10
44.14461749811932
 20
232.7903332717615
 30
0.0
 40
1.008092580477948
 50
295.5970136290768
 51
340.3280553328837
  0
LINE
  5
A71B
  8
0
 10
45.86775020556115
 20
232.1560138752383
 30
0.0
 11
45.86775020556115
 21
231.5796271564886
 31
0.0
  0
LINE
  5
A71C
  8
0
 10
45.86775020556115
 20
231.5796271564886
 30
0.0
 11
46.05987911181137
 21
231.5796271564886
 31
0.0
  0
LINE
  5
A71D
  8
0
 10
46.05987911181137
 20
231.5796271564886
 30
0.0
 11
46.05987911181137
 21
232.2481232502386
 31
0.0
  0
LINE
  5
A71E
  8
0
 10
46.44545528368644
 20
232.5283185627385
 30
0.0
 11
46.33603145556162
 21
232.6537384846132
 31
0.0
  0
LINE
  5
A71F
  8
0
 10
45.33803340868644
 20
232.1800959064884
 30
0.0
 11
45.36607051806141
 21
232.0160041096132
 31
0.0
  0
ARC
  5
A720
  8
0
 10
45.09474995630627
 20
233.9809583002093
 30
0.0
 40
1.817221010036674
 50
277.6936667564446
 51
313.0836814663463
  0
ARC
  5
A721
  8
0
 10
45.27396661180975
 20
233.7350086952111
 30
0.0
 40
1.681810567258462
 50
297.8592692614841
 51
314.1519780416271
  0
ARC
  5
A722
  8
0
 10
45.08145891948325
 20
234.0046259621704
 30
0.0
 40
2.008885420952019
 50
278.1448623061169
 51
293.0420589932965
  0
LINE
  5
A723
  8
0
 10
47.17529903368631
 20
232.246804890863
 30
0.0
 11
47.17529903368631
 21
232.2774787189882
 31
0.0
  0
LINE
  5
A724
  8
0
 10
47.17529903368631
 20
232.2774787189882
 30
0.0
 11
46.66025997118641
 21
232.2774787189882
 31
0.0
  0
LINE
  5
A725
  8
0
 10
46.66025997118641
 20
232.2774787189882
 30
0.0
 11
46.66025997118641
 21
232.4469318439887
 31
0.0
  0
LINE
  5
A726
  8
0
 10
46.66025997118641
 20
232.4469318439887
 30
0.0
 11
47.17529903368631
 21
232.4469318439887
 31
0.0
  0
LINE
  5
A727
  8
0
 10
47.17529903368631
 20
232.4469318439887
 30
0.0
 11
47.17529903368631
 21
232.6963654377386
 31
0.0
  0
LINE
  5
A728
  8
0
 10
47.17529903368631
 20
232.6963654377386
 30
0.0
 11
47.36206661181131
 21
232.6963654377386
 31
0.0
  0
LINE
  5
A729
  8
0
 10
47.36206661181131
 20
232.6963654377386
 30
0.0
 11
47.36206661181131
 21
232.4469318439887
 31
0.0
  0
LINE
  5
A72A
  8
0
 10
47.36206661181131
 20
232.4469318439887
 30
0.0
 11
47.78903926806152
 21
232.4469318439887
 31
0.0
  0
LINE
  5
A72B
  8
0
 10
47.78903926806152
 20
232.4469318439887
 30
0.0
 11
47.78903926806152
 21
232.2774787189882
 31
0.0
  0
LINE
  5
A72C
  8
0
 10
47.78903926806152
 20
232.2774787189882
 30
0.0
 11
47.36206661181131
 21
232.2774787189882
 31
0.0
  0
LINE
  5
A72D
  8
0
 10
47.36206661181131
 20
232.2774787189882
 30
0.0
 11
47.36206661181131
 21
232.246804890863
 31
0.0
  0
LINE
  5
A72E
  8
0
 10
46.82971309618642
 20
231.5835822346134
 30
0.0
 11
46.7736388774365
 21
231.7490802814881
 31
0.0
  0
ARC
  5
A72F
  8
0
 10
46.40237051412204
 20
232.2322993591548
 30
0.0
 40
0.7730646200712835
 50
342.2910204567376
 51
1.075142363622295
  0
ARC
  5
A730
  8
0
 10
46.84883908709902
 20
232.0961143962708
 30
0.0
 40
0.3063876798952075
 50
304.2370088981581
 51
341.1546735930816
  0
ARC
  5
A731
  8
0
 10
46.67687034067105
 20
232.3784833253584
 30
0.0
 40
0.6367985092080606
 50
278.7405863986843
 51
302.7346045229082
  0
ARC
  5
A732
  8
0
 10
46.70441931145874
 20
232.3594389017996
 30
0.0
 40
0.7859084555523594
 50
279.173547062458
 51
305.3414915022681
  0
ARC
  5
A733
  8
0
 10
46.85359934896995
 20
232.1064557582052
 30
0.0
 40
0.4938678410143298
 50
308.2022886499759
 51
350.7296062183676
  0
ARC
  5
A734
  8
0
 10
46.30947755310304
 20
232.2365979788987
 30
0.0
 40
1.05263854554364
 50
348.508946732466
 51
0.5555773579723515
  0
LINE
  5
A735
  8
0
 10
48.78712520556155
 20
232.4602912189884
 30
0.0
 11
48.13198848681122
 21
232.4602912189884
 31
0.0
  0
LINE
  5
A736
  8
0
 10
48.13198848681122
 20
232.4602912189884
 30
0.0
 11
48.13198848681122
 21
232.6243830158636
 31
0.0
  0
LINE
  5
A737
  8
0
 10
48.13198848681122
 20
232.6243830158636
 30
0.0
 11
48.98584590868631
 21
232.6243830158636
 31
0.0
  0
LINE
  5
A738
  8
0
 10
48.98584590868631
 20
232.6243830158636
 30
0.0
 11
48.98584590868631
 21
232.4602912189884
 31
0.0
  0
LINE
  5
A739
  8
0
 10
49.10063106493681
 20
231.7156818439884
 30
0.0
 11
48.97784786181137
 21
231.5943048908634
 31
0.0
  0
LINE
  5
A73A
  8
0
 10
48.09454708056137
 20
231.6023029377383
 30
0.0
 11
48.01447872118615
 21
231.7490802814881
 31
0.0
  0
ARC
  5
A73B
  8
0
 10
47.31555533298866
 20
233.2836777334166
 30
0.0
 40
1.686263099876902
 50
294.4866134087317
 51
330.7717068869524
  0
ARC
  5
A73C
  8
0
 10
47.24978877546855
 20
233.412675013344
 30
0.0
 40
1.997764662355422
 50
295.0147624386637
 51
312.8436054073329
  0
ARC
  5
A73D
  8
0
 10
41.37531573621816
 20
224.0177771033208
 30
0.0
 40
10.73323194737177
 50
44.90184257982877
 51
47.63246263973681
  0
ARC
  5
A73E
  8
0
 10
42.14617892478311
 20
224.7138604993634
 30
0.0
 40
9.868632464113261
 50
45.19446774917355
 51
48.17612407225278
  0
ARC
  5
A73F
  8
0
 10
47.6126482176728
 20
233.084667822055
 30
0.0
 40
1.508482032064661
 50
317.6232793949262
 51
335.5492736743415
  0
LINE
  5
A740
  8
0
 10
49.6476623149365
 20
232.6590998127384
 30
0.0
 11
49.47284786181126
 21
232.6790509846132
 31
0.0
  0
LINE
  5
A741
  8
0
 10
49.47284786181126
 20
231.5742658283633
 30
0.0
 11
49.6476623149365
 21
231.5943048908634
 31
0.0
  0
ARC
  5
A742
  8
0
 10
51.82399673873395
 20
232.1267023518009
 30
0.0
 40
2.24050855401593
 50
166.2536808747335
 51
193.7463191252665
  0
ARC
  5
A743
  8
0
 10
51.72627309725129
 20
232.1266584064882
 30
0.0
 40
2.320142851654927
 50
166.2264222050919
 51
193.7735777949081
  0
LINE
  5
A744
  8
0
 10
49.85578731493661
 20
232.4202130939883
 30
0.0
 11
49.85578731493661
 21
232.5763068439882
 31
0.0
  0
LINE
  5
A745
  8
0
 10
49.85578731493661
 20
232.5763068439882
 30
0.0
 11
50.42953731493662
 21
232.5763068439882
 31
0.0
  0
LINE
  5
A746
  8
0
 10
50.42953731493662
 20
232.5763068439882
 30
0.0
 11
50.42953731493662
 21
232.4202130939883
 31
0.0
  0
LINE
  5
A747
  8
0
 10
50.42953731493662
 20
232.4202130939883
 30
0.0
 11
49.85578731493661
 21
232.4202130939883
 31
0.0
  0
LINE
  5
A748
  8
0
 10
50.03596309618615
 20
232.0827130939882
 30
0.0
 11
49.91045528368613
 21
232.1828205158635
 31
0.0
  0
LINE
  5
A749
  8
0
 10
50.44149043993639
 20
231.823875203363
 30
0.0
 11
50.46557247118653
 21
231.6690998127387
 31
0.0
  0
ARC
  5
A74A
  8
0
 10
50.2700635122457
 20
231.764858688778
 30
0.0
 40
0.5513711698559726
 50
130.708220238404
 51
157.703625479385
  0
ARC
  5
A74B
  8
0
 10
49.96061856925136
 20
231.8917203619314
 30
0.0
 40
0.2169312572480087
 50
157.6967650917142
 51
205.3984993646999
  0
ARC
  5
A74C
  8
0
 10
50.02698863958527
 20
231.9460176978116
 30
0.0
 40
0.3008800009813904
 50
209.3210192654115
 51
257.5935048122165
  0
ARC
  5
A74D
  8
0
 10
50.15961532795592
 20
232.4580009109889
 30
0.0
 40
0.8296316180790294
 50
256.2444659394042
 51
275.2215523672216
  0
ARC
  5
A74E
  8
0
 10
50.15724436771688
 20
232.8439037464734
 30
0.0
 40
1.214590672657983
 50
273.6760364924776
 51
284.7056607611161
  0
ARC
  5
A74F
  8
0
 10
50.14568430461715
 20
233.0665393129806
 30
0.0
 40
1.277386143272562
 50
270.1640623199838
 51
283.3896060448867
  0
ARC
  5
A750
  8
0
 10
50.12692642604712
 20
232.1592078398124
 30
0.0
 40
0.3707277183708511
 50
242.6706422703897
 51
273.4664302047655
  0
ARC
  5
A751
  8
0
 10
50.00640184778203
 20
231.9008943963441
 30
0.0
 40
0.0866823147437489
 50
154.8854560630789
 51
235.0327799996414
  0
ARC
  5
A752
  8
0
 10
50.34545015413537
 20
231.7393761963855
 30
0.0
 40
0.4622363727478137
 50
132.0317914832259
 51
154.5946083240115
  0
LINE
  5
A753
  8
0
 10
50.90186153368631
 20
232.3976252033634
 30
0.0
 11
50.71641231493641
 21
232.3976252033634
 31
0.0
  0
LINE
  5
A754
  8
0
 10
50.71641231493641
 20
232.3976252033634
 30
0.0
 11
50.71641231493641
 21
232.5496759846136
 31
0.0
  0
LINE
  5
A755
  8
0
 10
50.71641231493641
 20
232.5496759846136
 30
0.0
 11
50.94457637743653
 21
232.5496759846136
 31
0.0
  0
LINE
  5
A756
  8
0
 10
50.99124629931157
 20
232.7378498127381
 30
0.0
 11
51.15138301806155
 21
232.716492390863
 31
0.0
  0
LINE
  5
A757
  8
0
 10
51.11130489306152
 20
232.5496759846136
 30
0.0
 11
51.33419551806173
 21
232.5496759846136
 31
0.0
  0
LINE
  5
A758
  8
0
 10
51.33419551806173
 20
232.5496759846136
 30
0.0
 11
51.33419551806173
 21
232.3976252033634
 31
0.0
  0
LINE
  5
A759
  8
0
 10
51.33419551806173
 20
232.3976252033634
 30
0.0
 11
51.07131465868633
 21
232.3976252033634
 31
0.0
  0
LINE
  5
A75A
  8
0
 10
50.84042598681162
 20
231.7291291096134
 30
0.0
 11
50.68573848681126
 21
231.7811603596137
 31
0.0
  0
LINE
  5
A75B
  8
0
 10
51.46893184618648
 20
232.5496759846136
 30
0.0
 11
51.46893184618648
 21
232.047996297113
 31
0.0
  0
LINE
  5
A75C
  8
0
 10
51.6383849711865
 20
232.393494343988
 30
0.0
 11
51.6383849711865
 21
231.9652033283636
 31
0.0
  0
LINE
  5
A75D
  8
0
 10
51.88790645556173
 20
232.5229572346133
 30
0.0
 11
51.86786739306126
 21
232.3708185627383
 31
0.0
  0
LINE
  5
A75E
  8
0
 10
51.89449825243673
 20
231.765076375238
 30
0.0
 11
51.78911739306113
 21
231.6477423908636
 31
0.0
  0
LINE
  5
A75F
  8
0
 10
51.78911739306113
 20
231.6477423908636
 30
0.0
 11
51.63038692431155
 21
231.7798420002381
 31
0.0
  0
ARC
  5
A760
  8
0
 10
42.92107959564646
 20
234.639497441135
 30
0.0
 40
8.291191369612257
 50
345.4009556896889
 51
346.740746954867
  0
ARC
  5
A761
  8
0
 10
44.37678254768481
 20
234.3390999301135
 30
0.0
 40
6.807788178855744
 50
337.9301136346513
 51
343.4301309136037
  0
ARC
  5
A762
  8
0
 10
45.15534858739834
 20
234.0667916448852
 30
0.0
 40
6.146931849803847
 50
337.647891114247
 51
344.2437969395151
  0
ARC
  5
A763
  8
0
 10
48.22945414164462
 20
233.3302716245966
 30
0.0
 40
2.985698127172701
 50
344.84418349645
 51
348.136949894858
  0
ARC
  5
A764
  8
0
 10
51.49143897058525
 20
229.6042951641313
 30
0.0
 40
2.945466813310544
 50
82.26435931630408
 51
90.43781711643568
  0
ARC
  5
A765
  8
0
 10
51.58570134588825
 20
230.6877911532882
 30
0.0
 40
1.706516609687102
 50
80.48265313058977
 51
88.23088210500025
  0
ARC
  5
A766
  8
0
 10
50.67111454107268
 20
230.4633905834098
 30
0.0
 40
1.786352038619028
 50
46.77616557053221
 51
57.2156866531281
  0
ARC
  5
A767
  8
0
 10
51.40025390213544
 20
231.8102680800012
 30
0.0
 40
0.2321356375605922
 50
300.4982959066377
 51
352.4685567394949
  0
ARC
  5
A768
  8
0
 10
51.32984951683888
 20
232.0140092876548
 30
0.0
 40
0.4454740180557357
 50
260.8493170262734
 51
294.9930070723727
  0
ARC
  5
A769
  8
0
 10
51.27329405189607
 20
231.8483569851795
 30
0.0
 40
0.274524516799522
 50
210.6191600754503
 51
267.0164240300838
  0
ARC
  5
A76A
  8
0
 10
51.27264975303353
 20
231.8217014016373
 30
0.0
 40
0.2613734309622749
 50
147.2334581988806
 51
205.6564160796825
  0
ARC
  5
A76B
  8
0
 10
51.27761829581464
 20
231.7829377677324
 30
0.0
 40
0.2880874616600608
 50
91.03111037243933
 51
141.2747978514547
  0
ARC
  5
A76C
  8
0
 10
51.32024310807716
 20
231.6282283352591
 30
0.0
 40
0.4453240198322287
 50
70.49501453936077
 51
96.16302987731919
  0
ARC
  5
A76D
  8
0
 10
51.32306317960322
 20
231.6381951089859
 30
0.0
 40
0.2902930385304879
 50
59.83528150936421
 51
103.2201440558064
  0
ARC
  5
A76E
  8
0
 10
51.27816164637235
 20
231.824328450619
 30
0.0
 40
0.0988304488869036
 50
102.5568170755454
 51
180.262765637224
  0
ARC
  5
A76F
  8
0
 10
51.28045616725624
 20
231.8211087261637
 30
0.0
 40
0.1011617650333014
 50
178.4329333203594
 51
256.0701828760615
  0
ARC
  5
A770
  8
0
 10
51.32722201670424
 20
231.9739776578009
 30
0.0
 40
0.2609345439815814
 50
254.1836782918791
 51
287.6043484841652
  0
ARC
  5
A771
  8
0
 10
51.37699042447231
 20
231.8044086960388
 30
0.0
 40
0.0843426031298885
 50
290.2187264652961
 51
350.7581622463694
  0
ARC
  5
A772
  8
0
 10
51.10227097165186
 20
231.8720587313637
 30
0.0
 40
0.3670603004158596
 50
347.2201738930314
 51
2.67316898487712
  0
LINE
  5
A773
  8
0
 10
52.20941036181148
 20
232.1573322346134
 30
0.0
 11
52.1774181743117
 21
232.3095587971133
 31
0.0
  0
LINE
  5
A774
  8
0
 10
52.36550411181133
 20
231.7638459064882
 30
0.0
 11
52.37754512743641
 21
231.6116193439883
 31
0.0
  0
ARC
  5
A775
  8
0
 10
52.79608475219854
 20
229.9765956963141
 30
0.0
 40
2.413600042319521
 50
93.0330778001963
 51
104.852125248309
  0
ARC
  5
A776
  8
0
 10
52.69343224161616
 20
231.8599968683392
 30
0.0
 40
0.5274133454568837
 50
60.91960556758053
 51
92.72310713201327
  0
ARC
  5
A777
  8
0
 10
52.79619597207151
 20
232.08836702444
 30
0.0
 40
0.2786914630822537
 50
9.671194361801408
 51
56.55959162043377
  0
ARC
  5
A778
  8
0
 10
52.63619650665364
 20
232.0478799548756
 30
0.0
 40
0.4434101722744036
 50
333.9597813248128
 51
11.35547973600755
  0
ARC
  5
A779
  8
0
 10
52.70757506049443
 20
232.0389263999852
 30
0.0
 40
0.3760688166287614
 50
291.9740011095546
 51
330.4090690351002
  0
ARC
  5
A77A
  8
0
 10
52.52203315210059
 20
232.432608375194
 30
0.0
 40
0.8109562744615367
 50
277.5911083880274
 51
293.7231081887235
  0
ARC
  5
A77B
  8
0
 10
52.388850135734
 20
233.3011250036843
 30
0.0
 40
1.689543481937406
 50
269.6166218252729
 51
278.1772037059889
  0
ARC
  5
A77C
  8
0
 10
52.40409914763721
 20
232.9172557229359
 30
0.0
 40
1.154055363259622
 50
268.0835017580472
 51
287.3544714703422
  0
ARC
  5
A77D
  8
0
 10
52.68169839822276
 20
232.0315326557075
 30
0.0
 40
0.2258508101221847
 50
287.1599817388461
 51
352.3121354184231
  0
ARC
  5
A77E
  8
0
 10
52.70757749126129
 20
232.0373230228748
 30
0.0
 40
0.2011894179017752
 50
349.6911030936221
 51
46.3182034235858
  0
ARC
  5
A77F
  8
0
 10
52.67569695710571
 20
231.9157956452053
 30
0.0
 40
0.3169953313446048
 50
57.39040451094466
 51
96.72424011120249
  0
ARC
  5
A780
  8
0
 10
52.85523187775931
 20
229.6683410277976
 30
0.0
 40
2.571412580288827
 50
94.83313718967965
 51
104.5458325788219
  0
LINE
  5
A781
  8
0
 10
53.61038692431157
 20
232.4202130939883
 30
0.0
 11
53.42889278368648
 21
232.4202130939883
 31
0.0
  0
LINE
  5
A782
  8
0
 10
53.42889278368648
 20
232.4202130939883
 30
0.0
 11
53.42889278368648
 21
232.5710334064883
 31
0.0
  0
LINE
  5
A783
  8
0
 10
53.42889278368648
 20
232.5710334064883
 30
0.0
 11
53.64106075243626
 21
232.5710334064883
 31
0.0
  0
LINE
  5
A784
  8
0
 10
53.64106075243626
 20
232.5710334064883
 30
0.0
 11
53.66909786181122
 21
232.7324884846134
 31
0.0
  0
LINE
  5
A785
  8
0
 10
53.66909786181122
 20
232.7324884846134
 30
0.0
 11
53.83863887743655
 21
232.7177228596132
 31
0.0
  0
LINE
  5
A786
  8
0
 10
53.83863887743655
 20
232.7177228596132
 30
0.0
 11
53.81323848681131
 21
232.5710334064883
 31
0.0
  0
LINE
  5
A787
  8
0
 10
53.81323848681131
 20
232.5710334064883
 30
0.0
 11
54.27897090868646
 21
232.5710334064883
 31
0.0
  0
LINE
  5
A788
  8
0
 10
54.27897090868646
 20
232.5710334064883
 30
0.0
 11
54.27897090868646
 21
232.4202130939883
 31
0.0
  0
LINE
  5
A789
  8
0
 10
54.27897090868646
 20
232.4202130939883
 30
0.0
 11
53.78397090868657
 21
232.4202130939883
 31
0.0
  0
LINE
  5
A78A
  8
0
 10
53.55703731493622
 20
231.568992390863
 30
0.0
 11
53.3889025493113
 21
231.6076642658635
 31
0.0
  0
LINE
  5
A78B
  8
0
 10
53.94129512743666
 20
232.1334259846134
 30
0.0
 11
53.93066036181153
 21
232.2827521564886
 31
0.0
  0
LINE
  5
A78C
  8
0
 10
54.48032833056141
 20
232.3135138752386
 30
0.0
 11
54.48032833056141
 21
232.1640998127386
 31
0.0
  0
LINE
  5
A78D
  8
0
 10
54.08007442431153
 20
231.9626545002383
 30
0.0
 11
53.9586974711865
 21
232.0399103596136
 31
0.0
  0
LINE
  5
A78E
  8
0
 10
54.49105098681139
 20
231.7704377033632
 30
0.0
 11
54.51109004931141
 21
231.6197052814886
 31
0.0
  0
ARC
  5
A78F
  8
0
 10
47.01143885224883
 20
233.7824923661479
 30
0.0
 40
6.738094721294446
 50
341.1697144444025
 51
348.3357808241415
  0
ARC
  5
A790
  8
0
 10
47.03051474647854
 20
233.7648095097259
 30
0.0
 40
6.886008252687487
 50
341.4047346856015
 51
348.7397953124075
  0
ARC
  5
A791
  8
0
 10
54.46814351763316
 20
227.6049675352139
 30
0.0
 40
4.708562105975219
 50
89.85172986605279
 51
96.5546104840503
  0
ARC
  5
A792
  8
0
 10
54.46915602137184
 20
227.6088616232218
 30
0.0
 40
4.555251890260736
 50
89.85947499256585
 51
96.65436322543621
  0
ARC
  5
A793
  8
0
 10
54.18685431908089
 20
231.725276904578
 30
0.0
 40
0.3886512038689388
 50
125.9477923082765
 51
153.9456213275426
  0
ARC
  5
A794
  8
0
 10
53.99978889060158
 20
231.8312986978021
 30
0.0
 40
0.1745196541164178
 50
158.2451995748845
 51
211.937738790848
  0
ARC
  5
A795
  8
0
 10
54.10853904793871
 20
231.9254057176597
 30
0.0
 40
0.3173766808952333
 50
215.9728103304899
 51
258.577083270988
  0
ARC
  5
A796
  8
0
 10
54.22196071284161
 20
232.3136901616568
 30
0.0
 40
0.7212479843673572
 50
255.8532185042195
 51
272.6578213791558
  0
ARC
  5
A797
  8
0
 10
54.22575990582907
 20
233.1267106316857
 30
0.0
 40
1.533779128917274
 50
271.1075186277241
 51
280.7212356446171
  0
ARC
  5
A798
  8
0
 10
54.21305002584164
 20
233.2109161222056
 30
0.0
 40
1.467059170398629
 50
270.0695624886666
 51
280.923337658684
  0
ARC
  5
A799
  8
0
 10
54.20865017539031
 20
232.1111559519496
 30
0.0
 40
0.3680274217404644
 50
240.6869572496387
 51
273.2459162436446
  0
ARC
  5
A79A
  8
0
 10
54.06797053583703
 20
231.8536670534453
 30
0.0
 40
0.074711058388821
 50
182.4248820533392
 51
238.082482720991
  0
ARC
  5
A79B
  8
0
 10
54.07651269374476
 20
231.845540857685
 30
0.0
 40
0.0833343655532817
 50
131.1757227927974
 51
176.5841957139149
  0
ARC
  5
A79C
  8
0
 10
54.53985796740214
 20
231.4101561723827
 30
0.0
 40
0.7187873877436253
 50
129.7668863169349
 51
136.1330162188036
  0
LINE
  5
A79D
  8
0
 10
54.99941036181144
 20
232.6604181721131
 30
0.0
 11
54.98077754931137
 21
232.5095978596136
 31
0.0
  0
LINE
  5
A79E
  8
0
 10
55.6345080180613
 20
232.620340047113
 30
0.0
 11
55.6345080180613
 21
232.4695197346136
 31
0.0
  0
LINE
  5
A79F
  8
0
 10
55.05267208056148
 20
232.393494343988
 30
0.0
 11
54.8793517680615
 21
232.4069416096135
 31
0.0
  0
LINE
  5
A7A0
  8
0
 10
54.8793517680615
 20
232.4069416096135
 30
0.0
 11
54.81255489306113
 21
231.9892853596133
 31
0.0
  0
LINE
  5
A7A1
  8
0
 10
54.81255489306113
 20
231.9892853596133
 30
0.0
 11
54.97146114306133
 21
231.954568562738
 31
0.0
  0
LINE
  5
A7A2
  8
0
 10
55.01813106493637
 20
232.1373810627382
 30
0.0
 11
55.05267208056148
 21
232.393494343988
 31
0.0
  0
LINE
  5
A7A3
  8
0
 10
54.92602168993653
 20
231.7503986408637
 30
0.0
 11
54.91406856493631
 21
231.5970295002384
 31
0.0
  0
ARC
  5
A7A4
  8
0
 10
55.43399971825424
 20
231.5431223292856
 30
0.0
 40
0.725320742221686
 50
82.73839553073087
 51
124.9847424284259
  0
ARC
  5
A7A5
  8
0
 10
55.51424843690595
 20
231.9691595461943
 30
0.0
 40
0.2936885684487056
 50
25.47750666320868
 51
87.76921556057754
  0
ARC
  5
A7A6
  8
0
 10
55.44638886227668
 20
231.9625861200396
 30
0.0
 40
0.3585317338785675
 50
321.3543299701645
 51
21.75842031571825
  0
ARC
  5
A7A7
  8
0
 10
55.37076651704883
 20
232.0944522268415
 30
0.0
 40
0.5030455772132802
 50
274.9636499740987
 51
314.989839151749
  0
ARC
  5
A7A8
  8
0
 10
55.17878747626947
 20
233.5507961891937
 30
0.0
 40
1.971618719957279
 50
262.2838934043664
 51
276.8602022226234
  0
ARC
  5
A7A9
  8
0
 10
55.23959338752316
 20
234.4587422115922
 30
0.0
 40
2.726435788097946
 50
263.3957068302936
 51
271.0732963894559
  0
ARC
  5
A7AA
  8
0
 10
55.29777609091045
 20
232.1218444150425
 30
0.0
 40
0.3891246493399197
 50
268.9526659567916
 51
311.9026700510424
  0
ARC
  5
A7AB
  8
0
 10
55.42184816720466
 20
231.9532990527725
 30
0.0
 40
0.1819431806139916
 50
318.2838146029565
 51
32.76134975180928
  0
ARC
  5
A7AC
  8
0
 10
55.42043164783957
 20
231.9029170411504
 30
0.0
 40
0.2144715613892272
 50
43.94597849543317
 51
93.25534829104993
  0
ARC
  5
A7AD
  8
0
 10
55.39829567840501
 20
231.5990274728399
 30
0.0
 40
0.518110737832
 50
88.89882867160388
 51
112.7433476052045
  0
ARC
  5
A7AE
  8
0
 10
55.64190501428747
 20
230.9835419925865
 30
0.0
 40
1.179994739142887
 50
112.0984440204114
 51
124.6230820154886
  0
ARC
  5
A7AF
  8
0
 10
55.63247403871698
 20
237.6401823931393
 30
0.0
 40
5.019842758098118
 50
262.7550085222148
 51
270.023215555127
  0
ARC
  5
A7B0
  8
0
 10
55.63385476779281
 20
237.8105340992696
 30
0.0
 40
5.341014404604963
 50
262.9765318468749
 51
270.0070077480808
  0
LINE
  5
A7B1
  8
0
 10
56.20025997118637
 20
232.0559943439884
 30
0.0
 11
56.20025997118637
 21
232.6563752033634
 31
0.0
  0
LINE
  5
A7B2
  8
0
 10
56.20025997118637
 20
232.6563752033634
 30
0.0
 11
56.38702754931137
 21
232.6563752033634
 31
0.0
  0
LINE
  5
A7B3
  8
0
 10
56.38702754931137
 20
232.6563752033634
 30
0.0
 11
56.38702754931137
 21
232.0559943439884
 31
0.0
  0
LINE
  5
A7B4
  8
0
 10
56.38702754931137
 20
232.0559943439884
 30
0.0
 11
56.20025997118637
 21
232.0559943439884
 31
0.0
  0
LINE
  5
A7B5
  8
0
 10
56.87130489306173
 20
232.2868830158631
 30
0.0
 11
56.87130489306173
 21
232.6563752033634
 31
0.0
  0
LINE
  5
A7B6
  8
0
 10
56.87130489306173
 20
232.6563752033634
 30
0.0
 11
57.06220333056126
 21
232.6563752033634
 31
0.0
  0
LINE
  5
A7B7
  8
0
 10
57.06220333056126
 20
232.6563752033634
 30
0.0
 11
57.06220333056126
 21
232.2908380939884
 31
0.0
  0
LINE
  5
A7B8
  8
0
 10
56.36567012743626
 20
231.5663556721132
 30
0.0
 11
56.32831661181126
 21
231.730447468988
 31
0.0
  0
LINE
  5
A7B9
  8
0
 10
57.76128536181113
 20
231.9304865314884
 30
0.0
 11
57.76128536181113
 21
232.0733087971134
 31
0.0
  0
LINE
  5
A7BA
  8
0
 10
57.76128536181113
 20
232.0733087971134
 30
0.0
 11
57.39179317431126
 21
232.0733087971134
 31
0.0
  0
LINE
  5
A7BB
  8
0
 10
57.39179317431126
 20
232.0733087971134
 30
0.0
 11
57.39179317431126
 21
232.2334455158633
 31
0.0
  0
LINE
  5
A7BC
  8
0
 10
57.39179317431126
 20
232.2334455158633
 30
0.0
 11
57.76128536181113
 21
232.2334455158633
 31
0.0
  0
LINE
  5
A7BD
  8
0
 10
57.76128536181113
 20
232.2334455158633
 30
0.0
 11
57.76128536181113
 21
232.4695197346136
 31
0.0
  0
LINE
  5
A7BE
  8
0
 10
57.76128536181113
 20
232.4695197346136
 30
0.0
 11
57.50772090868622
 21
232.4695197346136
 31
0.0
  0
LINE
  5
A7BF
  8
0
 10
57.50772090868622
 20
232.4695197346136
 30
0.0
 11
57.50772090868622
 21
232.6337873127385
 31
0.0
  0
LINE
  5
A7C0
  8
0
 10
57.50772090868622
 20
232.6337873127385
 30
0.0
 11
58.42310176806131
 21
232.6337873127385
 31
0.0
  0
LINE
  5
A7C1
  8
0
 10
58.42310176806131
 20
232.6337873127385
 30
0.0
 11
58.42310176806131
 21
232.4695197346136
 31
0.0
  0
LINE
  5
A7C2
  8
0
 10
58.42310176806131
 20
232.4695197346136
 30
0.0
 11
57.95613887743639
 21
232.4695197346136
 31
0.0
  0
LINE
  5
A7C3
  8
0
 10
57.95613887743639
 20
232.4695197346136
 30
0.0
 11
57.95613887743639
 21
232.2334455158633
 31
0.0
  0
LINE
  5
A7C4
  8
0
 10
57.95613887743639
 20
232.2334455158633
 30
0.0
 11
58.53920528368644
 21
232.2334455158633
 31
0.0
  0
LINE
  5
A7C5
  8
0
 10
58.53920528368644
 20
232.2334455158633
 30
0.0
 11
58.53920528368644
 21
232.0733087971134
 31
0.0
  0
LINE
  5
A7C6
  8
0
 10
58.53920528368644
 20
232.0733087971134
 30
0.0
 11
57.95613887743639
 21
232.0733087971134
 31
0.0
  0
LINE
  5
A7C7
  8
0
 10
57.95613887743639
 20
232.0733087971134
 30
0.0
 11
57.95613887743639
 21
231.9358478596131
 31
0.0
  0
LINE
  5
A7C8
  8
0
 10
58.43646114306148
 20
231.7757111408636
 30
0.0
 11
58.44173458056139
 21
231.6103888752386
 31
0.0
  0
ARC
  5
A7C9
  8
0
 10
56.06603300268429
 20
232.2696609479497
 30
0.0
 40
0.8054560304915982
 50
340.9437882329723
 51
1.225178000018496
  0
ARC
  5
A7CA
  8
0
 10
56.50331369974418
 20
232.1275839226183
 30
0.0
 40
0.345855307889423
 50
291.670576553406
 51
339.5389467977661
  0
ARC
  5
A7CB
  8
0
 10
56.22617633258466
 20
232.7816549279292
 30
0.0
 40
1.056158017710445
 50
275.5497072742328
 51
292.5397602820191
  0
ARC
  5
A7CC
  8
0
 10
56.29352495102288
 20
232.6144564293262
 30
0.0
 40
1.050580850648829
 50
273.9376978144313
 51
296.3652409231708
  0
ARC
  5
A7CD
  8
0
 10
56.50691325681837
 20
232.1494255982352
 30
0.0
 40
0.5393756653461665
 50
297.9933108679138
 51
349.2973959047167
  0
ARC
  5
A7CE
  8
0
 10
56.01234402685574
 20
232.2786596305368
 30
0.0
 40
1.049929936971548
 50
347.3794742886816
 51
0.6646064465848662
  0
ARC
  5
A7CF
  8
0
 10
58.25061254406245
 20
231.9008968154141
 30
0.0
 40
0.4902210140205808
 50
176.5395261482863
 51
206.0121964930288
  0
ARC
  5
A7D0
  8
0
 10
57.99301301416079
 20
231.8380190520944
 30
0.0
 40
0.2379373016522034
 50
219.7400975832281
 51
273.8636407009146
  0
ARC
  5
A7D1
  8
0
 10
58.14657881403456
 20
235.0971672917798
 30
0.0
 40
3.499248583992225
 50
267.747489334722
 51
274.8385522250587
  0
ARC
  5
A7D2
  8
0
 10
58.13313627712591
 20
235.2947706773213
 30
0.0
 40
3.532107868600457
 50
269.5594493554569
 51
274.926425743971
  0
ARC
  5
A7D3
  8
0
 10
58.10685295089337
 20
232.0980338163645
 30
0.0
 40
0.3352677379612373
 50
252.6101303751348
 51
269.8504673977251
  0
ARC
  5
A7D4
  8
0
 10
58.03117260889041
 20
231.838880239266
 30
0.0
 40
0.0655496828836007
 50
188.1794661638693
 51
248.0315991587105
  0
ARC
  5
A7D5
  8
0
 10
58.41283809890551
 20
231.925830356388
 30
0.0
 40
0.4568090730928223
 50
178.7434429434794
 51
192.1667740459287
  0
LINE
  5
A7D6
  8
0
 10
58.74864864306164
 20
232.0372736408634
 30
0.0
 11
58.74864864306164
 21
232.216043172113
 31
0.0
  0
LINE
  5
A7D7
  8
0
 10
58.74864864306164
 20
232.216043172113
 30
0.0
 11
59.85070918993642
 21
232.216043172113
 31
0.0
  0
LINE
  5
A7D8
  8
0
 10
59.85070918993642
 20
232.216043172113
 30
0.0
 11
59.85070918993642
 21
232.0372736408634
 31
0.0
  0
LINE
  5
A7D9
  8
0
 10
59.85070918993642
 20
232.0372736408634
 30
0.0
 11
58.74864864306164
 21
232.0372736408634
 31
0.0
  0
LINE
  5
A7DA
  8
0
 10
60.45645137743622
 20
232.1213849689883
 30
0.0
 11
60.45645137743622
 21
231.5756720783633
 31
0.0
  0
LINE
  5
A7DB
  8
0
 10
60.45645137743622
 20
231.5756720783633
 30
0.0
 11
60.26968379931122
 21
231.5756720783633
 31
0.0
  0
LINE
  5
A7DC
  8
0
 10
60.26968379931122
 20
231.5756720783633
 30
0.0
 11
60.26968379931122
 21
232.6778205158634
 31
0.0
  0
LINE
  5
A7DD
  8
0
 10
60.26968379931122
 20
232.6778205158634
 30
0.0
 11
60.45645137743622
 21
232.6778205158634
 31
0.0
  0
LINE
  5
A7DE
  8
0
 10
60.45645137743622
 20
232.6778205158634
 30
0.0
 11
60.45645137743622
 21
232.3041095783637
 31
0.0
  0
LINE
  5
A7DF
  8
0
 10
61.18225215868642
 20
232.0813068439883
 30
0.0
 11
61.12626583056181
 21
231.9132599689882
 31
0.0
  0
ARC
  5
A7E0
  8
0
 10
58.86105535365106
 20
225.8133741716578
 30
0.0
 40
6.683931073296139
 50
69.67895110286437
 51
76.19068882595862
  0
ARC
  5
A7E1
  8
0
 10
58.91330410086649
 20
225.9731276343797
 30
0.0
 40
6.338956678330691
 50
69.56741481783094
 51
75.9104163881585
  0
LINE
  5
A7E2
  8
0
 10
61.52379512743664
 20
231.730447468988
 30
0.0
 11
61.52379512743664
 21
231.9065802814884
 31
0.0
  0
LINE
  5
A7E3
  8
0
 10
61.52379512743664
 20
231.9065802814884
 30
0.0
 11
61.41850215868681
 21
231.8839045002386
 31
0.0
  0
LINE
  5
A7E4
  8
0
 10
61.41850215868681
 20
231.8839045002386
 30
0.0
 11
61.40646114306173
 21
232.0399103596136
 31
0.0
  0
LINE
  5
A7E5
  8
0
 10
61.40646114306173
 20
232.0399103596136
 30
0.0
 11
61.52379512743664
 21
232.0639923908633
 31
0.0
  0
LINE
  5
A7E6
  8
0
 10
61.52379512743664
 20
232.0639923908633
 30
0.0
 11
61.52379512743664
 21
232.3535920002386
 31
0.0
  0
LINE
  5
A7E7
  8
0
 10
61.52379512743664
 20
232.3535920002386
 30
0.0
 11
61.40786739306122
 21
232.3535920002386
 31
0.0
  0
LINE
  5
A7E8
  8
0
 10
61.40786739306122
 20
232.3535920002386
 30
0.0
 11
61.40786739306122
 21
232.5002814533636
 31
0.0
  0
LINE
  5
A7E9
  8
0
 10
61.40786739306122
 20
232.5002814533636
 30
0.0
 11
61.52379512743664
 21
232.5002814533636
 31
0.0
  0
LINE
  5
A7EA
  8
0
 10
61.52379512743664
 20
232.5002814533636
 30
0.0
 11
61.52379512743664
 21
232.7310822346134
 31
0.0
  0
LINE
  5
A7EB
  8
0
 10
61.52379512743664
 20
232.7310822346134
 30
0.0
 11
61.69201778368642
 21
232.7310822346134
 31
0.0
  0
LINE
  5
A7EC
  8
0
 10
61.69201778368642
 20
232.7310822346134
 30
0.0
 11
61.69201778368642
 21
232.5002814533636
 31
0.0
  0
LINE
  5
A7ED
  8
0
 10
61.69201778368642
 20
232.5002814533636
 30
0.0
 11
61.80407833056142
 21
232.5002814533636
 31
0.0
  0
LINE
  5
A7EE
  8
0
 10
61.80407833056142
 20
232.5002814533636
 30
0.0
 11
61.80407833056142
 21
232.3695880939885
 31
0.0
  0
LINE
  5
A7EF
  8
0
 10
61.80407833056142
 20
232.3695880939885
 30
0.0
 11
62.19237911181153
 21
232.3695880939885
 31
0.0
  0
LINE
  5
A7F0
  8
0
 10
62.19237911181153
 20
232.3695880939885
 30
0.0
 11
62.19237911181153
 21
232.0866681721135
 31
0.0
  0
LINE
  5
A7F1
  8
0
 10
62.19237911181153
 20
232.0866681721135
 30
0.0
 11
62.23236934618626
 21
232.0866681721135
 31
0.0
  0
LINE
  5
A7F2
  8
0
 10
62.23236934618626
 20
232.0866681721135
 30
0.0
 11
62.23236934618626
 21
232.3695880939885
 31
0.0
  0
LINE
  5
A7F3
  8
0
 10
62.23236934618626
 20
232.3695880939885
 30
0.0
 11
62.63525997118631
 21
232.3695880939885
 31
0.0
  0
LINE
  5
A7F4
  8
0
 10
62.63525997118631
 20
232.3695880939885
 30
0.0
 11
62.63525997118631
 21
232.0532697346133
 31
0.0
  0
LINE
  5
A7F5
  8
0
 10
62.63525997118631
 20
232.0532697346133
 30
0.0
 11
62.29644161181113
 21
232.0532697346133
 31
0.0
  0
LINE
  5
A7F6
  8
0
 10
62.29644161181113
 20
232.0532697346133
 30
0.0
 11
62.29644161181113
 21
232.0039630939881
 31
0.0
  0
LINE
  5
A7F7
  8
0
 10
62.29644161181113
 20
232.0039630939881
 30
0.0
 11
62.65793575243652
 21
232.0039630939881
 31
0.0
  0
LINE
  5
A7F8
  8
0
 10
62.65793575243652
 20
232.0039630939881
 30
0.0
 11
62.65793575243652
 21
231.8665021564883
 31
0.0
  0
LINE
  5
A7F9
  8
0
 10
62.65793575243652
 20
231.8665021564883
 30
0.0
 11
62.38986934618652
 21
231.8665021564883
 31
0.0
  0
LINE
  5
A7FA
  8
0
 10
62.03224239306155
 20
231.8665021564883
 30
0.0
 11
61.75872676806148
 21
231.8665021564883
 31
0.0
  0
LINE
  5
A7FB
  8
0
 10
61.75872676806148
 20
231.8665021564883
 30
0.0
 11
61.75872676806148
 21
231.9745197346137
 31
0.0
  0
LINE
  5
A7FC
  8
0
 10
61.75872676806148
 20
231.9745197346137
 30
0.0
 11
61.69201778368642
 21
231.9532502033634
 31
0.0
  0
LINE
  5
A7FD
  8
0
 10
61.69201778368642
 20
231.9532502033634
 30
0.0
 11
61.69201778368642
 21
231.7437189533634
 31
0.0
  0
LINE
  5
A7FE
  8
0
 10
61.72005489306139
 20
231.6797345783633
 30
0.0
 11
61.79608028368648
 21
231.5449103596133
 31
0.0
  0
LINE
  5
A7FF
  8
0
 10
62.1230334086863
 20
231.7784357502386
 30
0.0
 11
62.1230334086863
 21
231.5289142658634
 31
0.0
  0
LINE
  5
A800
  8
0
 10
62.1230334086863
 20
231.5289142658634
 30
0.0
 11
62.29644161181113
 21
231.5289142658634
 31
0.0
  0
LINE
  5
A801
  8
0
 10
62.29644161181113
 20
231.5289142658634
 30
0.0
 11
62.29644161181113
 21
231.7811603596137
 31
0.0
  0
LINE
  5
A802
  8
0
 10
62.67929317431162
 20
231.6797345783633
 30
0.0
 11
62.59931270556126
 21
231.5449103596133
 31
0.0
  0
LINE
  5
A803
  8
0
 10
61.8681505961863
 20
232.7177228596132
 30
0.0
 11
62.57531856493642
 21
232.7177228596132
 31
0.0
  0
LINE
  5
A804
  8
0
 10
62.57531856493642
 20
232.7177228596132
 30
0.0
 11
62.57531856493642
 21
232.4055353596131
 31
0.0
  0
LINE
  5
A805
  8
0
 10
62.57531856493642
 20
232.4055353596131
 30
0.0
 11
61.8681505961863
 21
232.4055353596131
 31
0.0
  0
LINE
  5
A806
  8
0
 10
61.8681505961863
 20
232.4055353596131
 30
0.0
 11
61.8681505961863
 21
232.7177228596132
 31
0.0
  0
LINE
  5
A807
  8
0
 10
62.03083614306161
 20
232.582986531488
 30
0.0
 11
62.03083614306161
 21
232.5242755939884
 31
0.0
  0
LINE
  5
A808
  8
0
 10
62.03083614306161
 20
232.5242755939884
 30
0.0
 11
62.40577754931155
 21
232.5242755939884
 31
0.0
  0
LINE
  5
A809
  8
0
 10
62.40577754931155
 20
232.5242755939884
 30
0.0
 11
62.40577754931155
 21
232.582986531488
 31
0.0
  0
LINE
  5
A80A
  8
0
 10
62.40577754931155
 20
232.582986531488
 30
0.0
 11
62.03083614306161
 21
232.582986531488
 31
0.0
  0
LINE
  5
A80B
  8
0
 10
61.69201778368642
 20
232.1080255939886
 30
0.0
 11
61.69201778368642
 21
232.3535920002386
 31
0.0
  0
LINE
  5
A80C
  8
0
 10
61.69201778368642
 20
232.3535920002386
 30
0.0
 11
61.79071895556126
 21
232.3535920002386
 31
0.0
  0
LINE
  5
A80D
  8
0
 10
61.79071895556126
 20
232.3535920002386
 30
0.0
 11
61.79071895556126
 21
232.1400177814884
 31
0.0
  0
LINE
  5
A80E
  8
0
 10
61.79071895556126
 20
232.1400177814884
 30
0.0
 11
61.69201778370252
 21
232.1080255939937
 31
0.0
  0
LINE
  5
A80F
  8
0
 10
62.1230334086863
 20
232.0039630939881
 30
0.0
 11
61.80548458056137
 21
232.0039630939881
 31
0.0
  0
LINE
  5
A810
  8
0
 10
61.80548458056137
 20
232.0039630939881
 30
0.0
 11
61.80275997118633
 21
232.0532697346133
 31
0.0
  0
LINE
  5
A811
  8
0
 10
61.80275997118633
 20
232.0532697346133
 30
0.0
 11
62.1230334086863
 21
232.0532697346133
 31
0.0
  0
LINE
  5
A812
  8
0
 10
62.1230334086863
 20
232.0532697346133
 30
0.0
 11
62.1230334086863
 21
232.0039630939881
 31
0.0
  0
LINE
  5
A813
  8
0
 10
62.05351192431135
 20
232.1734162189886
 30
0.0
 11
61.93617793993644
 21
232.1734162189886
 31
0.0
  0
LINE
  5
A814
  8
0
 10
61.93617793993644
 20
232.1734162189886
 30
0.0
 11
61.93617793993644
 21
232.2453986408636
 31
0.0
  0
LINE
  5
A815
  8
0
 10
61.93617793993644
 20
232.2453986408636
 30
0.0
 11
62.05351192431135
 21
232.2453986408636
 31
0.0
  0
LINE
  5
A816
  8
0
 10
62.05351192431135
 20
232.2453986408636
 30
0.0
 11
62.05351192431135
 21
232.1734162189886
 31
0.0
  0
LINE
  5
A817
  8
0
 10
62.36842403368655
 20
232.1734162189886
 30
0.0
 11
62.36842403368655
 21
232.2453986408636
 31
0.0
  0
LINE
  5
A818
  8
0
 10
62.36842403368655
 20
232.2453986408636
 30
0.0
 11
62.48452754931122
 21
232.2453986408636
 31
0.0
  0
LINE
  5
A819
  8
0
 10
62.48452754931122
 20
232.2453986408636
 30
0.0
 11
62.48452754931122
 21
232.1734162189886
 31
0.0
  0
LINE
  5
A81A
  8
0
 10
62.48452754931122
 20
232.1734162189886
 30
0.0
 11
62.36842403368655
 21
232.1734162189886
 31
0.0
  0
LINE
  5
A81B
  8
0
 10
61.41314083056113
 20
231.6757795002385
 30
0.0
 11
61.42122676806139
 21
231.5329572346135
 31
0.0
  0
ARC
  5
A81C
  8
0
 10
61.62535261721457
 20
233.9382258582087
 30
0.0
 40
2.272377029695415
 50
264.6414777738622
 51
266.9348152461827
  0
ARC
  5
A81D
  8
0
 10
61.50617972700464
 20
231.6914545920973
 30
0.0
 40
0.022476476334337
 50
264.03501221812
 51
306.5640674473047
  0
ARC
  5
A81E
  8
0
 10
61.50749320566494
 20
231.6820250596181
 30
0.0
 40
0.014839073681366
 50
324.4701988857918
 51
4.421974038740647
  0
ARC
  5
A81F
  8
0
 10
61.01692946217358
 20
231.7229409086975
 30
0.0
 40
0.5069212474043316
 50
355.5000960438273
 51
0.8484748777902161
  0
ARC
  5
A820
  8
0
 10
61.63483598799701
 20
234.066657672608
 30
0.0
 40
2.542688893344043
 50
265.1809484774698
 51
267.5208014624529
  0
ARC
  5
A821
  8
0
 10
61.53231194556473
 20
232.2737689070645
 30
0.0
 40
0.7474574208886295
 50
269.4278258300276
 51
274.7828769779775
  0
ARC
  5
A822
  8
0
 10
61.58194420662668
 20
231.6700955668772
 30
0.0
 40
0.1417505388387061
 50
275.1365035074422
 51
297.894765149848
  0
ARC
  5
A823
  8
0
 10
61.61222055856106
 20
231.6042063668823
 30
0.0
 40
0.0694715375261978
 50
301.2514755256504
 51
351.3397225057918
  0
ARC
  5
A824
  8
0
 10
61.37097983889954
 20
231.6740162292269
 30
0.0
 40
0.3201466567477245
 50
345.4792488797654
 51
359.0668339659391
  0
ARC
  5
A825
  8
0
 10
59.49868979905703
 20
231.7335920592676
 30
0.0
 40
2.193351363129598
 50
358.3072842196231
 51
0.2645405394391241
  0
ARC
  5
A826
  8
0
 10
61.25338018083364
 20
232.814094168779
 30
0.0
 40
1.226603834737866
 50
292.3622304129851
 51
309.4180965652807
  0
ARC
  5
A827
  8
0
 10
61.17970216562057
 20
232.7535283096016
 30
0.0
 40
1.356716379153855
 50
297.0209406626466
 51
314.0515009572343
  0
ARC
  5
A828
  8
0
 10
63.25416393633061
 20
232.6966902092384
 30
0.0
 40
1.324925264474462
 50
223.7097081622024
 51
240.3793491799922
  0
ARC
  5
A829
  8
0
 10
63.27546236360382
 20
232.9212225901779
 30
0.0
 40
1.377211017143197
 50
229.981595629291
 51
244.349432299083
  0
LINE
  5
A82A
  8
0
 10
63.23968379931148
 20
232.7044513752384
 30
0.0
 11
63.07559200243622
 21
232.7364435627386
 31
0.0
  0
LINE
  5
A82B
  8
0
 10
62.80075801806152
 20
232.1520587971135
 30
0.0
 11
62.87019161181115
 21
231.973289265863
 31
0.0
  0
LINE
  5
A82C
  8
0
 10
62.96616817431141
 20
232.1026642658634
 30
0.0
 11
62.96616817431141
 21
231.5223224689884
 31
0.0
  0
LINE
  5
A82D
  8
0
 10
62.96616817431141
 20
231.5223224689884
 30
0.0
 11
63.14502559618631
 21
231.5223224689884
 31
0.0
  0
LINE
  5
A82E
  8
0
 10
63.14502559618631
 20
231.5223224689884
 30
0.0
 11
63.14502559618631
 21
232.3882209064886
 31
0.0
  0
LINE
  5
A82F
  8
0
 10
63.15829708056162
 20
232.2187677814881
 30
0.0
 11
63.29980098681153
 21
232.1107502033637
 31
0.0
  0
LINE
  5
A830
  8
0
 10
63.5065197368117
 20
232.4736505939881
 30
0.0
 11
63.5065197368117
 21
231.5223224689884
 31
0.0
  0
LINE
  5
A831
  8
0
 10
63.5065197368117
 20
231.5223224689884
 30
0.0
 11
63.68933223681142
 21
231.5223224689884
 31
0.0
  0
LINE
  5
A832
  8
0
 10
63.68933223681142
 20
231.5223224689884
 30
0.0
 11
63.68933223681142
 21
231.7837970783634
 31
0.0
  0
LINE
  5
A833
  8
0
 10
63.68933223681142
 20
231.7837970783634
 30
0.0
 11
64.0228771586867
 21
231.7837970783634
 31
0.0
  0
LINE
  5
A834
  8
0
 10
64.0228771586867
 20
231.7837970783634
 30
0.0
 11
64.0228771586867
 21
231.9358478596131
 31
0.0
  0
LINE
  5
A835
  8
0
 10
64.0228771586867
 20
231.9358478596131
 30
0.0
 11
63.68933223681142
 21
231.9358478596131
 31
0.0
  0
LINE
  5
A836
  8
0
 10
63.68933223681142
 20
231.9358478596131
 30
0.0
 11
63.68933223681142
 21
232.1334259846134
 31
0.0
  0
LINE
  5
A837
  8
0
 10
63.68933223681142
 20
232.1334259846134
 30
0.0
 11
64.0228771586867
 21
232.1334259846134
 31
0.0
  0
LINE
  5
A838
  8
0
 10
64.0228771586867
 20
232.1334259846134
 30
0.0
 11
64.0228771586867
 21
232.2801154377384
 31
0.0
  0
LINE
  5
A839
  8
0
 10
64.0228771586867
 20
232.2801154377384
 30
0.0
 11
63.68933223681142
 21
232.2801154377384
 31
0.0
  0
LINE
  5
A83A
  8
0
 10
63.68933223681142
 20
232.2801154377384
 30
0.0
 11
63.68933223681142
 21
232.4736505939881
 31
0.0
  0
LINE
  5
A83B
  8
0
 10
63.68933223681142
 20
232.4736505939881
 30
0.0
 11
64.06295528368673
 21
232.4736505939881
 31
0.0
  0
LINE
  5
A83C
  8
0
 10
64.06295528368673
 20
232.4736505939881
 30
0.0
 11
64.06295528368673
 21
232.620340047113
 31
0.0
  0
LINE
  5
A83D
  8
0
 10
64.06295528368673
 20
232.620340047113
 30
0.0
 11
63.54527950243664
 21
232.620340047113
 31
0.0
  0
LINE
  5
A83E
  8
0
 10
63.57604122118664
 20
232.716492390863
 30
0.0
 11
63.40650020556131
 21
232.751121297113
 31
0.0
  0
ARC
  5
A83F
  8
0
 10
61.59772252786777
 20
233.042333138205
 30
0.0
 40
1.509194028694409
 50
335.5457096686311
 51
348.3060403035889
  0
ARC
  5
A840
  8
0
 10
61.88909118811161
 20
232.9260864202264
 30
0.0
 40
1.195932761560066
 50
319.6679218269052
 51
334.8367065032426
  0
ARC
  5
A841
  8
0
 10
62.10095993385134
 20
232.6442296159472
 30
0.0
 40
1.020724413232922
 50
318.9043658670693
 51
327.9560510819899
  0
ARC
  5
A842
  8
0
 10
61.96384773900751
 20
232.914068768592
 30
0.0
 40
1.292941260989209
 50
336.0018785125659
 51
350.6697714262836
  0
ARC
  5
A843
  8
0
 10
61.43628519640504
 20
233.3456716935604
 30
0.0
 40
2.057969231116068
 50
326.7988139724891
 51
343.207798180194
  0
ARC
  5
A844
  8
0
 10
61.22811460479021
 20
233.4228778709789
 30
0.0
 40
2.452256813952018
 50
327.6513795623706
 51
337.2268745923164
  0
LINE
  5
A845
  8
0
 10
63.48920528368626
 20
232.4736505939881
 30
0.0
 11
63.5065197368117
 21
232.4736505939881
 31
0.0
  0
LINE
  5
A846
  8
0
 10
63.57604122118664
 20
232.716492390863
 30
0.0
 11
63.56090449122625
 21
232.6679138942758
 31
0.0
  0
LINE
  5
A847
  8
0
 10
63.56090449122625
 20
232.6679138942758
 30
0.0
 11
63.54527950243664
 21
232.620340047113
 31
0.0
  0
VIEWPORT
  5
22
 67
     1
  8
0
 10
5.269134197284911
 20
5.545311567251436
 30
0.0
 40
11.13808705479925
 41
12.32365374410561
 68
     1
 69
     1
1001
GENIUS_GENSCREG_15
1000
PF
1040
1.0
1000
DF
1040
1.0
1000
MIN
1011
-0.2999093301147138
1021
-0.6165153048013714
1031
0.0
1021
-0.6165153048013714
1031
0.0
1000
MAX
1011
10.83817772468454
1021
11.70713843930424
1031
0.0
1021
11.70713843930424
1031
0.0
1000
FLAGS
1070
     4
1001
GENIUS_GENODEF_13
1002
{
1000
HIER
1070
     0
1002
}
1002
{
1000
MANEDIT
1070
     0
1002
}
1002
{
1000
NOSEL
1070
     0
1002
}
1002
{
1000
BEHIND
1070
     0
1002
}
1002
{
1000
OTHER
1070
     0
1002
}
1002
{
1000
REACTOR
1002
}
1001
GENIUS_GENOBJ-N-SDF_13
1002
{
1000
OWNER
1000
GEN
1002
}
1001
ACAD
1000
MVIEW
1002
{
1070
    16
1010
0.0
1020
0.0
1030
0.0
1020
0.0
1030
0.0
1010
0.0
1020
0.0
1030
1.0
1020
0.0
1030
1.0
1040
0.0
1040
12.32365374410561
1040
5.269134197284911
1040
5.545311567251436
1040
50.0
1040
0.0
1040
0.0
1070
     0
1070
   100
1070
     0
1070
     1
1070
     0
1070
     0
1070
     0
1070
     0
1040
0.0
1040
0.0
1040
0.0
1040
1.0
1040
1.0
1040
10.0
1040
10.0
1070
     0
1002
{
1002
}
1002
}
  0
ENDSEC
  0
EOF
