  0
SECTION
  2
HEADER
  9
$ACADVER
  1
AC1009
  9
$DWGCODEPAGE
  3
ansi_932
  9
$INSBASE
 10
0.0
 20
0.0
 30
0.0
  9
$EXTMIN
 10
0.0
 20
0.0
 30
0.0
  9
$EXTMAX
 10
419.8643279164105
 20
375.3779330027892
 30
0.0
  9
$LIMMIN
 10
0.0
 20
0.0
  9
$LIMMAX
 10
420.0
 20
420.0
  9
$ORTHOMODE
 70
     0
  9
$REGENMODE
 70
     1
  9
$FILLMODE
 70
     1
  9
$QTEXTMODE
 70
     0
  9
$MIRRTEXT
 70
     0
  9
$DRAGMODE
 70
     2
  9
$LTSCALE
 40
10.0
  9
$OSMODE
 70
 15359
  9
$ATTMODE
 70
     1
  9
$TEXTSIZE
 40
3.5
  9
$TRACEWID
 40
1.0
  9
$TEXTSTYLE
  7
STANDARD
  9
$CLAYER
  8
0
  9
$CELTYPE
  6
BYLAYER
  9
$CECOLOR
 62
   256
  9
$DIMSCALE
 40
1.0
  9
$DIMASZ
 40
2.5
  9
$DIMEXO
 40
1.0
  9
$DIMDLI
 40
7.0
  9
$DIMRND
 40
0.0
  9
$DIMDLE
 40
0.0
  9
$DIMEXE
 40
1.0
  9
$DIMTP
 40
0.1
  9
$DIMTM
 40
0.1
  9
$DIMTXT
 40
3.0
  9
$DIMCEN
 40
0.0
  9
$DIMTSZ
 40
0.0
  9
$DIMTOL
 70
     0
  9
$DIMLIM
 70
     0
  9
$DIMTIH
 70
     0
  9
$DIMTOH
 70
     0
  9
$DIMSE1
 70
     0
  9
$DIMSE2
 70
     0
  9
$DIMTAD
 70
     3
  9
$DIMZIN
 70
     8
  9
$DIMBLK
  1
OPEN
  9
$DIMASO
 70
     1
  9
$DIMSHO
 70
     1
  9
$DIMPOST
  1

  9
$DIMAPOST
  1
"
  9
$DIMALT
 70
     0
  9
$DIMALTD
 70
     2
  9
$DIMALTF
 40
0.0393701
  9
$DIMLFAC
 40
1.0
  9
$DIMTOFL
 70
     1
  9
$DIMTVP
 40
0.0
  9
$DIMTIX
 70
     0
  9
$DIMSOXD
 70
     0
  9
$DIMSAH
 70
     0
  9
$DIMBLK1
  1

  9
$DIMBLK2
  1

  9
$DIMSTYLE
  2
AM_JIS
  9
$DIMCLRD
 70
   256
  9
$DIMCLRE
 70
   256
  9
$DIMCLRT
 70
     2
  9
$DIMTFAC
 40
0.71
  9
$DIMGAP
 40
1.0
  9
$LUNITS
 70
     2
  9
$LUPREC
 70
     2
  9
$SKETCHINC
 40
1.0
  9
$FILLETRAD
 40
2.5
  9
$AUNITS
 70
     0
  9
$AUPREC
 70
     0
  9
$MENU
  1
.
  9
$ELEVATION
 40
0.0
  9
$PELEVATION
 40
0.0
  9
$THICKNESS
 40
0.0
  9
$LIMCHECK
 70
     0
  9
$CHAMFERA
 40
2.5
  9
$CHAMFERB
 40
2.5
  9
$SKPOLY
 70
     1
  9
$TDCREATE
 40
2460208.723081539
  9
$TDUPDATE
 40
2460210.72893809
  9
$TDINDWG
 40
0.1285734144
  9
$TDUSRTIMER
 40
0.1284752199
  9
$USRTIMER
 70
     1
  9
$ANGBASE
 50
0.0
  9
$ANGDIR
 70
     0
  9
$PDMODE
 70
     0
  9
$PDSIZE
 40
0.0
  9
$PLINEWID
 40
0.0
  9
$COORDS
 70
     2
  9
$SPLFRAME
 70
     0
  9
$SPLINETYPE
 70
     6
  9
$SPLINESEGS
 70
     8
  9
$ATTDIA
 70
     1
  9
$ATTREQ
 70
     1
  9
$HANDLING
 70
     1
  9
$HANDSEED
  5
2A76
  9
$SURFTAB1
 70
     6
  9
$SURFTAB2
 70
     6
  9
$SURFTYPE
 70
     6
  9
$SURFU
 70
     6
  9
$SURFV
 70
     6
  9
$UCSNAME
  2

  9
$UCSORG
 10
0.0
 20
0.0
 30
0.0
  9
$UCSXDIR
 10
1.0
 20
0.0
 30
0.0
  9
$UCSYDIR
 10
0.0
 20
1.0
 30
0.0
  9
$PUCSNAME
  2

  9
$PUCSORG
 10
0.0
 20
0.0
 30
0.0
  9
$PUCSXDIR
 10
1.0
 20
0.0
 30
0.0
  9
$PUCSYDIR
 10
0.0
 20
1.0
 30
0.0
  9
$USERI1
 70
     0
  9
$USERI2
 70
     0
  9
$USERI3
 70
     0
  9
$USERI4
 70
     0
  9
$USERI5
 70
     0
  9
$USERR1
 40
0.0
  9
$USERR2
 40
0.0
  9
$USERR3
 40
0.0
  9
$USERR4
 40
0.0
  9
$USERR5
 40
0.0
  9
$WORLDVIEW
 70
     1
  9
$SHADEDGE
 70
     3
  9
$SHADEDIF
 70
    70
  9
$TILEMODE
 70
     1
  9
$MAXACTVP
 70
    48
  9
$PLIMCHECK
 70
     0
  9
$PEXTMIN
 10
1.000000000000000E+20
 20
1.000000000000000E+20
 30
1.000000000000000E+20
  9
$PEXTMAX
 10
-1.000000000000000E+20
 20
-1.000000000000000E+20
 30
-1.000000000000000E+20
  9
$PLIMMIN
 10
-0.2500002402958907
 20
-0.2499999962453767
  9
$PLIMMAX
 10
10.74999951940822
 20
8.249999763458732
  9
$UNITMODE
 70
     0
  9
$VISRETAIN
 70
     1
  9
$PLINEGEN
 70
     0
  9
$PSLTSCALE
 70
     1
  0
ENDSEC
  0
SECTION
  2
TABLES
  0
TABLE
  2
VPORT
 70
     1
  0
VPORT
  2
*ACTIVE
 70
     0
 10
0.0
 20
0.0
 11
1.0
 21
1.0
 12
209.9321639582054
 22
187.688966501394
 13
0.0
 23
0.0
 14
2.5
 24
2.5
 15
10.0
 25
10.0
 16
0.0
 26
0.0
 36
1.0
 17
0.0
 27
0.0
 37
0.0
 40
378.7559121524208
 41
2.295429208472687
 42
50.0
 43
0.0
 44
0.0
 50
0.0
 51
0.0
 71
     0
 72
   100
 73
     1
 74
     3
 75
     0
 76
     0
 77
     0
 78
     0
  0
ENDTAB
  0
TABLE
  2
LTYPE
 70
    14
  0
LTYPE
  2
CONTINUOUS
 70
     0
  3
Solid line
 72
    65
 73
     0
 40
0.0
  0
LTYPE
  2
PHANTOM2
 70
     0
  3
___ _ _ ___ _ _ ___ _ _ ___ _ _ ___ _ _ ___ _ _
 72
    65
 73
     6
 40
1.25
 49
0.625
 49
-0.125
 49
0.125
 49
-0.125
 49
0.125
 49
-0.125
  0
LTYPE
  2
ACJISTGB
 70
     0
  3
__ . . __ . .
 72
    65
 73
     6
 40
9.0
 49
4.0
 49
-1.0
 49
1.0
 49
-1.0
 49
1.0
 49
-1.0
  0
LTYPE
  2
ACJISTGL
 70
     0
  3
_ _ _ _ _
 72
    65
 73
     2
 40
3.0
 49
2.0
 49
-1.0
  0
LTYPE
  2
AM_ISO02W050
 70
     0
  3
__ __ __ __ __ __ __ __ __ __ __ __ __ __ __
 72
    65
 73
     2
 40
7.5
 49
6.0
 49
-1.5
  0
LTYPE
  2
AM_ISO08W050
 70
     0
  3
____ . ____ . ____ . ____ . ____ . ____ . ____
 72
    65
 73
     4
 40
18.0
 49
12.0
 49
-1.5
 49
3.0
 49
-1.5
  0
LTYPE
  2
AM_ISO09W050
 70
     0
  3
_____ . . _____ . . _____ . . ____ .. ____
 72
    65
 73
     6
 40
22.5
 49
12.0
 49
-1.5
 49
3.0
 49
-1.5
 49
3.0
 49
-1.5
  0
LTYPE
  2
AM_ISO02W050X2
 70
     0
  3
 _ _ _ _ _ _ _ _ _ _ _ _
 72
    65
 73
     2
 40
3.75
 49
3.0
 49
-0.75
  0
LTYPE
  2
AM_ISO08W050X2
 70
     0
  3
__ . __ . __ . __ . __ . __
 72
    65
 73
     4
 40
9.0
 49
6.0
 49
-0.75
 49
1.5
 49
-0.75
  0
LTYPE
  2
AMZIGZAG
 70
     0
  3
/\/-/\/-/\/-/\/-/\/-/\/
 72
    65
 73
     2
 40
11.0001
 49
0.0001
 49
-11.0
  0
LTYPE
  2
AMCONSTR
 70
     0
  3
_______________________
 72
    65
 73
     2
 40
9999.0
 49
9999.0
 49
0.0
  0
LTYPE
  2
CENTER2
 70
     0
  3
Center (.5x) ___ _ ___ _ ___ _ ___ _ ___ _ ___
 72
    65
 73
     4
 40
1.125
 49
0.75
 49
-0.125
 49
0.125
 49
-0.125
  0
LTYPE
  2
HIDDEN2
 70
     0
  3
Hidden (.5x) _ _ _ _ _ _ _ _ _ _ _ _ _ _ _ _ _
 72
    65
 73
     2
 40
0.1875
 49
0.125
 49
-0.0625
  0
LTYPE
  2
ACJISWELD
 70
     0
  3
_ _ _ _ _
 72
    65
 73
     2
 40
2.0
 49
2.0
 49
-1.0
  0
ENDTAB
  0
TABLE
  2
LAYER
 70
     4
  0
LAYER
  2
0
 70
     0
 62
     7
  6
CONTINUOUS
  0
LAYER
  2
7
 70
     0
 62
     4
  6
CENTER2
  0
LAYER
  2
AM_0
 70
     0
 62
     7
  6
CONTINUOUS
  0
LAYER
  2
10
 70
     0
 62
     2
  6
CONTINUOUS
  0
ENDTAB
  0
TABLE
  2
STYLE
 70
     4
  0
STYLE
  2
STANDARD
 70
     0
 40
0.0
 41
1.0
 50
0.0
 71
     0
 42
3.5
  3
isocp.shx
  4
extfont.shx
  0
STYLE
  2
ACJISTS
 70
     0
 40
1.0
 41
1.0
 50
0.0
 71
     0
 42
3.5
  3
isocp.shx
  4
extfont.shx
  0
STYLE
  2
ACJISGDT
 70
     0
 40
0.0
 41
1.0
 50
0.0
 71
     0
 42
3.5
  3
amgdt.shx
  4
extfont.shx
  0
STYLE
  2

 70
     1
 40
0.0
 41
1.0
 50
0.0
 71
     0
 42
3.5
  3
ltypeshp.shx
  4

  0
ENDTAB
  0
TABLE
  2
VIEW
 70
     3
  0
VIEW
  2
AMDTVIEW1
 70
     0
 40
329.0721649484536
 10
210.0
 20
164.5360824742268
 41
420.0
 11
0.0
 21
0.0
 31
1.0
 12
0.0
 22
0.0
 32
0.0
 42
50.0
 43
0.0
 44
0.0
 50
0.0
 71
     0
  0
VIEW
  2
AMDTVIEW2
 70
     0
 40
329.0721649484536
 10
210.0
 20
164.5360824742268
 41
420.0
 11
0.0
 21
0.0
 31
1.0
 12
0.0
 22
0.0
 32
0.0
 42
50.0
 43
0.0
 44
0.0
 50
0.0
 71
     0
  0
VIEW
  2
AMDTVIEW3
 70
     0
 40
329.0721649484536
 10
210.0
 20
164.5360824742268
 41
420.0
 11
0.0
 21
0.0
 31
1.0
 12
0.0
 22
0.0
 32
0.0
 42
50.0
 43
0.0
 44
0.0
 50
0.0
 71
     0
  0
ENDTAB
  0
TABLE
  2
UCS
 70
     0
  0
ENDTAB
  0
TABLE
  2
APPID
 70
    67
  0
APPID
  2
ACAD
 70
     0
  0
APPID
  2
AD_DRAW
 70
     0
  0
APPID
  2
DESIGNERASSEMBLIES
 70
     0
  0
APPID
  2
MCAD_NO_VIS
 70
     0
  0
APPID
  2
ASURF_PCURVE_APPNAME
 70
     0
  0
APPID
  2
ACAD_TEMP_GRAPHIC
 70
     0
  0
APPID
  2
ACATTRIBSERVICES
 70
     0
  0
APPID
  2
ACADM_DIM_EDIT
 70
     0
  0
APPID
  2
GENIUS_GENDIM_13
 70
     0
  0
APPID
  2
GENIUS_GENDTOL_13
 70
     0
  0
APPID
  2
GENIUS_GE3DTOL_13
 70
     0
  0
APPID
  2
AMG_3D2D_5_0
 70
     0
  0
APPID
  2
AMDT_DM_ADJ
 70
     0
  0
APPID
  2
ACAD_PSEXT
 70
     0
  0
APPID
  2
ACAD_DSTYLE_DIMTEXT_FILL
 70
     0
  0
APPID
  2
ACAECLAYERSTANDARD
 70
     0
  0
APPID
  2
GENIUS_GENREC_14
 70
     0
  0
APPID
  2
GENIUS_GENODEF_13
 70
     0
  0
APPID
  2
GENIUS_GENOBJ-N-REC_13
 70
     0
  0
APPID
  2
DCO15
 70
     0
  0
APPID
  2
ACAD_DSTYLE_DIMJAG
 70
     0
  0
APPID
  2
ACAD_DSTYLE_DIMTALN
 70
     0
  0
APPID
  2
ACAD_MLEADERVER
 70
     0
  0
APPID
  2
GENIUS_GENSCREG_15
 70
     0
  0
APPID
  2
GENIUS_GENOBJ-N-SDF_13
 70
     0
  0
APPID
  2
ACAD_NAV_VCDISPLAY
 70
     0
  0
APPID
  2
ACAD_EXEMPT_FROM_CAD_STAND
 70
     0
  0
APPID
  2
ACCMTRANSPARENCY
 70
     0
  0
APPID
  2
HC_SUPERPART
 70
     0
  0
APPID
  2
HC_SP4BLOCK
 70
     0
  0
APPID
  2
HC_XDATA_SPRING
 70
     0
  0
APPID
  2
HCCAD_FRAME
 70
     0
  0
APPID
  2
GENIUS_GENOLIS_13
 70
     0
  0
APPID
  2
GENIUS_GENOENT_13
 70
     0
  0
APPID
  2
GENIUS_GENOREF_13
 70
     0
  0
APPID
  2
GENIUS_GENOBJ-N-TIT_13
 70
     0
  0
APPID
  2
GENIUS_GENOBJ-N-ZOO_13
 70
     0
  0
APPID
  2
GENIUS_GENTITLE_13
 70
     0
  0
APPID
  2
GENIUS_GENSYMENT_13
 70
     0
  0
APPID
  2
GENIUS_GENSCSYM_13
 70
     0
  0
APPID
  2
GENIUS_GENOBJ-N-REV_13
 70
     0
  0
APPID
  2
GENIUS_GENOBJ-N-RSSYM_13
 70
     0
  0
APPID
  2
GENIUS_GENREV_15
 70
     0
  0
APPID
  2
HRA
 70
     0
  0
APPID
  2
HTIT
 70
     0
  0
APPID
  2
GENIUS_GENZOO_17
 70
     0
  0
APPID
  2
GENIUS_GENOBJ-N-CEN_13
 70
     0
  0
APPID
  2
GENIUS_GENCEN_19
 70
     0
  0
APPID
  2
GENIUS_GENOBJ-N-CRS_13
 70
     0
  0
APPID
  2
GENIUS_GENCRS_20
 70
     0
  0
APPID
  2
GENIUS_GENOBJ-N-CRC_13
 70
     0
  0
APPID
  2
GENIUS_GENCRC_14
 70
     0
  0
APPID
  2
GENIUS_GENFIL_13
 70
     0
  0
APPID
  2
GENIUS_GENOBJ-N-CHA_13
 70
     0
  0
APPID
  2
GENIUS_GENOBJ-N-FIL_13
 70
     0
  0
APPID
  2
GENIUS_GENHATCH_13
 70
     0
  0
APPID
  2
GENIUS_GENOBJ-N-HTC_13
 70
     0
  0
APPID
  2
GENIUS_GENOBJ-N-DIM_13
 70
     0
  0
APPID
  2
GENIUS_GENOBJ-N-DIMLI_13
 70
     0
  0
APPID
  2
GENIUS_GENOBJ-N-FITL_13
 70
     0
  0
APPID
  2
GENIUS_GENFITL_13
 70
     0
  0
APPID
  2
GENLAYCOLOR
 70
     0
  0
APPID
  2
ACAD_DSTYLE_DIMBREAK
 70
     0
  0
APPID
  2
ACADANNOTATIVE
 70
     0
  0
APPID
  2
ACADANNOPO
 70
     0
  0
APPID
  2
GRPNAME
 70
     0
  0
APPID
  2
PLOTTRANSPARENCY
 70
     0
  0
ENDTAB
  0
TABLE
  2
DIMSTYLE
 70
     8
  0
DIMSTYLE
  2
STANDARD
 70
     0
  3

  4

  5

  6

  7

 40
1.0
 41
2.5
 42
0.625
 43
3.75
 44
1.25
 45
0.0
 46
0.0
 47
0.0
 48
0.0
140
2.5
141
2.5
142
0.0
143
0.0394
144
1.0
145
0.0
146
1.0
147
0.625
 71
     0
 72
     0
 73
     0
 74
     0
 75
     0
 76
     0
 77
     1
 78
     8
170
     0
171
     4
172
     1
173
     0
174
     0
175
     0
176
     0
177
     0
178
     0
  0
DIMSTYLE
  2
ISO-25
 70
     0
  3

  4

  5

  6

  7

 40
1.0
 41
2.5
 42
0.625
 43
3.75
 44
1.25
 45
0.0
 46
0.0
 47
0.0
 48
0.0
140
2.5
141
2.5
142
0.0
143
0.0394
144
1.0
145
0.0
146
1.0
147
0.625
 71
     0
 72
     0
 73
     0
 74
     0
 75
     0
 76
     0
 77
     1
 78
     8
170
     0
171
     4
172
     1
173
     0
174
     0
175
     0
176
     0
177
     0
178
     0
  0
DIMSTYLE
  2
AM_JIS
 70
     0
  3

  4
"
  5
OPEN
  6

  7

 40
1.0
 41
2.5
 42
1.0
 43
7.0
 44
1.0
 45
0.0
 46
0.0
 47
0.1
 48
0.1
140
3.0
141
0.0
142
0.0
143
0.0393701
144
1.0
145
0.0
146
0.71
147
1.0
 71
     0
 72
     0
 73
     0
 74
     0
 75
     0
 76
     0
 77
     3
 78
     8
170
     0
171
     2
172
     1
173
     0
174
     0
175
     0
176
   256
177
   256
178
     2
  0
DIMSTYLE
  2
AM_JIS$3
 70
     0
  3

  4
"
  5
OPEN
  6

  7

 40
1.0
 41
2.5
 42
1.0
 43
10.0
 44
1.0
 45
0.0
 46
0.0
 47
0.1
 48
0.1
140
3.0
141
0.0
142
0.0
143
0.0393701
144
1.0
145
0.0
146
0.71
147
1.0
 71
     0
 72
     0
 73
     0
 74
     0
 75
     0
 76
     0
 77
     3
 78
     8
170
     0
171
     2
172
     1
173
     0
174
     0
175
     0
176
   256
177
   256
178
     2
  0
DIMSTYLE
  2
AM_JIS$4
 70
     0
  3

  4
"
  5

  6
OPEN30
  7
OPEN
 40
1.0
 41
2.5
 42
1.0
 43
10.0
 44
1.0
 45
0.0
 46
0.0
 47
0.1
 48
0.1
140
3.0
141
0.0
142
0.0
143
0.0393701
144
1.0
145
0.0
146
0.71
147
1.0
 71
     0
 72
     0
 73
     0
 74
     0
 75
     1
 76
     0
 77
     3
 78
     8
170
     0
171
     2
172
     1
173
     1
174
     0
175
     0
176
   256
177
   256
178
     2
  0
DIMSTYLE
  2
AM_JIS$6
 70
     0
  3

  4
"
  5
OPEN30
  6
OPEN30
  7
OPEN30
 40
1.0
 41
2.5
 42
1.0
 43
10.0
 44
1.0
 45
0.0
 46
0.0
 47
0.1
 48
0.1
140
3.5
141
0.0
142
0.0
143
0.0393701
144
1.0
145
0.0
146
0.71
147
1.5
 71
     0
 72
     0
 73
     0
 74
     0
 75
     0
 76
     0
 77
     0
 78
     8
170
     0
171
     2
172
     1
173
     0
174
     0
175
     0
176
   256
177
   256
178
     2
  0
DIMSTYLE
  2
AM_JIS$7
 70
     0
  3

  4
"
  5
OPEN30
  6

  7

 40
1.0
 41
2.5
 42
1.0
 43
10.0
 44
1.0
 45
0.0
 46
0.0
 47
0.1
 48
0.1
140
3.0
141
0.0
142
0.0
143
0.0393701
144
1.0
145
0.0
146
0.71
147
1.0
 71
     0
 72
     0
 73
     0
 74
     0
 75
     0
 76
     0
 77
     3
 78
     8
170
     0
171
     2
172
     1
173
     0
174
     0
175
     0
176
   256
177
   256
178
     2
  0
DIMSTYLE
  2
AM_JIS$0
 70
     0
  3

  4
"
  5
OPEN
  6

  7

 40
1.0
 41
2.5
 42
1.0
 43
7.0
 44
1.0
 45
0.0
 46
0.0
 47
0.1
 48
0.1
140
3.0
141
0.0
142
0.0
143
0.0393701
144
1.0
145
0.0
146
0.71
147
1.0
 71
     0
 72
     0
 73
     0
 74
     0
 75
     0
 76
     0
 77
     3
 78
     8
170
     0
171
     2
172
     1
173
     0
174
     0
175
     0
176
   256
177
   256
178
     2
  0
ENDTAB
  0
ENDSEC
  0
SECTION
  2
BLOCKS
  0
BLOCK
  8
0
  2
$MODEL_SPACE
 70
     0
 10
0.0
 20
0.0
 30
0.0
  3
$MODEL_SPACE
  1

  0
ENDBLK
  5
1C
  8
0
  0
BLOCK
 67
     1
  8
0
  2
$PAPER_SPACE
 70
     0
 10
0.0
 20
0.0
 30
0.0
  3
$PAPER_SPACE
  1

  0
ENDBLK
  5
19
 67
     1
  8
0
  0
BLOCK
  8
0
  2
_OPEN30
 70
     0
 10
0.0
 20
0.0
 30
0.0
  3
_OPEN30
  1

  0
LINE
  5
2EF
  8
0
  6
BYBLOCK
 62
     0
 10
-1.0
 20
0.26794919
 30
0.0
 11
0.0
 21
0.0
 31
0.0
  0
LINE
  5
2F0
  8
0
  6
BYBLOCK
 62
     0
 10
0.0
 20
0.0
 30
0.0
 11
-1.0
 21
-0.26794919
 31
0.0
  0
LINE
  5
2F1
  8
0
  6
BYBLOCK
 62
     0
 10
0.0
 20
0.0
 30
0.0
 11
-1.0
 21
0.0
 31
0.0
  0
ENDBLK
  5
2F3
  8
0
  0
BLOCK
  8
0
  2
_OPEN
 70
     0
 10
0.0
 20
0.0
 30
0.0
  3
_OPEN
  1

  0
LINE
  5
597
  8
0
  6
BYBLOCK
 62
     0
 10
-1.0
 20
0.1666666666666667
 30
0.0
 11
0.0
 21
0.0
 31
0.0
  0
LINE
  5
598
  8
0
  6
BYBLOCK
 62
     0
 10
-1.0
 20
-0.1666666666666667
 30
0.0
 11
0.0
 21
0.0
 31
0.0
  0
LINE
  5
599
  8
0
  6
BYBLOCK
 62
     0
 10
0.0
 20
0.0
 30
0.0
 11
-1.0
 21
0.0
 31
0.0
  0
ENDBLK
  5
59B
  8
0
  0
BLOCK
  8
0
  2
_TAGCIRCLE
 70
     2
 10
0.0
 20
0.0
 30
0.0
  3
_TAGCIRCLE
  1

  0
CIRCLE
  5
1151
  8
0
  6
BYBLOCK
 62
     0
 10
0.0
 20
0.0
 30
0.0
 40
4.0
  0
ATTDEF
  5
1152
  8
0
 62
     0
 10
-7.1
 20
-1.5
 30
0.0
 40
3.0
  1
タグ番号
 72
     1
 11
0.0
 21
-1.5
 31
0.0
  3
タグ番号を入力
  2
タグ番号
 70
     0
  0
ENDBLK
  5
1154
  8
0
  0
BLOCK
  8
AM_0
  2
_ACMOPEN30
 70
     0
 10
0.0
 20
0.0
 30
0.0
  3
_ACMOPEN30
  1
Acad:XRef
  0
LINE
  5
1CA4
  8
AM_0
 62
     0
 10
-1.0
 20
0.0
 30
0.0
 11
0.0
 21
0.0
 31
0.0
  0
LINE
  5
1CA5
  8
AM_0
 62
     0
 10
-1.0
 20
-0.2679491924311227
 30
0.0
 11
0.0
 21
0.0
 31
0.0
  0
LINE
  5
1CA6
  8
AM_0
 62
     0
 10
-1.0
 20
0.2679491924311227
 30
0.0
 11
0.0
 21
0.0
 31
0.0
  0
ENDBLK
  5
1CA7
  8
AM_0
  0
ENDSEC
  0
SECTION
  2
ENTITIES
  0
TEXT
  5
28DD
  8
10
 10
-1.5
 20
0.5
 30
0.0
 40
10.0
  1
2023.09.12 DV6-30[丸ハンドル][3方向チックナット付]
 11
-1.5
 21
0.5
 31
0.0
 73
     1
  0
LINE
  5
28DE
  8
0
 10
69.11753967660752
 20
117.5834651148684
 30
0.0
 11
68.66647957400801
 21
116.9938023128516
 31
0.0
  0
LINE
  5
28DF
  8
0
 10
72.93441198931487
 20
108.9938023128516
 30
0.0
 11
68.66647957400801
 21
111.4578983821875
 31
0.0
  0
LINE
  5
28E0
  8
0
 10
36.66647957400801
 20
111.4578983821875
 30
0.0
 11
51.00384575466796
 21
111.4578983821875
 31
0.0
  0
LINE
  5
28E1
  8
0
 10
54.32911339334805
 20
111.4578983821875
 30
0.0
 11
68.66647957400801
 21
111.4578983821875
 31
0.0
  0
LINE
  5
28E2
  8
0
 10
33.19047957400926
 20
109.4510254742909
 30
0.0
 11
33.19047957400926
 21
108.9938023128516
 31
0.0
  0
LINE
  5
28E3
  8
0
 10
36.21541947140668
 20
117.5834651148684
 30
0.0
 11
36.66647957400801
 21
116.9938023128516
 31
0.0
  0
LINE
  5
28E4
  8
0
 10
32.39854715870115
 20
108.9938023128516
 30
0.0
 11
36.66647957400801
 21
111.4578983821875
 31
0.0
  0
LINE
  5
28E5
  8
0
 10
36.66647957400801
 20
116.9938023128516
 30
0.0
 11
37.63899140526428
 21
116.9938023128516
 31
0.0
  0
LINE
  5
28E6
  8
0
 10
36.66647957400801
 20
111.4578983821875
 30
0.0
 11
36.66647957400801
 21
116.9938023128516
 31
0.0
  0
LINE
  5
28E7
  8
0
 10
67.69396774275174
 20
116.9938023128516
 30
0.0
 11
68.66647957400801
 21
116.9938023128516
 31
0.0
  0
LINE
  5
28E8
  8
0
 10
68.66647957400801
 20
111.4578983821875
 30
0.0
 11
68.66647957400801
 21
116.9938023128516
 31
0.0
  0
LINE
  5
28E9
  8
0
 10
72.14247957400676
 20
109.4510254742909
 30
0.0
 11
72.14247957400858
 21
108.9938023128516
 31
0.0
  0
LINE
  5
28EA
  8
0
 10
35.66647957400801
 20
165.4578983821875
 30
0.0
 11
43.58783697229319
 21
165.4578948271781
 31
0.0
  0
LINE
  5
28EB
  8
0
 10
61.74514184861346
 20
165.4578866783991
 30
0.0
 11
69.66647957400801
 21
165.4578831233985
 31
0.0
  0
LINE
  5
28EC
  8
0
 10
33.66647957400801
 20
165.9938023128516
 30
0.0
 11
35.66647957400801
 21
165.4578983821875
 31
0.0
  0
LINE
  5
28ED
  8
0
 10
33.66647957400801
 20
165.9938023128516
 30
0.0
 11
33.66647957400801
 21
168.9938023128516
 31
0.0
  0
LINE
  5
28EE
  8
0
 10
35.66647957400801
 20
162.1767611604034
 30
0.0
 11
35.66647957400801
 21
165.4578983821875
 31
0.0
  0
LINE
  5
28EF
  8
0
 10
69.66647957400801
 20
162.1767611604032
 30
0.0
 11
69.66647957400801
 21
165.4578831233985
 31
0.0
  0
LINE
  5
28F0
  8
0
 10
71.66647957400801
 20
165.9937870540625
 30
0.0
 11
71.66647957400801
 21
168.9938023128577
 31
0.0
  0
LINE
  5
28F1
  8
0
 10
69.66647957400801
 20
165.4578831233985
 30
0.0
 11
71.66647957400801
 21
165.9937870540625
 31
0.0
  0
LINE
  5
28F2
  8
0
 10
322.7479951827081
 20
116.0923023128516
 30
0.0
 11
324.4292028164527
 21
116.0923023128516
 31
0.0
  0
LINE
  5
28F3
  8
0
 10
322.3516961816749
 20
117.5713023128515
 30
0.0
 11
324.4292028164527
 21
117.5713023128515
 31
0.0
  0
LINE
  5
28F4
  8
0
 10
322.3516798272649
 20
162.4163023128515
 30
0.0
 11
324.4292028164527
 21
162.4163023128515
 31
0.0
  0
LINE
  5
28F5
  8
0
 10
322.7479788282999
 20
163.8953023128515
 30
0.0
 11
324.4292028164527
 21
163.8953023128515
 31
0.0
  0
LINE
  5
28F6
  8
0
 10
321.3006475186012
 20
158.4938175716406
 30
0.0
 11
321.3006475186012
 21
121.4938480892188
 31
0.0
  0
LINE
  5
28F7
  8
0
 10
261.5577581143025
 20
158.4938175716406
 30
0.0
 11
261.5577581143025
 21
121.4938480892188
 31
0.0
  0
LINE
  5
28F8
  8
0
 10
275.4292028164509
 20
116.9938023128516
 30
0.0
 11
307.4292028164527
 21
116.9938023128516
 31
0.0
  0
LINE
  5
28F9
  8
0
 10
275.4292028164509
 20
111.4578831233985
 30
0.0
 11
307.4292028164527
 21
111.4578831233985
 31
0.0
  0
LINE
  5
28FA
  8
0
 10
279.2795761279449
 20
137.9938175716406
 30
0.0
 11
303.4530304859218
 21
137.9938175716406
 31
0.0
  0
LINE
  5
28FB
  8
0
 10
303.3847429512352
 20
141.9938175716406
 30
0.0
 11
279.3478612325544
 21
141.9938175716406
 31
0.0
  0
LINE
  5
28FC
  8
0
 10
261.5577581143025
 20
121.4938480892188
 30
0.0
 11
260.1104104501937
 21
116.0923023128516
 31
0.0
  0
LINE
  5
28FD
  8
0
 10
260.1104104501937
 20
116.0923023128516
 30
0.0
 11
258.4292028164509
 21
116.0923023128516
 31
0.0
  0
LINE
  5
28FE
  8
0
 10
260.5067094512269
 20
117.5713023128515
 30
0.0
 11
258.4292028164509
 21
117.5713023128515
 31
0.0
  0
LINE
  5
28FF
  8
0
 10
271.9869115566853
 20
121.4938480892188
 30
0.0
 11
275.4292028164509
 21
116.9938023128516
 31
0.0
  0
LINE
  5
2900
  8
0
 10
271.1612968300979
 20
108.9938023128516
 30
0.0
 11
275.4292028164509
 21
111.4578831233985
 31
0.0
  0
LINE
  5
2901
  8
0
 10
261.5577581143025
 20
121.4938480892188
 30
0.0
 11
271.9869115566853
 21
121.4938480892188
 31
0.0
  0
LINE
  5
2902
  8
0
 10
273.6303955950316
 20
122.4759883135757
 30
0.0
 11
277.7674644532799
 21
135.744762794553
 31
0.0
  0
LINE
  5
2903
  8
0
 10
275.4292028164509
 20
111.4578831233985
 30
0.0
 11
275.4292028164509
 21
116.9938023128516
 31
0.0
  0
LINE
  5
2904
  8
0
 10
277.9292028164509
 20
138.7459356922707
 30
0.0
 11
277.9292028164509
 21
141.3399812158998
 31
0.0
  0
LINE
  5
2905
  8
0
 10
307.4292028164527
 20
116.9938023128516
 30
0.0
 11
315.564761898484
 21
121.4938480892188
 31
0.0
  0
LINE
  5
2906
  8
0
 10
311.697108802804
 20
108.9938023128516
 30
0.0
 11
307.4292028164527
 21
111.4578831233985
 31
0.0
  0
LINE
  5
2907
  8
0
 10
307.4292028164527
 20
111.4578831233985
 30
0.0
 11
307.4292028164527
 21
116.9938023128516
 31
0.0
  0
LINE
  5
2908
  8
0
 10
304.9292028164527
 20
138.7459356922707
 30
0.0
 11
304.9292028164527
 21
141.2034529782268
 31
0.0
  0
LINE
  5
2909
  8
0
 10
321.3006475186012
 20
121.4938480892188
 30
0.0
 11
315.564761898484
 21
121.4938480892188
 31
0.0
  0
LINE
  5
290A
  8
0
 10
321.3006475186012
 20
121.4938480892188
 30
0.0
 11
322.7479951827081
 21
116.0923023128516
 31
0.0
  0
LINE
  5
290B
  8
0
 10
274.4292028164509
 20
162.0305454769141
 30
0.0
 11
308.4292028164527
 21
162.0305454769141
 31
0.0
  0
LINE
  5
290C
  8
0
 10
274.4292028164509
 20
165.4578983821875
 30
0.0
 11
308.4292028164527
 21
165.4578831233985
 31
0.0
  0
LINE
  5
290D
  8
0
 10
261.5577581143025
 20
158.4938175716406
 30
0.0
 11
260.1104268046038
 21
163.8953023128515
 31
0.0
  0
LINE
  5
290E
  8
0
 10
260.1104268046038
 20
163.8953023128515
 30
0.0
 11
258.4292028164509
 21
163.8953023128515
 31
0.0
  0
LINE
  5
290F
  8
0
 10
260.506725805637
 20
162.4163023128515
 30
0.0
 11
258.4292028164509
 21
162.4163023128515
 31
0.0
  0
LINE
  5
2910
  8
0
 10
267.2936742519978
 20
158.4938175716406
 30
0.0
 11
274.4292028164509
 21
162.0305454769141
 31
0.0
  0
LINE
  5
2911
  8
0
 10
272.4292028164509
 20
165.9938023128516
 30
0.0
 11
274.4292028164509
 21
165.4578983821875
 31
0.0
  0
LINE
  5
2912
  8
0
 10
261.5577581143025
 20
158.4938175716406
 30
0.0
 11
267.2936742519978
 21
158.4938175716406
 31
0.0
  0
LINE
  5
2913
  8
0
 10
272.4292028164509
 20
165.9938023128516
 30
0.0
 11
272.4292028164509
 21
168.9938023128516
 31
0.0
  0
LINE
  5
2914
  8
0
 10
274.4292028164509
 20
162.0305454769141
 30
0.0
 11
274.4292028164509
 21
165.4578983821875
 31
0.0
  0
LINE
  5
2915
  8
0
 10
305.6926749938139
 20
144.1885306662618
 30
0.0
 11
308.9678546078467
 21
157.284983353939
 31
0.0
  0
LINE
  5
2916
  8
0
 10
321.3006475186012
 20
158.4938175716406
 30
0.0
 11
310.8328893398902
 21
158.4938175716406
 31
0.0
  0
LINE
  5
2917
  8
0
 10
308.4292028164527
 20
161.9938175716406
 30
0.0
 11
308.4292028164527
 21
165.4578831233985
 31
0.0
  0
LINE
  5
2918
  8
0
 10
308.4292028164527
 20
161.9938175716406
 30
0.0
 11
310.8328893398902
 21
158.4938175716406
 31
0.0
  0
LINE
  5
2919
  8
0
 10
308.4292028164527
 20
165.4578831233985
 30
0.0
 11
310.4292028164527
 21
165.9937870540625
 31
0.0
  0
LINE
  5
291A
  8
0
 10
310.4292028164527
 20
165.9937870540625
 30
0.0
 11
310.4292028164527
 21
168.9937870540625
 31
0.0
  0
LINE
  5
291B
  8
0
 10
321.3006475186012
 20
158.4938175716406
 30
0.0
 11
322.7479788282999
 21
163.8953023128515
 31
0.0
  0
LINE
  5
291C
  8
0
 10
324.4292028164527
 20
139.9938023128514
 30
0.0
 11
324.4292028164527
 21
112.7438023128514
 31
0.0
  0
LINE
  5
291D
  8
0
 10
324.4292028164527
 20
112.7438023128514
 30
0.0
 11
325.5692325426389
 21
110.7692129049567
 31
0.0
  0
LINE
  5
291E
  8
0
 10
351.2891730902629
 20
110.7692129049567
 30
0.0
 11
352.4292028164527
 21
112.7438023128514
 31
0.0
  0
LINE
  5
291F
  8
0
 10
352.4292028164527
 20
112.7438023128514
 30
0.0
 11
352.4292028164527
 21
139.9938023128514
 31
0.0
  0
LINE
  5
2920
  8
0
 10
352.4292028164527
 20
119.9938023128514
 30
0.0
 11
381.4292028164527
 21
119.9938023128514
 31
0.0
  0
LINE
  5
2921
  8
0
 10
381.4292028164527
 20
139.9938023128514
 30
0.0
 11
381.4292028164527
 21
118.9938023128514
 31
0.0
  0
LINE
  5
2922
  8
0
 10
381.4292028164527
 20
118.9938023128514
 30
0.0
 11
391.2972795985297
 21
118.9938023128514
 31
0.0
  0
LINE
  5
2923
  8
0
 10
391.2972795985297
 20
118.9938023128514
 30
0.0
 11
403.9022153005317
 21
119.3899283756818
 31
0.0
  0
LINE
  5
2924
  8
0
 10
403.9022153005317
 20
119.3899283756818
 30
0.0
 11
405.4292028164527
 21
120.916915891602
 31
0.0
  0
LINE
  5
2925
  8
0
 10
405.4292028164527
 20
120.916915891602
 30
0.0
 11
405.4292028164527
 21
159.0706887341007
 31
0.0
  0
LINE
  5
2926
  8
0
 10
405.4292028164527
 20
159.0706887341007
 30
0.0
 11
403.9022153005317
 21
160.5976762500209
 31
0.0
  0
LINE
  5
2927
  8
0
 10
403.9022153005317
 20
160.5976762500209
 30
0.0
 11
391.2972795985297
 21
160.9938023128514
 31
0.0
  0
LINE
  5
2928
  8
0
 10
391.2972795985297
 20
160.9938023128514
 30
0.0
 11
381.4292028164527
 21
160.9938023128514
 31
0.0
  0
LINE
  5
2929
  8
0
 10
381.4292028164527
 20
160.9938023128514
 30
0.0
 11
381.4292028164527
 21
139.9938023128514
 31
0.0
  0
LINE
  5
292A
  8
0
 10
381.4292028164527
 20
159.9938023128514
 30
0.0
 11
352.4292028164527
 21
159.9938023128514
 31
0.0
  0
LINE
  5
292B
  8
0
 10
352.4292028164527
 20
139.9938023128514
 30
0.0
 11
352.4292028164527
 21
167.2438023128514
 31
0.0
  0
LINE
  5
292C
  8
0
 10
352.4292028164527
 20
167.2438023128514
 30
0.0
 11
351.2891730902629
 21
169.2183917207462
 31
0.0
  0
LINE
  5
292D
  8
0
 10
325.5692325426389
 20
169.2183917207462
 30
0.0
 11
324.4292028164527
 21
167.2438023128514
 31
0.0
  0
LINE
  5
292E
  8
0
 10
324.4292028164527
 20
167.2438023128514
 30
0.0
 11
324.4292028164527
 21
139.9938023128514
 31
0.0
  0
LINE
  5
292F
  8
0
 10
258.4292028164509
 20
139.9938023128514
 30
0.0
 11
258.4292028164509
 21
112.7438023128514
 31
0.0
  0
LINE
  5
2930
  8
0
 10
258.4292028164509
 20
112.7438023128514
 30
0.0
 11
257.2891730902629
 21
110.7692129049567
 31
0.0
  0
LINE
  5
2931
  8
0
 10
231.5692325426389
 20
110.7692129049567
 30
0.0
 11
230.4292028164509
 21
112.7438023128514
 31
0.0
  0
LINE
  5
2932
  8
0
 10
230.4292028164509
 20
112.7438023128514
 30
0.0
 11
230.4292028164509
 21
139.9938023128514
 31
0.0
  0
LINE
  5
2933
  8
0
 10
230.4292028164509
 20
119.9938023128514
 30
0.0
 11
201.4292028164509
 21
119.9938023128514
 31
0.0
  0
LINE
  5
2934
  8
0
 10
201.4292028164509
 20
139.9938023128514
 30
0.0
 11
201.4292028164509
 21
118.9938023128514
 31
0.0
  0
LINE
  5
2935
  8
0
 10
201.4292028164509
 20
118.9938023128514
 30
0.0
 11
191.5611260343721
 21
118.9938023128514
 31
0.0
  0
LINE
  5
2936
  8
0
 10
191.5611260343721
 20
118.9938023128514
 30
0.0
 11
178.9561903323702
 21
119.3899283756818
 31
0.0
  0
LINE
  5
2937
  8
0
 10
178.9561903323702
 20
119.3899283756818
 30
0.0
 11
177.4292028164509
 21
120.916915891602
 31
0.0
  0
LINE
  5
2938
  8
0
 10
177.4292028164509
 20
120.916915891602
 30
0.0
 11
177.4292028164509
 21
159.0706887341007
 31
0.0
  0
LINE
  5
2939
  8
0
 10
177.4292028164509
 20
159.0706887341007
 30
0.0
 11
178.9561903323702
 21
160.5976762500209
 31
0.0
  0
LINE
  5
293A
  8
0
 10
178.9561903323702
 20
160.5976762500209
 30
0.0
 11
191.5611260343721
 21
160.9938023128516
 31
0.0
  0
LINE
  5
293B
  8
0
 10
191.5611260343721
 20
160.9938023128516
 30
0.0
 11
201.4292028164509
 21
160.9938023128514
 31
0.0
  0
LINE
  5
293C
  8
0
 10
201.4292028164509
 20
160.9938023128514
 30
0.0
 11
201.4292028164509
 21
139.9938023128514
 31
0.0
  0
LINE
  5
293D
  8
0
 10
201.4292028164509
 20
159.9938023128514
 30
0.0
 11
230.4292028164509
 21
159.9938023128514
 31
0.0
  0
LINE
  5
293E
  8
0
 10
230.4292028164509
 20
139.9938023128514
 30
0.0
 11
230.4292028164509
 21
167.2438023128514
 31
0.0
  0
LINE
  5
293F
  8
0
 10
230.4292028164509
 20
167.2438023128514
 30
0.0
 11
231.5692325426389
 21
169.2183917207462
 31
0.0
  0
LINE
  5
2940
  8
0
 10
257.2891730902629
 20
169.2183917207462
 30
0.0
 11
258.4292028164509
 21
167.2438023128514
 31
0.0
  0
LINE
  5
2941
  8
0
 10
258.4292028164509
 20
167.2438023128514
 30
0.0
 11
258.4292028164509
 21
139.9938023128514
 31
0.0
  0
LINE
  5
2942
  8
0
 10
267.4292028164527
 20
108.9938023128516
 30
0.0
 11
315.4292028164509
 21
108.9938023128516
 31
0.0
  0
LINE
  5
2943
  8
0
 10
315.4292028164509
 20
108.9938023128516
 30
0.0
 11
319.1420157375542
 21
105.2809893917492
 31
0.0
  0
LINE
  5
2944
  8
0
 10
319.1420157375542
 20
105.2809893917492
 30
0.0
 11
319.1420157375542
 21
88.70661523395302
 31
0.0
  0
LINE
  5
2945
  8
0
 10
319.1420157375542
 20
88.70661523395302
 30
0.0
 11
315.4292028164509
 21
84.99380231285159
 31
0.0
  0
LINE
  5
2946
  8
0
 10
315.4292028164509
 20
84.99380231285159
 30
0.0
 11
308.1792028164509
 21
84.99380231285159
 31
0.0
  0
LINE
  5
2947
  8
0
 10
308.1792028164509
 20
84.99380231285159
 30
0.0
 11
308.1792028164509
 21
51.97765209985664
 31
0.0
  0
LINE
  5
2948
  8
0
 10
308.1792028164509
 20
51.97765209985664
 30
0.0
 11
307.7406595489338
 21
39.41941601568487
 31
0.0
  0
LINE
  5
2949
  8
0
 10
307.7406595489338
 20
39.41941601568487
 30
0.0
 11
306.2118760214325
 21
37.99380231285068
 31
0.0
  0
LINE
  5
294A
  8
0
 10
306.2118760214325
 20
37.99380231285068
 30
0.0
 11
276.6465296114693
 21
37.99380231285068
 31
0.0
  0
LINE
  5
294B
  8
0
 10
276.6465296114693
 20
37.99380231285068
 30
0.0
 11
275.1177460839681
 21
39.41941601568487
 31
0.0
  0
LINE
  5
294C
  8
0
 10
275.1177460839681
 20
39.41941601568487
 30
0.0
 11
274.6792028164509
 21
51.97765209985846
 31
0.0
  0
LINE
  5
294D
  8
0
 10
274.6792028164509
 20
51.97765209985846
 30
0.0
 11
274.6792028164509
 21
84.99380231285159
 31
0.0
  0
LINE
  5
294E
  8
0
 10
308.1792028164509
 20
84.99380231285159
 30
0.0
 11
267.4292028164509
 21
84.99380231285159
 31
0.0
  0
LINE
  5
294F
  8
0
 10
267.4292028164509
 20
84.99380231285159
 30
0.0
 11
263.7163898953495
 21
88.70661523395302
 31
0.0
  0
LINE
  5
2950
  8
0
 10
263.7163898953495
 20
88.70661523395302
 30
0.0
 11
263.7163898953495
 21
105.2809893917492
 31
0.0
  0
LINE
  5
2951
  8
0
 10
263.7163898953495
 20
105.2809893917492
 30
0.0
 11
267.4292028164527
 21
108.9938023128516
 31
0.0
  0
POLYLINE
  5
2952
  8
0
 66
     1
 10
0.0
 20
0.0
 30
0.0
 70
     1
  0
VERTEX
  5
2A54
  8
0
 10
32.00157422629218
 20
160.6587076605663
 30
0.0
  0
VERTEX
  5
2A55
  8
0
 10
23.4418901661129
 20
139.9938023128516
 30
0.0
  0
VERTEX
  5
2A56
  8
0
 10
32.00157422629218
 20
119.3288969651367
 30
0.0
  0
VERTEX
  5
2A57
  8
0
 10
52.66647957400801
 20
110.7692129049567
 30
0.0
  0
VERTEX
  5
2A58
  8
0
 10
73.33138492172384
 20
119.3288969651364
 30
0.0
  0
VERTEX
  5
2A59
  8
0
 10
81.89106898190312
 20
139.9938023128514
 30
0.0
  0
VERTEX
  5
2A5A
  8
0
 10
73.33138492172384
 20
160.6587076605661
 30
0.0
  0
VERTEX
  5
2A5B
  8
0
 10
52.66647957400801
 20
169.218391720746
 30
0.0
  0
SEQEND
  5
2A74
  8
0
  0
LINE
  5
2953
  8
0
 10
231.5692325426389
 20
169.218391720746
 30
0.0
 11
257.2891730902629
 21
169.218391720746
 31
0.0
  0
LINE
  5
2954
  8
0
 10
325.5692325426389
 20
169.218391720746
 30
0.0
 11
351.2891730902629
 21
169.218391720746
 31
0.0
  0
LINE
  5
2955
  8
0
 10
231.5692325426389
 20
110.7692129049569
 30
0.0
 11
257.2891730902629
 21
110.7692129049569
 31
0.0
  0
LINE
  5
2956
  8
0
 10
325.5692325426389
 20
110.7692129049569
 30
0.0
 11
351.2891730902629
 21
110.7692129049569
 31
0.0
  0
LINE
  5
2957
  8
0
 10
69.41647957400801
 20
84.99380231285159
 30
0.0
 11
69.41647957400801
 21
51.97765209985664
 31
0.0
  0
LINE
  5
2958
  8
0
 10
69.41647957400801
 20
51.97765209985664
 30
0.0
 11
68.97793630648903
 21
39.41941601568487
 31
0.0
  0
LINE
  5
2959
  8
0
 10
68.97793630648903
 20
39.41941601568487
 30
0.0
 11
67.44915277898781
 21
37.99380231285068
 31
0.0
  0
LINE
  5
295A
  8
0
 10
67.44915277898781
 20
37.99380231285068
 30
0.0
 11
37.88380636902821
 21
37.99380231285068
 31
0.0
  0
LINE
  5
295B
  8
0
 10
37.88380636902821
 20
37.99380231285068
 30
0.0
 11
36.35502284152699
 21
39.41941601568487
 31
0.0
  0
LINE
  5
295C
  8
0
 10
36.35502284152699
 20
39.41941601568487
 30
0.0
 11
35.91647957400801
 21
51.97765209985846
 31
0.0
  0
LINE
  5
295D
  8
0
 10
35.91647957400801
 20
51.97765209985846
 30
0.0
 11
35.91647957400801
 21
84.99380231285159
 31
0.0
  0
CIRCLE
  5
295E
  8
0
 10
52.66647957400801
 20
139.9938023128514
 30
0.0
 40
16.5
  0
CIRCLE
  5
295F
  8
0
 10
52.66647957400801
 20
139.9938023128514
 30
0.0
 40
20.60387393716951
  0
LINE
  5
2960
  8
0
 10
381.4292028164527
 20
159.8249191191412
 30
0.0
 11
405.4292028164527
 21
159.0706887341009
 31
0.0
  0
LINE
  5
2961
  8
0
 10
405.4292028164527
 20
120.916915891602
 30
0.0
 11
381.4292028164527
 21
120.1626855065615
 31
0.0
  0
LINE
  5
2962
  8
0
 10
201.4292028164509
 20
159.8249191191412
 30
0.0
 11
177.4292028164509
 21
159.0706887341009
 31
0.0
  0
LINE
  5
2963
  8
0
 10
177.4292028164509
 20
120.916915891602
 30
0.0
 11
201.4292028164509
 21
120.1626855065615
 31
0.0
  0
LINE
  5
2964
  8
0
 10
306.7824304349961
 20
54.99380231285068
 30
0.0
 11
306.2481839122593
 21
37.99380231285068
 31
0.0
  0
LINE
  5
2965
  8
0
 10
276.6102217206426
 20
37.99380231285068
 30
0.0
 11
276.0759751979058
 21
54.99380231285068
 31
0.0
  0
LINE
  5
2966
  8
0
 10
308.2614304349991
 20
54.99380231285068
 30
0.0
 11
274.5969751979046
 21
54.99380231285068
 31
0.0
  0
LINE
  5
2967
  8
0
 10
68.01970719255496
 20
54.99380231285068
 30
0.0
 11
67.48546066981817
 21
37.99380231285068
 31
0.0
  0
LINE
  5
2968
  8
0
 10
37.84749847819785
 20
37.99380231285068
 30
0.0
 11
37.31325195546106
 21
54.99380231285068
 31
0.0
  0
LINE
  5
2969
  8
0
 10
69.49870719255432
 20
54.99380231285068
 30
0.0
 11
35.8342519554617
 21
54.99380231285068
 31
0.0
  0
CIRCLE
  5
296A
  8
0
 10
52.66647957400801
 20
139.9938023128514
 30
0.0
 40
15.0
  0
CIRCLE
  5
296B
  8
0
 10
52.66647957400801
 20
139.9938023128514
 30
0.0
 40
26.99999999999992
  0
CIRCLE
  5
296C
  8
0
 10
52.66647957400801
 20
139.9938023128514
 30
0.0
 40
19.07688642124936
  0
LINE
  5
296D
  8
7
 10
291.4292028164509
 20
33.53614432141353
 30
0.0
 11
291.4292028164509
 21
267.9938413736008
 31
0.0
  0
LINE
  5
296E
  8
7
 10
170.418947579763
 20
139.9938023128514
 30
0.0
 11
411.4614156783573
 21
139.9938023128514
 31
0.0
  0
LINE
  5
296F
  8
7
 10
86.35257550221013
 20
139.9938023128514
 30
0.0
 11
18.98038364580589
 21
139.9938023128514
 31
0.0
  0
LINE
  5
2970
  8
7
 10
52.66647957400801
 20
267.9938413736159
 30
0.0
 11
52.66647957400801
 21
30.40078239874038
 31
0.0
  0
LINE
  5
2971
  8
0
 10
28.66647957400801
 20
108.9938023128516
 30
0.0
 11
76.66647957400801
 21
108.9938023128516
 31
0.0
  0
LINE
  5
2972
  8
0
 10
76.66647957400801
 20
108.9938023128516
 30
0.0
 11
80.37929249510944
 21
105.2809893917492
 31
0.0
  0
LINE
  5
2973
  8
0
 10
80.37929249510944
 20
105.2809893917492
 30
0.0
 11
80.37929249510944
 21
88.70661523395302
 31
0.0
  0
LINE
  5
2974
  8
0
 10
80.37929249510944
 20
88.70661523395302
 30
0.0
 11
76.66647957400801
 21
84.99380231285159
 31
0.0
  0
LINE
  5
2975
  8
0
 10
76.66647957400801
 20
84.99380231285159
 30
0.0
 11
69.41647957400801
 21
84.99380231285159
 31
0.0
  0
LINE
  5
2976
  8
0
 10
69.41647957400801
 20
84.99380231285159
 30
0.0
 11
28.66647957400801
 21
84.99380231285159
 31
0.0
  0
LINE
  5
2977
  8
0
 10
28.66647957400801
 20
84.99380231285159
 30
0.0
 11
24.95366665290658
 21
88.70661523395302
 31
0.0
  0
LINE
  5
2978
  8
0
 10
24.95366665290658
 20
88.70661523395302
 30
0.0
 11
24.95366665290658
 21
105.2809893917492
 31
0.0
  0
LINE
  5
2979
  8
0
 10
24.95366665290658
 20
105.2809893917492
 30
0.0
 11
28.66647957400801
 21
108.9938023128516
 31
0.0
  0
LINE
  5
297A
  8
0
 10
352.4292028164537
 20
313.3199367044144
 30
0.0
 11
381.4292028164537
 21
313.3199367044144
 31
0.0
  0
LINE
  5
297B
  8
0
 10
381.4292028164537
 20
333.3199367044144
 30
0.0
 11
381.4292028164537
 21
312.3199367044144
 31
0.0
  0
LINE
  5
297C
  8
0
 10
381.4292028164537
 20
312.3199367044144
 30
0.0
 11
391.2972795985306
 21
312.3199367044142
 31
0.0
  0
LINE
  5
297D
  8
0
 10
391.2972795985306
 20
312.3199367044142
 30
0.0
 11
403.9022153005326
 21
312.7160627672449
 31
0.0
  0
LINE
  5
297E
  8
0
 10
403.9022153005326
 20
312.7160627672449
 30
0.0
 11
405.4292028164537
 21
314.2430502831651
 31
0.0
  0
LINE
  5
297F
  8
0
 10
405.4292028164537
 20
314.2430502831651
 30
0.0
 11
405.4292028164537
 21
352.3968231256638
 31
0.0
  0
LINE
  5
2980
  8
0
 10
405.4292028164537
 20
352.3968231256638
 30
0.0
 11
403.9022153005326
 21
353.9238106415839
 31
0.0
  0
LINE
  5
2981
  8
0
 10
403.9022153005326
 20
353.9238106415839
 30
0.0
 11
391.2972795985306
 21
354.3199367044144
 31
0.0
  0
LINE
  5
2982
  8
0
 10
391.2972795985306
 20
354.3199367044144
 30
0.0
 11
381.4292028164537
 21
354.3199367044144
 31
0.0
  0
LINE
  5
2983
  8
0
 10
381.4292028164537
 20
354.3199367044144
 30
0.0
 11
381.4292028164537
 21
333.3199367044144
 31
0.0
  0
LINE
  5
2984
  8
0
 10
381.4292028164537
 20
353.3199367044144
 30
0.0
 11
352.4292028164537
 21
353.3199367044144
 31
0.0
  0
LINE
  5
2985
  8
0
 10
230.4292028164518
 20
313.3199367044144
 30
0.0
 11
201.4292028164518
 21
313.3199367044144
 31
0.0
  0
LINE
  5
2986
  8
0
 10
201.4292028164518
 20
333.3199367044144
 30
0.0
 11
201.4292028164518
 21
312.3199367044144
 31
0.0
  0
LINE
  5
2987
  8
0
 10
201.4292028164518
 20
312.3199367044144
 30
0.0
 11
191.561126034373
 21
312.3199367044144
 31
0.0
  0
LINE
  5
2988
  8
0
 10
191.561126034373
 20
312.3199367044144
 30
0.0
 11
178.9561903323711
 21
312.7160627672449
 31
0.0
  0
LINE
  5
2989
  8
0
 10
178.9561903323711
 20
312.7160627672449
 30
0.0
 11
177.4292028164518
 21
314.2430502831651
 31
0.0
  0
LINE
  5
298A
  8
0
 10
177.4292028164518
 20
314.2430502831651
 30
0.0
 11
177.4292028164518
 21
352.3968231256638
 31
0.0
  0
LINE
  5
298B
  8
0
 10
177.4292028164518
 20
352.3968231256638
 30
0.0
 11
178.9561903323711
 21
353.9238106415839
 31
0.0
  0
LINE
  5
298C
  8
0
 10
178.9561903323711
 20
353.9238106415839
 30
0.0
 11
191.561126034373
 21
354.3199367044144
 31
0.0
  0
LINE
  5
298D
  8
0
 10
191.561126034373
 20
354.3199367044144
 30
0.0
 11
201.4292028164518
 21
354.3199367044144
 31
0.0
  0
LINE
  5
298E
  8
0
 10
201.4292028164518
 20
354.3199367044144
 30
0.0
 11
201.4292028164518
 21
333.3199367044144
 31
0.0
  0
LINE
  5
298F
  8
0
 10
201.4292028164518
 20
353.3199367044144
 30
0.0
 11
230.4292028164518
 21
353.3199367044144
 31
0.0
  0
LINE
  5
2990
  8
0
 10
381.4292028164537
 20
353.1510535107043
 30
0.0
 11
405.4292028164537
 21
352.3968231256638
 31
0.0
  0
LINE
  5
2991
  8
0
 10
405.4292028164537
 20
314.2430502831651
 30
0.0
 11
381.4292028164537
 21
313.4888198981246
 31
0.0
  0
LINE
  5
2992
  8
0
 10
201.4292028164518
 20
353.1510535107043
 30
0.0
 11
177.4292028164518
 21
352.3968231256638
 31
0.0
  0
LINE
  5
2993
  8
0
 10
177.4292028164518
 20
314.2430502831651
 30
0.0
 11
201.4292028164518
 21
313.4888198981246
 31
0.0
  0
LINE
  5
2994
  8
0
 10
351.2891730902638
 20
304.0953472965198
 30
0.0
 11
352.4292028164537
 21
306.0699367044144
 31
0.0
  0
LINE
  5
2995
  8
0
 10
352.4292028164537
 20
306.0699367044144
 30
0.0
 11
352.4292028164537
 21
333.3199367044144
 31
0.0
  0
LINE
  5
2996
  8
0
 10
352.4292028164537
 20
333.3199367044144
 30
0.0
 11
352.4292028164537
 21
360.5699367044144
 31
0.0
  0
LINE
  5
2997
  8
0
 10
352.4292028164537
 20
360.5699367044144
 30
0.0
 11
351.2891730902638
 21
362.5445261123091
 31
0.0
  0
LINE
  5
2998
  8
0
 10
325.5692325426398
 20
362.5445261123091
 30
0.0
 11
351.2891730902638
 21
362.5445261123091
 31
0.0
  0
LINE
  5
2999
  8
0
 10
325.5692325426398
 20
304.0953472965198
 30
0.0
 11
351.2891730902638
 21
304.0953472965198
 31
0.0
  0
LINE
  5
299A
  8
7
 10
162.9322010366695
 20
333.3313007611143
 30
0.0
 11
419.8643279164107
 21
333.3313007611143
 31
0.0
  0
LINE
  5
299B
  8
0
 10
231.5692325426398
 20
304.0953472965198
 30
0.0
 11
230.4292028164518
 21
306.0699367044144
 31
0.0
  0
LINE
  5
299C
  8
0
 10
230.4292028164518
 20
306.0699367044144
 30
0.0
 11
230.4292028164518
 21
333.3199367044144
 31
0.0
  0
LINE
  5
299D
  8
0
 10
230.4292028164518
 20
333.3199367044144
 30
0.0
 11
230.4292028164518
 21
360.5699367044144
 31
0.0
  0
LINE
  5
299E
  8
0
 10
230.4292028164518
 20
360.5699367044144
 30
0.0
 11
231.5692325426398
 21
362.5445261123091
 31
0.0
  0
LINE
  5
299F
  8
0
 10
231.5692325426398
 20
362.5445261123091
 30
0.0
 11
257.2891730902638
 21
362.5445261123091
 31
0.0
  0
LINE
  5
29A0
  8
0
 10
231.5692325426398
 20
304.0953472965198
 30
0.0
 11
257.2891730902638
 21
304.0953472965198
 31
0.0
  0
LINE
  5
29A1
  8
0
 10
273.129202816448
 20
168.9937870540564
 30
0.0
 11
309.7292028164538
 21
168.9937870540687
 31
0.0
  0
LINE
  5
29A2
  8
0
 10
273.129202816448
 20
168.9937870540564
 30
0.0
 11
272.9292028164509
 21
169.1937870540562
 31
0.0
1001
GENIUS_GENFIL_13
1070
     0
1040
0.2
1040
0.2
1040
20.0
1040
0.0
1002
{
1002
}
1001
GENIUS_GENODEF_13
1002
{
1000
HIER
1070
     0
1002
}
1002
{
1000
MANEDIT
1070
     0
1002
}
1002
{
1000
NOSEL
1070
     0
1002
}
1002
{
1000
BEHIND
1070
     0
1002
}
1002
{
1000
OTHER
1070
     0
1002
}
1002
{
1000
REACTOR
1002
}
1001
GENIUS_GENOBJ-N-CHA_13
1002
{
1000
OWNER
1000
GEN
1002
}
  0
ARC
  5
29A3
  8
0
 10
272.6792028164509
 20
187.4153599293315
 30
0.0
 40
2.0
 50
135.0000000000092
 51
180.0
1001
GRPNAME
1000
PASTMD0C
1001
GENIUS_GENODEF_13
1002
{
1000
HIER
1070
     0
1002
}
1002
{
1000
MANEDIT
1070
     0
1002
}
1002
{
1000
NOSEL
1070
     0
1002
}
1002
{
1000
BEHIND
1070
     0
1002
}
1002
{
1000
OTHER
1070
     0
1002
}
1002
{
1000
REACTOR
1002
}
1001
GENIUS_GENOBJ-N-FIL_13
1002
{
1000
OWNER
1000
GEN
1002
}
  0
LINE
  5
29A4
  8
0
 10
270.6792028164509
 20
177.2437870540718
 30
0.0
 11
272.9292028164473
 21
174.9937870540728
 31
0.0
  0
LINE
  5
29A5
  8
0
 10
291.4292028164509
 20
219.9937870540691
 30
0.0
 11
277.4292028164491
 21
219.9937870540691
 31
0.0
1001
GRPNAME
1000
PASTMD0C
  0
ARC
  5
29A6
  8
0
 10
277.4292028164509
 20
218.9937870540691
 30
0.0
 40
1.0
 50
89.99999991255908
 51
180.0
1001
GRPNAME
1000
PASTMD0C
  0
LINE
  5
29A7
  8
0
 10
272.9292028164473
 20
174.9937870540728
 30
0.0
 11
272.9292028164473
 21
169.1937870540685
 31
0.0
  0
LINE
  5
29A8
  8
0
 10
272.9292028164473
 20
190.4937870540746
 30
0.0
 11
271.2649892540776
 21
188.8295734917058
 31
0.0
  0
LINE
  5
29A9
  8
0
 10
309.9292028164527
 20
174.9937870540723
 30
0.0
 11
309.9292028164509
 21
169.1937870540685
 31
0.0
  0
LINE
  5
29AA
  8
0
 10
309.7292028164538
 20
168.9937870540687
 30
0.0
 11
309.9292028164509
 21
169.1937870540685
 31
0.0
1001
GENIUS_GENFIL_13
1070
     0
1040
0.2
1040
0.2
1040
20.0
1040
0.0
1002
{
1002
}
1001
GENIUS_GENODEF_13
1002
{
1000
HIER
1070
     0
1002
}
1002
{
1000
MANEDIT
1070
     0
1002
}
1002
{
1000
NOSEL
1070
     0
1002
}
1002
{
1000
BEHIND
1070
     0
1002
}
1002
{
1000
OTHER
1070
     0
1002
}
1002
{
1000
REACTOR
1002
}
1001
GENIUS_GENOBJ-N-CHA_13
1002
{
1000
OWNER
1000
GEN
1002
}
  0
LINE
  5
29AB
  8
0
 10
306.4292028164509
 20
203.99378705407
 30
0.0
 11
306.4292028164509
 21
218.9937870540691
 31
0.0
1001
GRPNAME
1000
PASTMD0C
  0
LINE
  5
29AC
  8
0
 10
312.1792028164509
 20
187.4153599293656
 30
0.0
 11
312.1792028164509
 21
177.2437870540723
 31
0.0
1001
GRPNAME
1000
PASTMD0C
  0
LINE
  5
29AD
  8
0
 10
312.1792028164509
 20
177.2437870540718
 30
0.0
 11
309.9292028164527
 21
174.9937870540723
 31
0.0
  0
LINE
  5
29AE
  8
0
 10
291.4292028164509
 20
219.9937870540687
 30
0.0
 11
305.4292028164509
 21
219.9937870540687
 31
0.0
1001
GRPNAME
1000
PASTMD0C
  0
ARC
  5
29AF
  8
0
 10
305.4292028164509
 20
218.9937870540691
 30
0.0
 40
1.0
 50
0.0
 51
90.00000008733672
1001
GRPNAME
1000
PASTMD0C
  0
LINE
  5
29B0
  8
0
 10
276.4292028164509
 20
203.9937870540723
 30
0.0
 11
276.4292028164509
 21
218.9937870540691
 31
0.0
1001
GRPNAME
1000
PASTMD0C
  0
LINE
  5
29B1
  8
0
 10
270.6792028164509
 20
187.4153599293315
 30
0.0
 11
270.6792028164509
 21
177.2437870540723
 31
0.0
1001
GRPNAME
1000
PASTMD0C
  0
LINE
  5
29B2
  8
0
 10
272.9292028164473
 20
200.4937870540709
 30
0.0
 11
272.9292028164473
 21
190.4937870540746
 31
0.0
  0
LINE
  5
29B3
  8
0
 10
276.4292028164509
 20
203.9937870540723
 30
0.0
 11
272.9292028164473
 21
200.4937870540709
 31
0.0
  0
ARC
  5
29B4
  8
0
 10
310.1792028164509
 20
187.4153599293656
 30
0.0
 40
2.0
 50
0.0
 51
45.00000000013818
1001
GRPNAME
1000
PASTMD0C
1001
GENIUS_GENODEF_13
1002
{
1000
HIER
1070
     0
1002
}
1002
{
1000
MANEDIT
1070
     0
1002
}
1002
{
1000
NOSEL
1070
     0
1002
}
1002
{
1000
BEHIND
1070
     0
1002
}
1002
{
1000
OTHER
1070
     0
1002
}
1002
{
1000
REACTOR
1002
}
1001
GENIUS_GENOBJ-N-FIL_13
1002
{
1000
OWNER
1000
GEN
1002
}
  0
LINE
  5
29B5
  8
0
 10
309.9292028164473
 20
190.4937870541082
 30
0.0
 11
311.5934163788206
 21
188.8295734917426
 31
0.0
  0
LINE
  5
29B6
  8
0
 10
309.9292028164291
 20
200.4937870541046
 30
0.0
 11
309.9292028164473
 21
190.4937870541082
 31
0.0
  0
LINE
  5
29B7
  8
0
 10
306.4292028164509
 20
203.99378705407
 30
0.0
 11
309.9292028164291
 21
200.4937870541046
 31
0.0
  0
LINE
  5
29B8
  8
0
 10
276.4292028164509
 20
203.9937870540723
 30
0.0
 11
306.4292028164509
 21
203.99378705407
 31
0.0
  0
LINE
  5
29B9
  8
0
 10
309.9292028164291
 20
200.4937870541046
 30
0.0
 11
272.9292028164473
 21
200.4937870540709
 31
0.0
  0
LINE
  5
29BA
  8
0
 10
272.9292028164473
 20
190.4937870540746
 30
0.0
 11
309.9292028164473
 21
190.4937870541082
 31
0.0
  0
LINE
  5
29BB
  8
0
 10
272.9292028164473
 20
174.9937870540728
 30
0.0
 11
309.9292028164527
 21
174.9937870540723
 31
0.0
  0
LINE
  5
29BC
  8
0
 10
272.4292028164509
 20
168.9938023128516
 30
0.0
 11
310.4292028164527
 21
168.9937870540625
 31
0.0
  0
LINE
  5
29BD
  8
0
 10
34.3664795740051
 20
168.9937870540564
 30
0.0
 11
70.96647957401092
 21
168.9937870540687
 31
0.0
  0
LINE
  5
29BE
  8
0
 10
34.3664795740051
 20
168.9937870540564
 30
0.0
 11
34.16647957400801
 21
169.1937870540562
 31
0.0
1001
GENIUS_GENFIL_13
1070
     0
1040
0.2
1040
0.2
1040
20.0
1040
0.0
1002
{
1002
}
1001
GENIUS_GENODEF_13
1002
{
1000
HIER
1070
     0
1002
}
1002
{
1000
MANEDIT
1070
     0
1002
}
1002
{
1000
NOSEL
1070
     0
1002
}
1002
{
1000
BEHIND
1070
     0
1002
}
1002
{
1000
OTHER
1070
     0
1002
}
1002
{
1000
REACTOR
1002
}
1001
GENIUS_GENOBJ-N-CHA_13
1002
{
1000
OWNER
1000
GEN
1002
}
  0
ARC
  5
29BF
  8
0
 10
33.91647957400801
 20
187.4153599293315
 30
0.0
 40
2.0
 50
135.0000000000092
 51
180.0
1001
GRPNAME
1000
PASTMD0C
1001
GENIUS_GENODEF_13
1002
{
1000
HIER
1070
     0
1002
}
1002
{
1000
MANEDIT
1070
     0
1002
}
1002
{
1000
NOSEL
1070
     0
1002
}
1002
{
1000
BEHIND
1070
     0
1002
}
1002
{
1000
OTHER
1070
     0
1002
}
1002
{
1000
REACTOR
1002
}
1001
GENIUS_GENOBJ-N-FIL_13
1002
{
1000
OWNER
1000
GEN
1002
}
  0
LINE
  5
29C0
  8
0
 10
31.91647957400801
 20
177.2437870540718
 30
0.0
 11
34.16647957400437
 21
174.9937870540728
 31
0.0
  0
LINE
  5
29C1
  8
0
 10
52.66647957400801
 20
219.9937870540691
 30
0.0
 11
38.66647957400619
 21
219.9937870540691
 31
0.0
1001
GRPNAME
1000
PASTMD0C
  0
ARC
  5
29C2
  8
0
 10
38.66647957400801
 20
218.9937870540691
 30
0.0
 40
1.0
 50
89.99999991255908
 51
180.0
1001
GRPNAME
1000
PASTMD0C
  0
LINE
  5
29C3
  8
0
 10
34.16647957400437
 20
174.9937870540728
 30
0.0
 11
34.16647957400437
 21
169.1937870540685
 31
0.0
  0
LINE
  5
29C4
  8
0
 10
34.16647957400437
 20
190.4937870540746
 30
0.0
 11
32.50226601163467
 21
188.8295734917058
 31
0.0
  0
LINE
  5
29C5
  8
0
 10
71.16647957400983
 20
174.9937870540723
 30
0.0
 11
71.16647957400801
 21
169.1937870540685
 31
0.0
  0
LINE
  5
29C6
  8
0
 10
70.96647957401092
 20
168.9937870540687
 30
0.0
 11
71.16647957400801
 21
169.1937870540685
 31
0.0
1001
GENIUS_GENFIL_13
1070
     0
1040
0.2
1040
0.2
1040
20.0
1040
0.0
1002
{
1002
}
1001
GENIUS_GENODEF_13
1002
{
1000
HIER
1070
     0
1002
}
1002
{
1000
MANEDIT
1070
     0
1002
}
1002
{
1000
NOSEL
1070
     0
1002
}
1002
{
1000
BEHIND
1070
     0
1002
}
1002
{
1000
OTHER
1070
     0
1002
}
1002
{
1000
REACTOR
1002
}
1001
GENIUS_GENOBJ-N-CHA_13
1002
{
1000
OWNER
1000
GEN
1002
}
  0
LINE
  5
29C7
  8
0
 10
67.66647957400801
 20
203.99378705407
 30
0.0
 11
67.66647957400801
 21
218.9937870540691
 31
0.0
1001
GRPNAME
1000
PASTMD0C
  0
LINE
  5
29C8
  8
0
 10
73.41647957400801
 20
187.4153599293656
 30
0.0
 11
73.41647957400801
 21
177.2437870540723
 31
0.0
1001
GRPNAME
1000
PASTMD0C
  0
LINE
  5
29C9
  8
0
 10
73.41647957400801
 20
177.2437870540718
 30
0.0
 11
71.16647957400983
 21
174.9937870540723
 31
0.0
  0
LINE
  5
29CA
  8
0
 10
52.66647957400801
 20
219.9937870540687
 30
0.0
 11
66.66647957400801
 21
219.9937870540687
 31
0.0
1001
GRPNAME
1000
PASTMD0C
  0
ARC
  5
29CB
  8
0
 10
66.66647957400801
 20
218.9937870540691
 30
0.0
 40
1.0
 50
0.0
 51
90.00000008733672
1001
GRPNAME
1000
PASTMD0C
  0
LINE
  5
29CC
  8
0
 10
37.66647957400801
 20
203.9937870540723
 30
0.0
 11
37.66647957400801
 21
218.9937870540691
 31
0.0
1001
GRPNAME
1000
PASTMD0C
  0
LINE
  5
29CD
  8
0
 10
31.91647957400801
 20
187.4153599293315
 30
0.0
 11
31.91647957400801
 21
177.2437870540723
 31
0.0
1001
GRPNAME
1000
PASTMD0C
  0
LINE
  5
29CE
  8
0
 10
34.16647957400437
 20
200.4937870540709
 30
0.0
 11
34.16647957400437
 21
190.4937870540746
 31
0.0
  0
LINE
  5
29CF
  8
0
 10
37.66647957400801
 20
203.9937870540723
 30
0.0
 11
34.16647957400437
 21
200.4937870540709
 31
0.0
  0
ARC
  5
29D0
  8
0
 10
71.41647957400801
 20
187.4153599293656
 30
0.0
 40
2.0
 50
0.0
 51
45.00000000013818
1001
GRPNAME
1000
PASTMD0C
1001
GENIUS_GENODEF_13
1002
{
1000
HIER
1070
     0
1002
}
1002
{
1000
MANEDIT
1070
     0
1002
}
1002
{
1000
NOSEL
1070
     0
1002
}
1002
{
1000
BEHIND
1070
     0
1002
}
1002
{
1000
OTHER
1070
     0
1002
}
1002
{
1000
REACTOR
1002
}
1001
GENIUS_GENOBJ-N-FIL_13
1002
{
1000
OWNER
1000
GEN
1002
}
  0
LINE
  5
29D1
  8
0
 10
71.16647957400437
 20
190.4937870541082
 30
0.0
 11
72.8306931363777
 21
188.8295734917426
 31
0.0
  0
LINE
  5
29D2
  8
0
 10
71.16647957398618
 20
200.4937870541046
 30
0.0
 11
71.16647957400437
 21
190.4937870541082
 31
0.0
  0
LINE
  5
29D3
  8
0
 10
67.66647957400801
 20
203.99378705407
 30
0.0
 11
71.16647957398618
 21
200.4937870541046
 31
0.0
  0
LINE
  5
29D4
  8
0
 10
37.66647957400801
 20
203.9937870540723
 30
0.0
 11
67.66647957400801
 21
203.99378705407
 31
0.0
  0
LINE
  5
29D5
  8
0
 10
71.16647957398618
 20
200.4937870541046
 30
0.0
 11
34.16647957400437
 21
200.4937870540709
 31
0.0
  0
LINE
  5
29D6
  8
0
 10
34.16647957400437
 20
190.4937870540746
 30
0.0
 11
71.16647957400437
 21
190.4937870541082
 31
0.0
  0
LINE
  5
29D7
  8
0
 10
34.16647957400437
 20
174.9937870540728
 30
0.0
 11
71.16647957400983
 21
174.9937870540723
 31
0.0
  0
LINE
  5
29D8
  8
0
 10
33.66647957400801
 20
168.9938023128516
 30
0.0
 11
71.66647957400801
 21
168.9938023128516
 31
0.0
  0
LINE
  5
29D9
  8
0
 10
285.4291560510046
 20
222.9938413736049
 30
0.0
 11
285.4291560510046
 21
219.9937870540691
 31
0.0
  0
LINE
  5
29DA
  8
0
 10
297.4292495818954
 20
222.9938413736049
 30
0.0
 11
297.4292495818954
 21
219.9937870540687
 31
0.0
  0
LINE
  5
29DB
  8
0
 10
46.66643280856033
 20
222.9938413736195
 30
0.0
 11
46.66643280855988
 21
219.9937870540691
 31
0.0
  0
LINE
  5
29DC
  8
0
 10
58.66652633945068
 20
222.9938413736195
 30
0.0
 11
58.66652633945068
 21
219.9937870540687
 31
0.0
  0
ARC
  5
29DD
  8
0
 10
50.62752428610338
 20
231.1973468253891
 30
0.0
 40
30.91919402524992
 50
78.7296769207184
 51
86.2188921363998
  0
LINE
  5
29DE
  8
0
 10
39.66648718885972
 20
263.9938413736195
 30
0.0
 11
65.66648718887063
 21
263.9938413736122
 31
0.0
  0
LINE
  5
29DF
  8
0
 10
30.16648718885972
 20
222.9938413736195
 30
0.0
 11
75.16648718885881
 21
222.9938413736195
 31
0.0
  0
LINE
  5
29E0
  8
0
 10
28.16648718885972
 20
230.7355111244219
 30
0.0
 11
77.16648718885881
 21
230.7355111244219
 31
0.0
  0
ARC
  5
29E1
  8
0
 10
52.71131250749113
 20
236.1718002947455
 30
0.0
 40
3.704509570427573
 50
269.306692505253
 51
329.9640267076142
  0
LINE
  5
29E2
  8
0
 10
21.66648718885972
 20
256.4899949921642
 30
0.0
 11
21.66648718885972
 21
241.9938413736213
 31
0.0
  0
LINE
  5
29E3
  8
0
 10
22.44145230993217
 20
241.9938413736213
 30
0.0
 11
22.44145230993217
 21
258.5738389137828
 31
0.0
  0
LINE
  5
29E4
  8
0
 10
45.83852308893256
 20
259.7149835726036
 30
0.0
 11
45.83852308893256
 21
241.9938413736213
 31
0.0
  0
LINE
  5
29E5
  8
0
 10
31.10446656604563
 20
241.9938413736213
 30
0.0
 11
31.10446656604563
 21
259.7149835726036
 31
0.0
  0
ARC
  5
29E6
  8
0
 10
30.31303627992111
 20
233.1117388296241
 30
0.0
 40
0.5000000000001373
 50
246.2367264954113
 51
357.25323245334
1001
GENIUS_GENODEF_13
1002
{
1000
HIER
1070
     0
1002
}
1002
{
1000
MANEDIT
1070
     0
1002
}
1002
{
1000
NOSEL
1070
     0
1002
}
1002
{
1000
BEHIND
1070
     0
1002
}
1002
{
1000
REACTOR
1002
}
1001
GENIUS_GENOBJ-N-FIL_13
1002
{
1000
OWNER
1000
GEN
1002
}
  0
ARC
  5
29E7
  8
0
 10
30.16648718885972
 20
224.9938413736195
 30
0.0
 40
2.0
 50
180.0
 51
270.0
1001
GENIUS_GENODEF_13
1002
{
1000
HIER
1070
     0
1002
}
1002
{
1000
MANEDIT
1070
     0
1002
}
1002
{
1000
NOSEL
1070
     0
1002
}
1002
{
1000
BEHIND
1070
     0
1002
}
1002
{
1000
REACTOR
1002
}
1001
GENIUS_GENOBJ-N-FIL_13
1002
{
1000
OWNER
1000
GEN
1002
}
  0
LINE
  5
29E8
  8
0
 10
28.16648718885972
 20
230.7355111244219
 30
0.0
 11
28.16648718885972
 21
224.9938413736186
 31
0.0
  0
LINE
  5
29E9
  8
0
 10
28.16648718885972
 20
230.7355111244219
 30
0.0
 11
21.66648718885972
 21
241.9938413736213
 31
0.0
  0
ARC
  5
29EA
  8
0
 10
33.55492365512691
 20
239.9771037161922
 30
0.0
 40
8.092139528442901
 50
218.3219467238773
 51
244.8164215542312
  0
ARC
  5
29EB
  8
0
 10
59.01733373735442
 20
261.6377547510358
 30
0.0
 40
41.51720649287704
 50
208.2390387289538
 51
219.9850051421018
  0
LINE
  5
29EC
  8
0
 10
32.10446656604563
 20
242.0050033993725
 30
0.0
 11
44.83852308893256
 21
241.9938413736186
 31
0.0
  0
ARC
  5
29ED
  8
0
 10
-149.6452688133581
 20
241.7455799905904
 30
0.0
 40
180.6652985045642
 50
357.2532324534187
 51
0.0787330719278605
  0
ARC
  5
29EE
  8
0
 10
52.62166187024377
 20
236.1718002947455
 30
0.0
 40
3.704509570427561
 50
210.0359732923825
 51
270.6933074947401
  0
ARC
  5
29EF
  8
0
 10
61.98529974839948
 20
244.8448745362521
 30
0.0
 40
16.39654800819768
 50
190.0134925743614
 51
219.9445765225433
  0
ARC
  5
29F0
  8
0
 10
39.66648718885972
 20
223.993841373622
 30
0.0
 40
39.99999999999841
 50
90.0
 51
111.8037479893853
  0
ARC
  5
29F1
  8
0
 10
27.21951551552411
 20
256.7798405675651
 30
0.0
 40
4.869076824715424
 50
37.07163361014248
 51
88.33534575517055
  0
ARC
  5
29F2
  8
0
 10
26.66648718885972
 20
256.4899949921642
 30
0.0
 40
4.999999999999826
 50
111.803747989381
 51
180.0
1001
GENIUS_GENODEF_13
1002
{
1000
HIER
1070
     0
1002
}
1002
{
1000
MANEDIT
1070
     0
1002
}
1002
{
1000
NOSEL
1070
     0
1002
}
1002
{
1000
BEHIND
1070
     0
1002
}
1002
{
1000
REACTOR
1002
}
1001
GENIUS_GENOBJ-N-FIL_13
1002
{
1000
OWNER
1000
GEN
1002
}
  0
ARC
  5
29F3
  8
0
 10
29.01513602646537
 20
253.5244884248675
 30
0.0
 40
8.289104774638442
 50
101.5112441720044
 51
142.4715634063268
  0
LINE
  5
29F4
  8
0
 10
32.10446656604563
 20
259.7149835726036
 30
0.0
 11
44.83852308893256
 21
259.7149835726036
 31
0.0
  0
ARC
  5
29F5
  8
0
 10
54.70545009163197
 20
231.1973468253857
 30
0.0
 40
30.91919402525333
 50
93.78110786360146
 51
101.2703230792829
  0
ARC
  5
29F6
  8
0
 10
49.02381505947233
 20
257.8437008078838
 30
0.0
 40
3.694290746966676
 50
95.61023783029427
 51
149.5667841226199
  0
LINE
  5
29F7
  8
0
 10
83.66648718885972
 20
256.4899949921632
 30
0.0
 11
83.66648718885972
 21
241.9938413736213
 31
0.0
  0
LINE
  5
29F8
  8
0
 10
74.22850781168836
 20
241.9938413736213
 30
0.0
 11
74.22850781168836
 21
259.7149835726036
 31
0.0
  0
LINE
  5
29F9
  8
0
 10
82.89152206780182
 20
241.9938413736213
 30
0.0
 11
82.89152206780182
 21
258.5738389137828
 31
0.0
  0
LINE
  5
29FA
  8
0
 10
59.49445128880234
 20
259.7149835726036
 30
0.0
 11
59.49445128880234
 21
241.9938413736213
 31
0.0
  0
LINE
  5
29FB
  8
0
 10
77.16648718885881
 20
230.735511124421
 30
0.0
 11
83.66648718885972
 21
241.9938413736213
 31
0.0
  0
ARC
  5
29FC
  8
0
 10
46.3156406403732
 20
261.6377547510408
 30
0.0
 40
41.51720649288583
 50
320.0149948579003
 51
331.7609612710448
  0
ARC
  5
29FD
  8
0
 10
75.16648718885881
 20
224.9938413736195
 30
0.0
 40
2.0
 50
270.0
 51
0.0
1001
GENIUS_GENODEF_13
1002
{
1000
HIER
1070
     0
1002
}
1002
{
1000
MANEDIT
1070
     0
1002
}
1002
{
1000
NOSEL
1070
     0
1002
}
1002
{
1000
BEHIND
1070
     0
1002
}
1002
{
1000
REACTOR
1002
}
1001
GENIUS_GENOBJ-N-FIL_13
1002
{
1000
OWNER
1000
GEN
1002
}
  0
LINE
  5
29FE
  8
0
 10
73.31311526091213
 20
241.9938413736213
 30
0.0
 11
60.49445128880234
 21
241.9938413736213
 31
0.0
  0
ARC
  5
29FF
  8
0
 10
43.34767462933814
 20
244.8448745362505
 30
0.0
 40
16.39654800819415
 50
320.055423477454
 51
349.9865074256929
  0
LINE
  5
2A00
  8
0
 10
77.16648718885881
 20
230.735511124421
 30
0.0
 11
77.16648718885881
 21
224.9938413736186
 31
0.0
  0
ARC
  5
2A01
  8
0
 10
254.9782431910926
 20
241.7455799905922
 30
0.0
 40
180.6652985045639
 50
179.9212669280768
 51
182.7467675465875
  0
ARC
  5
2A02
  8
0
 10
71.77805072260799
 20
239.9771037161922
 30
0.0
 40
8.092139528442887
 50
295.1835784457724
 51
321.678053276125
  0
ARC
  5
2A03
  8
0
 10
75.01993809781379
 20
233.1117388296238
 30
0.0
 40
0.5000000000000417
 50
182.746767546634
 51
293.763273504594
1001
GENIUS_GENODEF_13
1002
{
1000
HIER
1070
     0
1002
}
1002
{
1000
MANEDIT
1070
     0
1002
}
1002
{
1000
NOSEL
1070
     0
1002
}
1002
{
1000
BEHIND
1070
     0
1002
}
1002
{
1000
REACTOR
1002
}
1001
GENIUS_GENOBJ-N-FIL_13
1002
{
1000
OWNER
1000
GEN
1002
}
  0
ARC
  5
2A04
  8
0
 10
65.66648718885881
 20
223.9938413736206
 30
0.0
 40
39.99999999999903
 50
68.19625201061365
 51
90.0
  0
ARC
  5
2A05
  8
0
 10
76.31783835126998
 20
253.5244884248675
 30
0.0
 40
8.289104774638432
 50
37.5284365936737
 51
78.48875582799562
  0
LINE
  5
2A06
  8
0
 10
73.31311526091213
 20
259.7149835726027
 30
0.0
 11
60.49445128880234
 21
259.7149835726036
 31
0.0
  0
ARC
  5
2A07
  8
0
 10
56.30915931826257
 20
257.8437008078838
 30
0.0
 40
3.69429074696669
 50
30.43321587738463
 51
84.38976216971996
  0
ARC
  5
2A08
  8
0
 10
78.11345886221079
 20
256.7798405675651
 30
0.0
 40
4.869076824715402
 50
91.66465424481878
 51
142.9283663898511
  0
ARC
  5
2A09
  8
0
 10
78.66648718886063
 20
256.4899949921635
 30
0.0
 40
4.999999999999716
 50
0.0
 51
68.19625201062387
1001
GENIUS_GENODEF_13
1002
{
1000
HIER
1070
     0
1002
}
1002
{
1000
MANEDIT
1070
     0
1002
}
1002
{
1000
NOSEL
1070
     0
1002
}
1002
{
1000
BEHIND
1070
     0
1002
}
1002
{
1000
REACTOR
1002
}
1001
GENIUS_GENOBJ-N-FIL_13
1002
{
1000
OWNER
1000
GEN
1002
}
  0
LINE
  5
2A0A
  8
0
 10
266.9292028164455
 20
230.7355111244065
 30
0.0
 11
315.9292028164446
 21
230.7355111244065
 31
0.0
  0
LINE
  5
2A0B
  8
0
 10
268.9292028164455
 20
222.9938413736049
 30
0.0
 11
313.9292028164446
 21
222.9938413736049
 31
0.0
  0
LINE
  5
2A0C
  8
0
 10
278.4292028164455
 20
263.9938413736049
 30
0.0
 11
304.4292028164564
 21
263.9938413735968
 31
0.0
  0
ARC
  5
2A0D
  8
0
 10
278.1929401840389
 20
256.1012890942618
 30
0.0
 40
5.951205005509391
 50
37.38880691368301
 51
97.21420027622331
  0
ARC
  5
2A0E
  8
0
 10
278.3232758371823
 20
234.9870584151447
 30
0.0
 40
2.565357953936887
 50
240.6774080382632
 51
316.5238775543725
  0
LINE
  5
2A0F
  8
0
 10
261.682879287041
 20
239.8224100302809
 30
0.0
 11
261.6828792870419
 21
259.8013481918292
 31
0.0
  0
LINE
  5
2A10
  8
0
 10
269.8671821936477
 20
241.9938413736058
 30
0.0
 11
269.8671821936468
 21
259.7149835725882
 31
0.0
  0
ARC
  5
2A11
  8
0
 10
268.9292028164455
 20
224.9938413736049
 30
0.0
 40
1.999999999999943
 50
180.0
 51
270.0
1001
GENIUS_GENODEF_13
1002
{
1000
HIER
1070
     0
1002
}
1002
{
1000
MANEDIT
1070
     0
1002
}
1002
{
1000
NOSEL
1070
     0
1002
}
1002
{
1000
BEHIND
1070
     0
1002
}
1002
{
1000
REACTOR
1002
}
1001
GENIUS_GENOBJ-N-FIL_13
1002
{
1000
OWNER
1000
GEN
1002
}
  0
LINE
  5
2A12
  8
0
 10
263.0950497587692
 20
241.9938413736068
 30
0.0
 11
268.8671821936314
 21
241.9938413736068
 31
0.0
  0
LINE
  5
2A13
  8
0
 10
266.9292028164455
 20
230.7355111244065
 30
0.0
 11
261.682879287041
 21
239.82241003028
 31
0.0
  0
LINE
  5
2A14
  8
0
 10
266.9292028164455
 20
230.7355111244065
 30
0.0
 11
266.9292028164455
 21
224.993841373604
 31
0.0
  0
ARC
  5
2A15
  8
0
 10
282.6578006586469
 20
244.5308157800644
 30
0.0
 40
13.03979140386123
 50
191.2188087997446
 51
244.6115597288438
  0
LINE
  5
2A16
  8
0
 10
262.9509755410027
 20
259.7149835725882
 30
0.0
 11
268.8671821936314
 21
259.7149835725882
 31
0.0
  0
ARC
  5
2A17
  8
0
 10
278.4292028164455
 20
223.9938413736036
 30
0.0
 40
40.00000000000136
 50
90.0
 51
111.8037479893843
  0
ARC
  5
2A18
  8
0
 10
265.4292028164446
 20
256.4899949921501
 30
0.0
 40
4.999999999998328
 50
111.8037479893824
 51
138.5267245313365
1001
GENIUS_GENODEF_13
1002
{
1000
HIER
1070
     0
1002
}
1002
{
1000
MANEDIT
1070
     0
1002
}
1002
{
1000
NOSEL
1070
     0
1002
}
1002
{
1000
BEHIND
1070
     0
1002
}
1002
{
1000
REACTOR
1002
}
1001
GENIUS_GENOBJ-N-FIL_13
1002
{
1000
OWNER
1000
GEN
1002
}
  0
ARC
  5
2A19
  8
0
 10
276.8321732056393
 20
250.3522260539464
 30
0.0
 40
11.66928995911952
 50
86.98674223133894
 51
126.6456998178229
  0
LINE
  5
2A1A
  8
0
 10
321.1755263458645
 20
239.8224100302809
 30
0.0
 11
321.1755263458645
 21
259.8013481918292
 31
0.0
  0
LINE
  5
2A1B
  8
0
 10
282.9213704980975
 20
259.7149835725882
 30
0.0
 11
282.9213704980984
 21
241.9938413736068
 31
0.0
  0
LINE
  5
2A1C
  8
0
 10
299.937035134808
 20
259.7149835725882
 30
0.0
 11
299.937035134808
 21
241.9938413736068
 31
0.0
  0
LINE
  5
2A1D
  8
0
 10
312.9912234392586
 20
241.9938413736058
 30
0.0
 11
312.9912234392586
 21
259.7149835725882
 31
0.0
  0
ARC
  5
2A1E
  8
0
 10
304.5351297957232
 20
234.9870584151447
 30
0.0
 40
2.565357953936903
 50
223.4761224456275
 51
299.3225919617369
  0
LINE
  5
2A1F
  8
0
 10
283.921370498083
 20
241.9938413736068
 30
0.0
 11
298.937035134808
 21
241.9938413736068
 31
0.0
  0
ARC
  5
2A20
  8
0
 10
259.1748072313212
 20
244.5891313884933
 30
0.0
 40
23.88796343861021
 50
331.5850581069334
 51
353.7628312294629
  0
ARC
  5
2A21
  8
0
 10
323.6835984015838
 20
244.5891313884933
 30
0.0
 40
23.88796343861022
 50
186.2371687705372
 51
208.4149418930671
  0
ARC
  5
2A22
  8
0
 10
313.9292028164446
 20
224.9938413736049
 30
0.0
 40
2.0
 50
270.0
 51
0.0
1001
GENIUS_GENODEF_13
1002
{
1000
HIER
1070
     0
1002
}
1002
{
1000
MANEDIT
1070
     0
1002
}
1002
{
1000
NOSEL
1070
     0
1002
}
1002
{
1000
BEHIND
1070
     0
1002
}
1002
{
1000
REACTOR
1002
}
1001
GENIUS_GENOBJ-N-FIL_13
1002
{
1000
OWNER
1000
GEN
1002
}
  0
LINE
  5
2A23
  8
0
 10
319.641728311959
 20
241.9938413736068
 30
0.0
 11
313.9912234392586
 21
241.9938413736068
 31
0.0
  0
ARC
  5
2A24
  8
0
 10
300.2006049742586
 20
244.5308157800644
 30
0.0
 40
13.03979140386123
 50
295.3884402711562
 51
348.7811912002554
  0
LINE
  5
2A25
  8
0
 10
315.9292028164446
 20
230.7355111244065
 30
0.0
 11
315.9292028164446
 21
224.9938413736031
 31
0.0
  0
LINE
  5
2A26
  8
0
 10
315.9292028164446
 20
230.7355111244065
 30
0.0
 11
321.1755263458645
 21
239.8224100303064
 31
0.0
  0
ARC
  5
2A27
  8
0
 10
304.6654654488675
 20
256.1012890942613
 30
0.0
 40
5.951205005509814
 50
82.78579972377723
 51
142.6111930863179
  0
LINE
  5
2A28
  8
0
 10
283.921370498083
 20
259.7149835725882
 30
0.0
 11
298.937035134808
 21
259.7149835725882
 31
0.0
  0
LINE
  5
2A29
  8
0
 10
319.9074300918874
 20
259.7149835725882
 30
0.0
 11
313.9912234392586
 21
259.7149835725882
 31
0.0
  0
ARC
  5
2A2A
  8
0
 10
304.4292028164446
 20
223.9938413736036
 30
0.0
 40
40.00000000000134
 50
68.19625201061636
 51
90.0
  0
ARC
  5
2A2B
  8
0
 10
306.0262324272671
 20
250.3522260539464
 30
0.0
 40
11.66928995911953
 50
53.35430018217712
 51
93.01325776866108
  0
ARC
  5
2A2C
  8
0
 10
317.4292028164609
 20
256.4899949921503
 30
0.0
 40
4.99999999999799
 50
41.47327546866131
 51
68.19625201061613
1001
GENIUS_GENODEF_13
1002
{
1000
HIER
1070
     0
1002
}
1002
{
1000
MANEDIT
1070
     0
1002
}
1002
{
1000
NOSEL
1070
     0
1002
}
1002
{
1000
BEHIND
1070
     0
1002
}
1002
{
1000
REACTOR
1002
}
1001
GENIUS_GENOBJ-N-FIL_13
1002
{
1000
OWNER
1000
GEN
1002
}
  0
LINE
  5
2A2D
  8
0
 10
261.5577581143029
 20
351.8199519632035
 30
0.0
 11
261.5577581143029
 21
333.3313007611146
 31
0.0
  0
LINE
  5
2A2E
  8
0
 10
261.5577581143052
 20
333.3313007611146
 30
0.0
 11
261.5577581143029
 21
314.8199824807816
 31
0.0
  0
LINE
  5
2A2F
  8
0
 10
261.5577581143029
 20
314.8199824807816
 30
0.0
 11
260.1104104501942
 21
309.4184367044145
 31
0.0
  0
LINE
  5
2A30
  8
0
 10
260.5067094512274
 20
310.8974367044143
 30
0.0
 11
258.4292028164514
 21
310.8974367044143
 31
0.0
  0
LINE
  5
2A31
  8
0
 10
260.1104104501942
 20
309.4184367044145
 30
0.0
 11
258.4292028164514
 21
309.4184367044145
 31
0.0
  0
LINE
  5
2A32
  8
0
 10
261.5577581143029
 20
314.8199824807816
 30
0.0
 11
266.8329146420951
 21
314.8199824807816
 31
0.0
  0
LINE
  5
2A33
  8
0
 10
261.5577581143029
 20
351.8199519632035
 30
0.0
 11
260.1104268046042
 21
357.2214367044144
 31
0.0
  0
LINE
  5
2A34
  8
0
 10
260.5067258056374
 20
355.7424367044143
 30
0.0
 11
258.4292028164514
 21
355.7424367044146
 31
0.0
  0
LINE
  5
2A35
  8
0
 10
260.1104268046042
 20
357.2214367044144
 30
0.0
 11
258.4292028164514
 21
357.2214367044146
 31
0.0
  0
LINE
  5
2A36
  8
0
 10
261.5577581143029
 20
351.8199519632035
 30
0.0
 11
266.828666462909
 21
351.8199519632035
 31
0.0
  0
LINE
  5
2A37
  8
0
 10
324.4292028164532
 20
306.0699367044144
 30
0.0
 11
325.5692325426394
 21
304.0953472965198
 31
0.0
  0
LINE
  5
2A38
  8
0
 10
325.5692325426394
 20
362.5445261123091
 30
0.0
 11
324.4292028164532
 21
360.5699367044144
 31
0.0
  0
LINE
  5
2A39
  8
7
 10
291.4292028164514
 20
375.3779330027892
 30
0.0
 11
291.4292028164514
 21
291.2619404060397
 31
0.0
  0
LINE
  5
2A3A
  8
0
 10
258.4292028164514
 20
333.3199367044144
 30
0.0
 11
258.4292028164514
 21
306.0699367044144
 31
0.0
  0
LINE
  5
2A3B
  8
0
 10
258.4292028164514
 20
306.0699367044144
 30
0.0
 11
257.2891730902634
 21
304.0953472965198
 31
0.0
  0
LINE
  5
2A3C
  8
0
 10
257.2891730902634
 20
362.5445261123091
 30
0.0
 11
258.4292028164514
 21
360.5699367044144
 31
0.0
  0
LINE
  5
2A3D
  8
0
 10
258.4292028164514
 20
360.5699367044144
 30
0.0
 11
258.4292028164514
 21
333.3199367044144
 31
0.0
  0
LINE
  5
2A3E
  8
0
 10
324.4292028164532
 20
360.5699367044144
 30
0.0
 11
324.4292028164532
 21
306.0699367044144
 31
0.0
  0
LINE
  5
2A3F
  8
0
 10
321.3006475185998
 20
351.8199519632035
 30
0.0
 11
321.3006475185998
 21
333.3313007611146
 31
0.0
  0
LINE
  5
2A40
  8
0
 10
321.3006475186048
 20
333.3313007611146
 30
0.0
 11
321.3006475185998
 21
314.8199824807816
 31
0.0
  0
LINE
  5
2A41
  8
0
 10
321.3006475185998
 20
314.8199824807816
 30
0.0
 11
322.7479951827086
 21
309.4184367044145
 31
0.0
  0
LINE
  5
2A42
  8
0
 10
322.3516961816754
 20
310.8974367044143
 30
0.0
 11
324.4292028164514
 21
310.8974367044143
 31
0.0
  0
LINE
  5
2A43
  8
0
 10
322.7479951827086
 20
309.4184367044145
 30
0.0
 11
324.4292028164514
 21
309.4184367044145
 31
0.0
  0
LINE
  5
2A44
  8
0
 10
321.3006475185998
 20
314.8199824807816
 30
0.0
 11
316.0257480884543
 21
314.8199824807816
 31
0.0
  0
LINE
  5
2A45
  8
0
 10
321.3006475185998
 20
351.8199519632035
 30
0.0
 11
322.7479788282985
 21
357.2214367044144
 31
0.0
  0
LINE
  5
2A46
  8
0
 10
322.3516798272653
 20
355.7424367044143
 30
0.0
 11
324.4292028164514
 21
355.7424367044146
 31
0.0
  0
LINE
  5
2A47
  8
0
 10
322.7479788282985
 20
357.2214367044144
 30
0.0
 11
324.4292028164514
 21
357.2214367044146
 31
0.0
  0
LINE
  5
2A48
  8
0
 10
321.3006475185998
 20
351.8199519632035
 30
0.0
 11
316.0299800420839
 21
351.8199519632035
 31
0.0
  0
POLYLINE
  5
2A49
  8
0
 66
     1
 10
0.0
 20
0.0
 30
0.0
 70
     1
  0
VERTEX
  5
2A5C
  8
0
 10
298.4508444417993
 20
363.5256139489504
 30
0.0
 42
0.1147433684531263
  0
VERTEX
  5
2A5D
  8
0
 10
284.4075611911035
 20
363.5256139489504
 30
0.0
 42
0.3169980516087132
  0
VERTEX
  5
2A5E
  8
0
 10
282.8736431831235
 20
361.805892933093
 30
0.0
 42
-0.5034443575988989
  0
VERTEX
  5
2A5F
  8
0
 10
271.0472624497802
 20
354.9779288331586
 30
0.0
 42
0.3169980516087056
  0
VERTEX
  5
2A60
  8
0
 10
268.7909813586352
 20
354.5093773788542
 30
0.0
 42
0.1147433684531285
  0
VERTEX
  5
2A61
  8
0
 10
261.7693397332873
 20
342.3475373312106
 30
0.0
 42
0.3169980516087055
  0
VERTEX
  5
2A62
  8
0
 10
262.4917028164514
 20
340.1592648610488
 30
0.0
 42
-0.5034443575988864
  0
VERTEX
  5
2A63
  8
0
 10
262.4917028164514
 20
326.503336661179
 30
0.0
 42
0.3169980516087206
  0
VERTEX
  5
2A64
  8
0
 10
261.7693397332873
 20
324.3150641910172
 30
0.0
 42
0.1147433684531274
  0
VERTEX
  5
2A65
  8
0
 10
268.7909813586352
 20
312.1532241433745
 30
0.0
 42
0.3169980516087066
  0
VERTEX
  5
2A66
  8
0
 10
271.0472624497802
 20
311.6846726890692
 30
0.0
 42
-0.503444357598898
  0
VERTEX
  5
2A67
  8
0
 10
282.8736431831235
 20
304.8567085891348
 30
0.0
 42
0.316998051608725
  0
VERTEX
  5
2A68
  8
0
 10
284.4075611911035
 20
303.1369875732773
 30
0.0
 42
0.1147433684531251
  0
VERTEX
  5
2A69
  8
0
 10
298.4508444417993
 20
303.1369875732773
 30
0.0
 42
0.3169980516087174
  0
VERTEX
  5
2A6A
  8
0
 10
299.9847624497793
 20
304.8567085891348
 30
0.0
 42
-0.503444357598898
  0
VERTEX
  5
2A6B
  8
0
 10
311.8111431831226
 20
311.6846726890692
 30
0.0
 42
0.3169980516087068
  0
VERTEX
  5
2A6C
  8
0
 10
314.0674242742675
 20
312.1532241433745
 30
0.0
 42
0.1147433684531273
  0
VERTEX
  5
2A6D
  8
0
 10
321.0890658996154
 20
324.3150641910172
 30
0.0
 42
0.3169980516087207
  0
VERTEX
  5
2A6E
  8
0
 10
320.3667028164514
 20
326.503336661179
 30
0.0
 42
-0.5034443575988866
  0
VERTEX
  5
2A6F
  8
0
 10
320.3667028164514
 20
340.1592648610488
 30
0.0
 42
0.3169980516087057
  0
VERTEX
  5
2A70
  8
0
 10
321.0890658996154
 20
342.3475373312106
 30
0.0
 42
0.1147433684531281
  0
VERTEX
  5
2A71
  8
0
 10
314.0674242742675
 20
354.5093773788542
 30
0.0
 42
0.3169980516087061
  0
VERTEX
  5
2A72
  8
0
 10
311.8111431831226
 20
354.9779288331586
 30
0.0
 42
-0.5034443575988988
  0
VERTEX
  5
2A73
  8
0
 10
299.9847624497793
 20
361.805892933093
 30
0.0
 42
0.3169980516087095
  0
SEQEND
  5
2A75
  8
0
  0
CIRCLE
  5
2A4A
  8
0
 10
291.4292028164514
 20
333.3313007611143
 30
0.0
 40
11.0
  0
VIEWPORT
  5
22
 67
     1
  8
0
 10
5.269134197284911
 20
5.545311567251436
 30
0.0
 40
11.13808705479925
 41
12.32365374410561
 68
     1
 69
     1
1001
GENIUS_GENSCREG_15
1000
PF
1040
1.0
1000
DF
1040
1.0
1000
MIN
1011
-0.2999093301147138
1021
-0.6165153048013714
1031
0.0
1021
-0.6165153048013714
1031
0.0
1000
MAX
1011
10.83817772468454
1021
11.70713843930424
1031
0.0
1021
11.70713843930424
1031
0.0
1000
FLAGS
1070
     4
1001
GENIUS_GENODEF_13
1002
{
1000
HIER
1070
     0
1002
}
1002
{
1000
MANEDIT
1070
     0
1002
}
1002
{
1000
NOSEL
1070
     0
1002
}
1002
{
1000
BEHIND
1070
     0
1002
}
1002
{
1000
OTHER
1070
     0
1002
}
1002
{
1000
REACTOR
1002
}
1001
GENIUS_GENOBJ-N-SDF_13
1002
{
1000
OWNER
1000
GEN
1002
}
1001
ACAD
1000
MVIEW
1002
{
1070
    16
1010
0.0
1020
0.0
1030
0.0
1020
0.0
1030
0.0
1010
0.0
1020
0.0
1030
1.0
1020
0.0
1030
1.0
1040
0.0
1040
12.32365374410561
1040
5.269134197284911
1040
5.545311567251436
1040
50.0
1040
0.0
1040
0.0
1070
     0
1070
   100
1070
     0
1070
     1
1070
     0
1070
     0
1070
     0
1070
     0
1040
0.0
1040
0.0
1040
0.0
1040
1.0
1040
1.0
1040
10.0
1040
10.0
1070
     0
1002
{
1002
}
1002
}
  0
ENDSEC
  0
EOF
