  0
SECTION
  2
HEADER
  9
$ACADVER
  1
AC1009
  9
$DWGCODEPAGE
  3
ansi_932
  9
$INSBASE
 10
0.0
 20
0.0
 30
0.0
  9
$EXTMIN
 10
0.0
 20
0.0
 30
0.0
  9
$EXTMAX
 10
397.6894105448187
 20
375.3779330027894
 30
0.0
  9
$LIMMIN
 10
0.0
 20
0.0
  9
$LIMMAX
 10
420.0
 20
420.0
  9
$ORTHOMODE
 70
     0
  9
$REGENMODE
 70
     1
  9
$FILLMODE
 70
     1
  9
$QTEXTMODE
 70
     0
  9
$MIRRTEXT
 70
     0
  9
$DRAGMODE
 70
     2
  9
$LTSCALE
 40
10.0
  9
$OSMODE
 70
 15359
  9
$ATTMODE
 70
     1
  9
$TEXTSIZE
 40
3.5
  9
$TRACEWID
 40
1.0
  9
$TEXTSTYLE
  7
STANDARD
  9
$CLAYER
  8
0
  9
$CELTYPE
  6
BYLAYER
  9
$CECOLOR
 62
   256
  9
$DIMSCALE
 40
1.0
  9
$DIMASZ
 40
2.5
  9
$DIMEXO
 40
1.0
  9
$DIMDLI
 40
7.0
  9
$DIMRND
 40
0.0
  9
$DIMDLE
 40
0.0
  9
$DIMEXE
 40
1.0
  9
$DIMTP
 40
0.1
  9
$DIMTM
 40
0.1
  9
$DIMTXT
 40
3.0
  9
$DIMCEN
 40
0.0
  9
$DIMTSZ
 40
0.0
  9
$DIMTOL
 70
     0
  9
$DIMLIM
 70
     0
  9
$DIMTIH
 70
     0
  9
$DIMTOH
 70
     0
  9
$DIMSE1
 70
     0
  9
$DIMSE2
 70
     0
  9
$DIMTAD
 70
     3
  9
$DIMZIN
 70
     8
  9
$DIMBLK
  1
OPEN
  9
$DIMASO
 70
     1
  9
$DIMSHO
 70
     1
  9
$DIMPOST
  1

  9
$DIMAPOST
  1
"
  9
$DIMALT
 70
     0
  9
$DIMALTD
 70
     2
  9
$DIMALTF
 40
0.0393701
  9
$DIMLFAC
 40
1.0
  9
$DIMTOFL
 70
     1
  9
$DIMTVP
 40
0.0
  9
$DIMTIX
 70
     0
  9
$DIMSOXD
 70
     0
  9
$DIMSAH
 70
     0
  9
$DIMBLK1
  1

  9
$DIMBLK2
  1

  9
$DIMSTYLE
  2
AM_JIS
  9
$DIMCLRD
 70
   256
  9
$DIMCLRE
 70
   256
  9
$DIMCLRT
 70
     2
  9
$DIMTFAC
 40
0.71
  9
$DIMGAP
 40
1.0
  9
$LUNITS
 70
     2
  9
$LUPREC
 70
     2
  9
$SKETCHINC
 40
1.0
  9
$FILLETRAD
 40
2.5
  9
$AUNITS
 70
     0
  9
$AUPREC
 70
     0
  9
$MENU
  1
.
  9
$ELEVATION
 40
0.0
  9
$PELEVATION
 40
0.0
  9
$THICKNESS
 40
0.0
  9
$LIMCHECK
 70
     0
  9
$CHAMFERA
 40
2.5
  9
$CHAMFERB
 40
2.5
  9
$SKPOLY
 70
     1
  9
$TDCREATE
 40
2460208.722561319
  9
$TDUPDATE
 40
2460210.72976941
  9
$TDINDWG
 40
0.1295676736
  9
$TDUSRTIMER
 40
0.1294687269
  9
$USRTIMER
 70
     1
  9
$ANGBASE
 50
0.0
  9
$ANGDIR
 70
     0
  9
$PDMODE
 70
     0
  9
$PDSIZE
 40
0.0
  9
$PLINEWID
 40
0.0
  9
$COORDS
 70
     2
  9
$SPLFRAME
 70
     0
  9
$SPLINETYPE
 70
     6
  9
$SPLINESEGS
 70
     8
  9
$ATTDIA
 70
     1
  9
$ATTREQ
 70
     1
  9
$HANDLING
 70
     1
  9
$HANDSEED
  5
2A4C
  9
$SURFTAB1
 70
     6
  9
$SURFTAB2
 70
     6
  9
$SURFTYPE
 70
     6
  9
$SURFU
 70
     6
  9
$SURFV
 70
     6
  9
$UCSNAME
  2

  9
$UCSORG
 10
0.0
 20
0.0
 30
0.0
  9
$UCSXDIR
 10
1.0
 20
0.0
 30
0.0
  9
$UCSYDIR
 10
0.0
 20
1.0
 30
0.0
  9
$PUCSNAME
  2

  9
$PUCSORG
 10
0.0
 20
0.0
 30
0.0
  9
$PUCSXDIR
 10
1.0
 20
0.0
 30
0.0
  9
$PUCSYDIR
 10
0.0
 20
1.0
 30
0.0
  9
$USERI1
 70
     0
  9
$USERI2
 70
     0
  9
$USERI3
 70
     0
  9
$USERI4
 70
     0
  9
$USERI5
 70
     0
  9
$USERR1
 40
0.0
  9
$USERR2
 40
0.0
  9
$USERR3
 40
0.0
  9
$USERR4
 40
0.0
  9
$USERR5
 40
0.0
  9
$WORLDVIEW
 70
     1
  9
$SHADEDGE
 70
     3
  9
$SHADEDIF
 70
    70
  9
$TILEMODE
 70
     1
  9
$MAXACTVP
 70
    48
  9
$PLIMCHECK
 70
     0
  9
$PEXTMIN
 10
1.000000000000000E+20
 20
1.000000000000000E+20
 30
1.000000000000000E+20
  9
$PEXTMAX
 10
-1.000000000000000E+20
 20
-1.000000000000000E+20
 30
-1.000000000000000E+20
  9
$PLIMMIN
 10
-0.2500002402958907
 20
-0.2499999962453767
  9
$PLIMMAX
 10
10.74999951940822
 20
8.249999763458732
  9
$UNITMODE
 70
     0
  9
$VISRETAIN
 70
     1
  9
$PLINEGEN
 70
     0
  9
$PSLTSCALE
 70
     1
  0
ENDSEC
  0
SECTION
  2
TABLES
  0
TABLE
  2
VPORT
 70
     1
  0
VPORT
  2
*ACTIVE
 70
     0
 10
0.0
 20
0.0
 11
1.0
 21
1.0
 12
198.8447052724093
 22
187.688966501394
 13
0.0
 23
0.0
 14
2.5
 24
2.5
 15
10.0
 25
10.0
 16
0.0
 26
0.0
 36
1.0
 17
0.0
 27
0.0
 37
0.0
 40
378.7559121524209
 41
2.295429208472687
 42
50.0
 43
0.0
 44
0.0
 50
0.0
 51
0.0
 71
     0
 72
   100
 73
     1
 74
     3
 75
     0
 76
     0
 77
     0
 78
     0
  0
ENDTAB
  0
TABLE
  2
LTYPE
 70
    14
  0
LTYPE
  2
CONTINUOUS
 70
     0
  3
Solid line
 72
    65
 73
     0
 40
0.0
  0
LTYPE
  2
PHANTOM2
 70
     0
  3
___ _ _ ___ _ _ ___ _ _ ___ _ _ ___ _ _ ___ _ _
 72
    65
 73
     6
 40
1.25
 49
0.625
 49
-0.125
 49
0.125
 49
-0.125
 49
0.125
 49
-0.125
  0
LTYPE
  2
ACJISTGB
 70
     0
  3
__ . . __ . .
 72
    65
 73
     6
 40
9.0
 49
4.0
 49
-1.0
 49
1.0
 49
-1.0
 49
1.0
 49
-1.0
  0
LTYPE
  2
ACJISTGL
 70
     0
  3
_ _ _ _ _
 72
    65
 73
     2
 40
3.0
 49
2.0
 49
-1.0
  0
LTYPE
  2
AM_ISO02W050
 70
     0
  3
__ __ __ __ __ __ __ __ __ __ __ __ __ __ __
 72
    65
 73
     2
 40
7.5
 49
6.0
 49
-1.5
  0
LTYPE
  2
AM_ISO08W050
 70
     0
  3
____ . ____ . ____ . ____ . ____ . ____ . ____
 72
    65
 73
     4
 40
18.0
 49
12.0
 49
-1.5
 49
3.0
 49
-1.5
  0
LTYPE
  2
AM_ISO09W050
 70
     0
  3
_____ . . _____ . . _____ . . ____ .. ____
 72
    65
 73
     6
 40
22.5
 49
12.0
 49
-1.5
 49
3.0
 49
-1.5
 49
3.0
 49
-1.5
  0
LTYPE
  2
AM_ISO02W050X2
 70
     0
  3
 _ _ _ _ _ _ _ _ _ _ _ _
 72
    65
 73
     2
 40
3.75
 49
3.0
 49
-0.75
  0
LTYPE
  2
AM_ISO08W050X2
 70
     0
  3
__ . __ . __ . __ . __ . __
 72
    65
 73
     4
 40
9.0
 49
6.0
 49
-0.75
 49
1.5
 49
-0.75
  0
LTYPE
  2
AMZIGZAG
 70
     0
  3
/\/-/\/-/\/-/\/-/\/-/\/
 72
    65
 73
     2
 40
11.0001
 49
0.0001
 49
-11.0
  0
LTYPE
  2
AMCONSTR
 70
     0
  3
_______________________
 72
    65
 73
     2
 40
9999.0
 49
9999.0
 49
0.0
  0
LTYPE
  2
CENTER2
 70
     0
  3
Center (.5x) ___ _ ___ _ ___ _ ___ _ ___ _ ___
 72
    65
 73
     4
 40
1.125
 49
0.75
 49
-0.125
 49
0.125
 49
-0.125
  0
LTYPE
  2
HIDDEN2
 70
     0
  3
Hidden (.5x) _ _ _ _ _ _ _ _ _ _ _ _ _ _ _ _ _
 72
    65
 73
     2
 40
0.1875
 49
0.125
 49
-0.0625
  0
LTYPE
  2
ACJISWELD
 70
     0
  3
_ _ _ _ _
 72
    65
 73
     2
 40
2.0
 49
2.0
 49
-1.0
  0
ENDTAB
  0
TABLE
  2
LAYER
 70
     5
  0
LAYER
  2
0
 70
     0
 62
     7
  6
CONTINUOUS
  0
LAYER
  2
7
 70
     0
 62
     4
  6
CENTER2
  0
LAYER
  2
BEHIND
 70
     0
 62
   253
  6
CONTINUOUS
  0
LAYER
  2
AM_0
 70
     0
 62
     7
  6
CONTINUOUS
  0
LAYER
  2
10
 70
     0
 62
     2
  6
CONTINUOUS
  0
ENDTAB
  0
TABLE
  2
STYLE
 70
     4
  0
STYLE
  2
STANDARD
 70
     0
 40
0.0
 41
1.0
 50
0.0
 71
     0
 42
3.5
  3
isocp.shx
  4
extfont.shx
  0
STYLE
  2
ACJISTS
 70
     0
 40
1.0
 41
1.0
 50
0.0
 71
     0
 42
3.5
  3
isocp.shx
  4
extfont.shx
  0
STYLE
  2
ACJISGDT
 70
     0
 40
0.0
 41
1.0
 50
0.0
 71
     0
 42
3.5
  3
amgdt.shx
  4
extfont.shx
  0
STYLE
  2

 70
     1
 40
0.0
 41
1.0
 50
0.0
 71
     0
 42
3.5
  3
ltypeshp.shx
  4

  0
ENDTAB
  0
TABLE
  2
VIEW
 70
     3
  0
VIEW
  2
AMDTVIEW1
 70
     0
 40
329.0721649484536
 10
210.0
 20
164.5360824742268
 41
420.0
 11
0.0
 21
0.0
 31
1.0
 12
0.0
 22
0.0
 32
0.0
 42
50.0
 43
0.0
 44
0.0
 50
0.0
 71
     0
  0
VIEW
  2
AMDTVIEW2
 70
     0
 40
329.0721649484536
 10
210.0
 20
164.5360824742268
 41
420.0
 11
0.0
 21
0.0
 31
1.0
 12
0.0
 22
0.0
 32
0.0
 42
50.0
 43
0.0
 44
0.0
 50
0.0
 71
     0
  0
VIEW
  2
AMDTVIEW3
 70
     0
 40
329.0721649484536
 10
210.0
 20
164.5360824742268
 41
420.0
 11
0.0
 21
0.0
 31
1.0
 12
0.0
 22
0.0
 32
0.0
 42
50.0
 43
0.0
 44
0.0
 50
0.0
 71
     0
  0
ENDTAB
  0
TABLE
  2
UCS
 70
     0
  0
ENDTAB
  0
TABLE
  2
APPID
 70
    67
  0
APPID
  2
ACAD
 70
     0
  0
APPID
  2
AD_DRAW
 70
     0
  0
APPID
  2
DESIGNERASSEMBLIES
 70
     0
  0
APPID
  2
MCAD_NO_VIS
 70
     0
  0
APPID
  2
ASURF_PCURVE_APPNAME
 70
     0
  0
APPID
  2
ACAD_TEMP_GRAPHIC
 70
     0
  0
APPID
  2
ACATTRIBSERVICES
 70
     0
  0
APPID
  2
ACADM_DIM_EDIT
 70
     0
  0
APPID
  2
GENIUS_GENDIM_13
 70
     0
  0
APPID
  2
GENIUS_GENDTOL_13
 70
     0
  0
APPID
  2
GENIUS_GE3DTOL_13
 70
     0
  0
APPID
  2
AMG_3D2D_5_0
 70
     0
  0
APPID
  2
AMDT_DM_ADJ
 70
     0
  0
APPID
  2
ACAD_PSEXT
 70
     0
  0
APPID
  2
ACAD_DSTYLE_DIMTEXT_FILL
 70
     0
  0
APPID
  2
ACAECLAYERSTANDARD
 70
     0
  0
APPID
  2
GENIUS_GENREC_14
 70
     0
  0
APPID
  2
GENIUS_GENODEF_13
 70
     0
  0
APPID
  2
GENIUS_GENOBJ-N-REC_13
 70
     0
  0
APPID
  2
DCO15
 70
     0
  0
APPID
  2
ACAD_DSTYLE_DIMJAG
 70
     0
  0
APPID
  2
ACAD_DSTYLE_DIMTALN
 70
     0
  0
APPID
  2
ACAD_MLEADERVER
 70
     0
  0
APPID
  2
GENIUS_GENSCREG_15
 70
     0
  0
APPID
  2
GENIUS_GENOBJ-N-SDF_13
 70
     0
  0
APPID
  2
ACAD_NAV_VCDISPLAY
 70
     0
  0
APPID
  2
ACAD_EXEMPT_FROM_CAD_STAND
 70
     0
  0
APPID
  2
ACCMTRANSPARENCY
 70
     0
  0
APPID
  2
HC_SUPERPART
 70
     0
  0
APPID
  2
HC_SP4BLOCK
 70
     0
  0
APPID
  2
HC_XDATA_SPRING
 70
     0
  0
APPID
  2
HCCAD_FRAME
 70
     0
  0
APPID
  2
GENIUS_GENOLIS_13
 70
     0
  0
APPID
  2
GENIUS_GENOENT_13
 70
     0
  0
APPID
  2
GENIUS_GENOREF_13
 70
     0
  0
APPID
  2
GENIUS_GENOBJ-N-TIT_13
 70
     0
  0
APPID
  2
GENIUS_GENOBJ-N-ZOO_13
 70
     0
  0
APPID
  2
GENIUS_GENTITLE_13
 70
     0
  0
APPID
  2
GENIUS_GENSYMENT_13
 70
     0
  0
APPID
  2
GENIUS_GENSCSYM_13
 70
     0
  0
APPID
  2
GENIUS_GENOBJ-N-REV_13
 70
     0
  0
APPID
  2
GENIUS_GENOBJ-N-RSSYM_13
 70
     0
  0
APPID
  2
GENIUS_GENREV_15
 70
     0
  0
APPID
  2
HRA
 70
     0
  0
APPID
  2
HTIT
 70
     0
  0
APPID
  2
GENIUS_GENZOO_17
 70
     0
  0
APPID
  2
GENIUS_GENOBJ-N-CEN_13
 70
     0
  0
APPID
  2
GENIUS_GENCEN_19
 70
     0
  0
APPID
  2
GENIUS_GENOBJ-N-CRS_13
 70
     0
  0
APPID
  2
GENIUS_GENCRS_20
 70
     0
  0
APPID
  2
GENIUS_GENOBJ-N-CRC_13
 70
     0
  0
APPID
  2
GENIUS_GENCRC_14
 70
     0
  0
APPID
  2
GENIUS_GENFIL_13
 70
     0
  0
APPID
  2
GENIUS_GENOBJ-N-CHA_13
 70
     0
  0
APPID
  2
GENIUS_GENOBJ-N-FIL_13
 70
     0
  0
APPID
  2
GENIUS_GENHATCH_13
 70
     0
  0
APPID
  2
GENIUS_GENOBJ-N-HTC_13
 70
     0
  0
APPID
  2
GENIUS_GENOBJ-N-DIM_13
 70
     0
  0
APPID
  2
GENIUS_GENOBJ-N-DIMLI_13
 70
     0
  0
APPID
  2
GENIUS_GENOBJ-N-FITL_13
 70
     0
  0
APPID
  2
GENIUS_GENFITL_13
 70
     0
  0
APPID
  2
GENLAYCOLOR
 70
     0
  0
APPID
  2
ACAD_DSTYLE_DIMBREAK
 70
     0
  0
APPID
  2
ACADANNOTATIVE
 70
     0
  0
APPID
  2
ACADANNOPO
 70
     0
  0
APPID
  2
GRPNAME
 70
     0
  0
APPID
  2
PLOTTRANSPARENCY
 70
     0
  0
ENDTAB
  0
TABLE
  2
DIMSTYLE
 70
     8
  0
DIMSTYLE
  2
STANDARD
 70
     0
  3

  4

  5

  6

  7

 40
1.0
 41
2.5
 42
0.625
 43
3.75
 44
1.25
 45
0.0
 46
0.0
 47
0.0
 48
0.0
140
2.5
141
2.5
142
0.0
143
0.0394
144
1.0
145
0.0
146
1.0
147
0.625
 71
     0
 72
     0
 73
     0
 74
     0
 75
     0
 76
     0
 77
     1
 78
     8
170
     0
171
     4
172
     1
173
     0
174
     0
175
     0
176
     0
177
     0
178
     0
  0
DIMSTYLE
  2
ISO-25
 70
     0
  3

  4

  5

  6

  7

 40
1.0
 41
2.5
 42
0.625
 43
3.75
 44
1.25
 45
0.0
 46
0.0
 47
0.0
 48
0.0
140
2.5
141
2.5
142
0.0
143
0.0394
144
1.0
145
0.0
146
1.0
147
0.625
 71
     0
 72
     0
 73
     0
 74
     0
 75
     0
 76
     0
 77
     1
 78
     8
170
     0
171
     4
172
     1
173
     0
174
     0
175
     0
176
     0
177
     0
178
     0
  0
DIMSTYLE
  2
AM_JIS
 70
     0
  3

  4
"
  5
OPEN
  6

  7

 40
1.0
 41
2.5
 42
1.0
 43
7.0
 44
1.0
 45
0.0
 46
0.0
 47
0.1
 48
0.1
140
3.0
141
0.0
142
0.0
143
0.0393701
144
1.0
145
0.0
146
0.71
147
1.0
 71
     0
 72
     0
 73
     0
 74
     0
 75
     0
 76
     0
 77
     3
 78
     8
170
     0
171
     2
172
     1
173
     0
174
     0
175
     0
176
   256
177
   256
178
     2
  0
DIMSTYLE
  2
AM_JIS$3
 70
     0
  3

  4
"
  5
OPEN
  6

  7

 40
1.0
 41
2.5
 42
1.0
 43
10.0
 44
1.0
 45
0.0
 46
0.0
 47
0.1
 48
0.1
140
3.0
141
0.0
142
0.0
143
0.0393701
144
1.0
145
0.0
146
0.71
147
1.0
 71
     0
 72
     0
 73
     0
 74
     0
 75
     0
 76
     0
 77
     3
 78
     8
170
     0
171
     2
172
     1
173
     0
174
     0
175
     0
176
   256
177
   256
178
     2
  0
DIMSTYLE
  2
AM_JIS$4
 70
     0
  3

  4
"
  5

  6
OPEN30
  7
OPEN
 40
1.0
 41
2.5
 42
1.0
 43
10.0
 44
1.0
 45
0.0
 46
0.0
 47
0.1
 48
0.1
140
3.0
141
0.0
142
0.0
143
0.0393701
144
1.0
145
0.0
146
0.71
147
1.0
 71
     0
 72
     0
 73
     0
 74
     0
 75
     1
 76
     0
 77
     3
 78
     8
170
     0
171
     2
172
     1
173
     1
174
     0
175
     0
176
   256
177
   256
178
     2
  0
DIMSTYLE
  2
AM_JIS$6
 70
     0
  3

  4
"
  5
OPEN30
  6
OPEN30
  7
OPEN30
 40
1.0
 41
2.5
 42
1.0
 43
10.0
 44
1.0
 45
0.0
 46
0.0
 47
0.1
 48
0.1
140
3.5
141
0.0
142
0.0
143
0.0393701
144
1.0
145
0.0
146
0.71
147
1.5
 71
     0
 72
     0
 73
     0
 74
     0
 75
     0
 76
     0
 77
     0
 78
     8
170
     0
171
     2
172
     1
173
     0
174
     0
175
     0
176
   256
177
   256
178
     2
  0
DIMSTYLE
  2
AM_JIS$7
 70
     0
  3

  4
"
  5
OPEN30
  6

  7

 40
1.0
 41
2.5
 42
1.0
 43
10.0
 44
1.0
 45
0.0
 46
0.0
 47
0.1
 48
0.1
140
3.0
141
0.0
142
0.0
143
0.0393701
144
1.0
145
0.0
146
0.71
147
1.0
 71
     0
 72
     0
 73
     0
 74
     0
 75
     0
 76
     0
 77
     3
 78
     8
170
     0
171
     2
172
     1
173
     0
174
     0
175
     0
176
   256
177
   256
178
     2
  0
DIMSTYLE
  2
AM_JIS$0
 70
     0
  3

  4
"
  5
OPEN
  6

  7

 40
1.0
 41
2.5
 42
1.0
 43
7.0
 44
1.0
 45
0.0
 46
0.0
 47
0.1
 48
0.1
140
3.0
141
0.0
142
0.0
143
0.0393701
144
1.0
145
0.0
146
0.71
147
1.0
 71
     0
 72
     0
 73
     0
 74
     0
 75
     0
 76
     0
 77
     3
 78
     8
170
     0
171
     2
172
     1
173
     0
174
     0
175
     0
176
   256
177
   256
178
     2
  0
ENDTAB
  0
ENDSEC
  0
SECTION
  2
BLOCKS
  0
BLOCK
  8
0
  2
$MODEL_SPACE
 70
     0
 10
0.0
 20
0.0
 30
0.0
  3
$MODEL_SPACE
  1

  0
ENDBLK
  5
1C
  8
0
  0
BLOCK
 67
     1
  8
0
  2
$PAPER_SPACE
 70
     0
 10
0.0
 20
0.0
 30
0.0
  3
$PAPER_SPACE
  1

  0
ENDBLK
  5
19
 67
     1
  8
0
  0
BLOCK
  8
0
  2
_OPEN30
 70
     0
 10
0.0
 20
0.0
 30
0.0
  3
_OPEN30
  1

  0
LINE
  5
2EF
  8
0
  6
BYBLOCK
 62
     0
 10
-1.0
 20
0.26794919
 30
0.0
 11
0.0
 21
0.0
 31
0.0
  0
LINE
  5
2F0
  8
0
  6
BYBLOCK
 62
     0
 10
0.0
 20
0.0
 30
0.0
 11
-1.0
 21
-0.26794919
 31
0.0
  0
LINE
  5
2F1
  8
0
  6
BYBLOCK
 62
     0
 10
0.0
 20
0.0
 30
0.0
 11
-1.0
 21
0.0
 31
0.0
  0
ENDBLK
  5
2F3
  8
0
  0
BLOCK
  8
0
  2
_OPEN
 70
     0
 10
0.0
 20
0.0
 30
0.0
  3
_OPEN
  1

  0
LINE
  5
597
  8
0
  6
BYBLOCK
 62
     0
 10
-1.0
 20
0.1666666666666667
 30
0.0
 11
0.0
 21
0.0
 31
0.0
  0
LINE
  5
598
  8
0
  6
BYBLOCK
 62
     0
 10
-1.0
 20
-0.1666666666666667
 30
0.0
 11
0.0
 21
0.0
 31
0.0
  0
LINE
  5
599
  8
0
  6
BYBLOCK
 62
     0
 10
0.0
 20
0.0
 30
0.0
 11
-1.0
 21
0.0
 31
0.0
  0
ENDBLK
  5
59B
  8
0
  0
BLOCK
  8
0
  2
_TAGCIRCLE
 70
     2
 10
0.0
 20
0.0
 30
0.0
  3
_TAGCIRCLE
  1

  0
CIRCLE
  5
1151
  8
0
  6
BYBLOCK
 62
     0
 10
0.0
 20
0.0
 30
0.0
 40
4.0
  0
ATTDEF
  5
1152
  8
0
 62
     0
 10
-7.1
 20
-1.5
 30
0.0
 40
3.0
  1
タグ番号
 72
     1
 11
0.0
 21
-1.5
 31
0.0
  3
タグ番号を入力
  2
タグ番号
 70
     0
  0
ENDBLK
  5
1154
  8
0
  0
BLOCK
  8
AM_0
  2
_ACMOPEN30
 70
     0
 10
0.0
 20
0.0
 30
0.0
  3
_ACMOPEN30
  1
Acad:XRef
  0
LINE
  5
1CA4
  8
AM_0
 62
     0
 10
-1.0
 20
0.0
 30
0.0
 11
0.0
 21
0.0
 31
0.0
  0
LINE
  5
1CA5
  8
AM_0
 62
     0
 10
-1.0
 20
-0.2679491924311227
 30
0.0
 11
0.0
 21
0.0
 31
0.0
  0
LINE
  5
1CA6
  8
AM_0
 62
     0
 10
-1.0
 20
0.2679491924311227
 30
0.0
 11
0.0
 21
0.0
 31
0.0
  0
ENDBLK
  5
1CA7
  8
AM_0
  0
ENDSEC
  0
SECTION
  2
ENTITIES
  0
LINE
  5
28CE
  8
0
 10
208.4292028164509
 20
156.7336802920267
 30
0.0
 11
191.4292028164509
 21
156.436944188247
 31
0.0
  0
LINE
  5
28CF
  8
0
 10
208.4292028164509
 20
155.2546802920267
 30
0.0
 11
191.4292028164509
 21
154.957944188247
 31
0.0
  0
LINE
  5
28D0
  8
0
 10
191.4292028164509
 20
123.5506604374552
 30
0.0
 11
208.4292028164509
 21
123.2539243336757
 31
0.0
  0
LINE
  5
28D1
  8
0
 10
191.4292028164509
 20
125.0296604374555
 30
0.0
 11
208.4292028164509
 21
124.7329243336758
 31
0.0
  0
LINE
  5
28D2
  8
0
 10
76.66647957400755
 20
153.8502087734021
 30
0.0
 11
52.66647957400846
 21
167.7066152339528
 31
0.0
  0
LINE
  5
28D3
  8
0
 10
52.66647957400846
 20
112.2809893917499
 30
0.0
 11
76.66647957400755
 21
126.1373958523006
 31
0.0
  0
CIRCLE
  5
28D4
  8
0
 10
52.66647957400846
 20
139.9938023128514
 30
0.0
 40
24.0
  0
CIRCLE
  5
28D5
  8
0
 10
52.66647957400846
 20
139.9938023128514
 30
0.0
 40
16.75
  0
CIRCLE
  5
28D6
  8
0
 10
52.66647957400846
 20
139.9938023128514
 30
0.0
 40
16.44314187539589
  0
LINE
  5
28D7
  8
0
 10
66.66647957400846
 20
162.6540272495433
 30
0.0
 11
71.66647957400846
 21
163.9937870540623
 31
0.0
  0
LINE
  5
28D8
  8
0
 10
69.29097957400836
 20
110.1898299320881
 30
0.0
 11
66.16647957400846
 21
111.9937668619539
 31
0.0
  0
LINE
  5
28D9
  8
0
 10
39.77877450726419
 20
39.99380231285113
 30
0.0
 11
65.55418464075183
 21
39.99380231285136
 31
0.0
  0
LINE
  5
28DA
  8
0
 10
39.41647957400846
 20
54.99380231285136
 30
0.0
 11
65.88697957400882
 21
54.99380231285136
 31
0.0
  0
LINE
  5
28DB
  8
0
 10
39.41647957400846
 20
83.99380231285136
 30
0.0
 11
39.41647957400846
 21
50.36857178470041
 31
0.0
  0
LINE
  5
28DC
  8
0
 10
39.41647957400846
 20
50.36857178470041
 30
0.0
 11
39.77877450726419
 21
39.99380231285113
 31
0.0
  0
LINE
  5
28DD
  8
0
 10
40.41696296488817
 20
54.99380231285136
 30
0.0
 11
40.94077450726445
 21
39.99380231285136
 31
0.0
  0
LINE
  5
28DE
  8
0
 10
65.91647957400846
 20
83.99380231285136
 30
0.0
 11
65.91647957400846
 21
50.36857178469495
 31
0.0
  0
LINE
  5
28DF
  8
0
 10
65.91647957400846
 20
50.36857178469495
 30
0.0
 11
65.55418464075183
 21
39.99380231285136
 31
0.0
  0
LINE
  5
28E0
  8
0
 10
64.91599618312875
 20
54.99380231285136
 30
0.0
 11
64.39218464075248
 21
39.99380231285136
 31
0.0
  0
LINE
  5
28E1
  8
0
 10
52.66647957400846
 20
167.7066152339528
 30
0.0
 11
28.66647957400937
 21
153.8502087734021
 31
0.0
  0
LINE
  5
28E2
  8
0
 10
28.66647957400937
 20
126.1373958523006
 30
0.0
 11
52.66647957400846
 21
112.2809893917499
 31
0.0
  0
CIRCLE
  5
28E3
  8
0
 10
52.66647957400846
 20
139.9938023128514
 30
0.0
 40
14.96414187539585
  0
CIRCLE
  5
28E4
  8
0
 10
52.66647957400846
 20
139.9938023128514
 30
0.0
 40
12.0
  0
LINE
  5
28E5
  8
0
 10
39.16647957400846
 20
111.9937639549601
 30
0.0
 11
66.16647957400846
 21
111.9937668619539
 31
0.0
  0
LINE
  5
28E6
  8
0
 10
28.66647957400937
 20
153.8502087734021
 30
0.0
 11
28.66647957400937
 21
126.1373958523006
 31
0.0
  0
LINE
  5
28E7
  8
0
 10
39.16647957400846
 20
119.7617619075779
 30
0.0
 11
38.83581197263311
 21
120.2661290544763
 31
0.0
  0
LINE
  5
28E8
  8
0
 10
37.52097957400883
 20
111.0437404868003
 30
0.0
 11
37.52097957400883
 21
103.9938023128514
 31
0.0
  0
LINE
  5
28E9
  8
0
 10
36.04197957400856
 20
110.1898451908976
 30
0.0
 11
36.04197957400856
 21
103.9938023128514
 31
0.0
  0
LINE
  5
28EA
  8
0
 10
36.04197957400856
 20
110.1898451908976
 30
0.0
 11
39.16647957400846
 21
111.9937639549601
 31
0.0
  0
LINE
  5
28EB
  8
0
 10
39.16647957400846
 20
111.9937639549601
 30
0.0
 11
39.16647957400846
 21
119.7617619075779
 31
0.0
  0
LINE
  5
28EC
  8
0
 10
33.66647957400846
 20
163.9938023128514
 30
0.0
 11
38.66647957400846
 21
162.6540425083326
 31
0.0
  0
LINE
  5
28ED
  8
0
 10
33.66647957400846
 20
163.9938023128514
 30
0.0
 11
33.66647957400846
 21
167.4938023128518
 31
0.0
  0
LINE
  5
28EE
  8
0
 10
38.66647957400846
 20
162.6540425083326
 30
0.0
 11
43.91516690429717
 21
162.6540425083324
 31
0.0
  0
LINE
  5
28EF
  8
0
 10
37.75076185383159
 20
159.0950215930523
 30
0.0
 11
38.66647874880937
 21
160.4938037421371
 31
0.0
  0
LINE
  5
28F0
  8
0
 10
38.66647957400846
 20
160.4938023128514
 30
0.0
 11
38.66647957400846
 21
162.6540425083326
 31
0.0
  0
LINE
  5
28F1
  8
0
 10
66.16647957400846
 20
119.7617619075779
 30
0.0
 11
66.49714717538382
 21
120.2661290544766
 31
0.0
  0
LINE
  5
28F2
  8
0
 10
67.81197957400809
 20
111.0437338268778
 30
0.0
 11
67.81197957400809
 21
103.9938023128514
 31
0.0
  0
LINE
  5
28F3
  8
0
 10
66.16647957400846
 20
111.9937668619539
 30
0.0
 11
66.16647957400846
 21
119.7617619075779
 31
0.0
  0
LINE
  5
28F4
  8
0
 10
61.41779224371976
 20
162.6540425083324
 30
0.0
 11
66.66647957400846
 21
162.6540425083322
 31
0.0
  0
LINE
  5
28F5
  8
0
 10
66.66647957400846
 20
160.4938023128514
 30
0.0
 11
66.66647957400846
 21
162.6540272495433
 31
0.0
  0
LINE
  5
28F6
  8
0
 10
67.58219729418533
 20
159.0950215930523
 30
0.0
 11
66.66648039920756
 21
160.4938037421371
 31
0.0
  0
LINE
  5
28F7
  8
0
 10
76.66647957400755
 20
126.1373958523006
 30
0.0
 11
76.66647957400755
 21
153.8502087734021
 31
0.0
  0
LINE
  5
28F8
  8
0
 10
69.29097957400836
 20
110.1898299320881
 30
0.0
 11
69.29097957400836
 21
103.9938023128514
 31
0.0
  0
LINE
  5
28F9
  8
0
 10
71.66647957400846
 20
163.9937870540623
 30
0.0
 11
71.66647957400755
 21
167.4938023128516
 31
0.0
  0
LINE
  5
28FA
  8
0
 10
191.4292028164509
 20
156.436944188247
 30
0.0
 11
191.4292028164509
 21
123.5506604374552
 31
0.0
  0
LINE
  5
28FB
  8
0
 10
374.4292028164509
 20
123.2539243336757
 30
0.0
 11
391.4292028164509
 21
123.5506604374552
 31
0.0
  0
LINE
  5
28FC
  8
0
 10
374.4292028164509
 20
124.7329243336758
 30
0.0
 11
391.4292028164509
 21
125.0296604374555
 31
0.0
  0
LINE
  5
28FD
  8
0
 10
391.4292028164509
 20
156.436944188247
 30
0.0
 11
374.4292028164509
 21
156.7336802920267
 31
0.0
  0
LINE
  5
28FE
  8
0
 10
391.4292028164509
 20
154.9579441882472
 30
0.0
 11
374.4292028164509
 21
155.2546802920267
 31
0.0
  0
LINE
  5
28FF
  8
0
 10
310.4292028164509
 20
103.9938023128514
 30
0.0
 11
272.4292028164509
 21
103.9938023128514
 31
0.0
  0
LINE
  5
2900
  8
0
 10
310.4292028164509
 20
83.99380231285136
 30
0.0
 11
272.4292028164509
 21
83.99380231285136
 31
0.0
  0
LINE
  5
2901
  8
0
 10
278.5414977497076
 20
39.99380231285113
 30
0.0
 11
304.3169078831952
 21
39.99380231285136
 31
0.0
  0
LINE
  5
2902
  8
0
 10
278.1792028164509
 20
54.99380231285136
 30
0.0
 11
304.6497028164513
 21
54.99380231285136
 31
0.0
  0
LINE
  5
2903
  8
0
 10
277.9292028164509
 20
111.9937639549601
 30
0.0
 11
304.9292028164509
 21
111.9937668619539
 31
0.0
  0
LINE
  5
2904
  8
0
 10
277.4292028164509
 20
162.6540425083326
 30
0.0
 11
305.4292028164509
 21
162.6540272495433
 31
0.0
  0
LINE
  5
2905
  8
0
 10
301.2628593952222
 20
142.4938023128514
 30
0.0
 11
281.4421282753528
 21
142.4938023128514
 31
0.0
  0
LINE
  5
2906
  8
0
 10
281.5573667315593
 20
137.4938023128514
 30
0.0
 11
301.2628593952222
 21
137.4938023128514
 31
0.0
  0
LINE
  5
2907
  8
0
 10
242.1420157375524
 20
112.2809893917499
 30
0.0
 11
258.7163898953495
 21
112.2809893917499
 31
0.0
  0
LINE
  5
2908
  8
0
 10
242.1420157375524
 20
167.7066152339528
 30
0.0
 11
258.7163898953495
 21
167.7066152339528
 31
0.0
  0
LINE
  5
2909
  8
0
 10
238.4292028164509
 20
156.7438023128514
 30
0.0
 11
208.4292028164509
 21
156.7438023128514
 31
0.0
  0
LINE
  5
290A
  8
0
 10
238.4292028164509
 20
123.2438023128514
 30
0.0
 11
208.4292028164509
 21
123.2438023128514
 31
0.0
  0
LINE
  5
290B
  8
0
 10
208.4292028164509
 20
156.7438023128514
 30
0.0
 11
208.4292028164509
 21
123.2539243336757
 31
0.0
  0
LINE
  5
290C
  8
0
 10
238.4292028164509
 20
115.9938023128514
 30
0.0
 11
238.4292028164509
 21
163.9938023128514
 31
0.0
  0
LINE
  5
290D
  8
0
 10
242.1420157375524
 20
112.2809893917499
 30
0.0
 11
238.4292028164509
 21
115.9938023128514
 31
0.0
  0
LINE
  5
290E
  8
0
 10
238.4292028164518
 20
163.9938023128518
 30
0.0
 11
242.1420157375524
 21
167.7066152339528
 31
0.0
  0
LINE
  5
290F
  8
0
 10
272.4292028164509
 20
103.9938023128514
 30
0.0
 11
269.4898925872449
 21
101.0544920836453
 31
0.0
  0
LINE
  5
2910
  8
0
 10
278.1792028164509
 20
83.99380231285136
 30
0.0
 11
278.1792028164509
 21
50.36857178470041
 31
0.0
  0
LINE
  5
2911
  8
0
 10
278.1792028164509
 20
50.36857178470041
 30
0.0
 11
278.5414977497076
 21
39.99380231285113
 31
0.0
  0
LINE
  5
2912
  8
0
 10
279.1796862073306
 20
54.99380231285136
 30
0.0
 11
279.7034977497069
 21
39.99380231285136
 31
0.0
  0
LINE
  5
2913
  8
0
 10
272.4292028164509
 20
83.99380231285136
 30
0.0
 11
269.4898925872449
 21
86.93311254205696
 31
0.0
  0
LINE
  5
2914
  8
0
 10
269.4898925872449
 20
86.93311254205696
 30
0.0
 11
269.4898925872449
 21
101.0544920836453
 31
0.0
  0
LINE
  5
2915
  8
0
 10
266.4292028164509
 20
157.9938023128514
 30
0.0
 11
272.9458806728962
 21
157.9938023128514
 31
0.0
  0
LINE
  5
2916
  8
0
 10
266.4292028164509
 20
121.9938175716404
 30
0.0
 11
275.2761724209431
 21
121.9938175716404
 31
0.0
  0
LINE
  5
2917
  8
0
 10
262.4292028164509
 20
115.9938023128514
 30
0.0
 11
262.4292028164509
 21
163.9938023128514
 31
0.0
  0
LINE
  5
2918
  8
0
 10
266.4292028164509
 20
157.9938023128514
 30
0.0
 11
266.4292028164509
 21
121.9938175716404
 31
0.0
  0
LINE
  5
2919
  8
0
 10
266.4291875576619
 20
121.9938023128514
 30
0.0
 11
263.4741857266072
 21
119.0388004817967
 31
0.0
  0
LINE
  5
291A
  8
0
 10
258.7163898953495
 20
112.2809893917499
 30
0.0
 11
262.4292028164509
 21
115.9938023128514
 31
0.0
  0
LINE
  5
291B
  8
0
 10
262.4292028164509
 20
119.0388023128512
 30
0.0
 11
263.4741875576619
 21
119.0388023128512
 31
0.0
  0
LINE
  5
291C
  8
0
 10
262.4292028164509
 20
120.5178023128512
 30
0.0
 11
264.9531875576622
 21
120.5178023128512
 31
0.0
  0
LINE
  5
291D
  8
0
 10
263.4742009853962
 20
160.948804143906
 30
0.0
 11
266.4292028164509
 21
157.9938023128514
 31
0.0
  0
LINE
  5
291E
  8
0
 10
262.4292028164509
 20
163.9938023128514
 30
0.0
 11
258.7163898953495
 21
167.7066152339528
 31
0.0
  0
LINE
  5
291F
  8
0
 10
262.4292028164509
 20
159.4698023128512
 30
0.0
 11
264.9532028164513
 21
159.4698023128512
 31
0.0
  0
LINE
  5
2920
  8
0
 10
262.4292028164509
 20
160.9488023128513
 30
0.0
 11
263.474202816451
 21
160.9488023128513
 31
0.0
  0
LINE
  5
2921
  8
0
 10
279.9292028164509
 20
138.329405108396
 30
0.0
 11
279.9292028164509
 21
141.6701870928403
 31
0.0
  0
LINE
  5
2922
  8
0
 10
280.8659453354512
 20
135.4494241414343
 30
0.0
 11
277.5240768111189
 21
123.3534943849511
 31
0.0
  0
LINE
  5
2923
  8
0
 10
275.2761724209431
 20
121.9938175716404
 30
0.0
 11
277.9292028164509
 21
119.2413529900634
 31
0.0
  0
LINE
  5
2924
  8
0
 10
276.2837028164513
 20
111.0437404868003
 30
0.0
 11
276.2837028164513
 21
103.9938023128514
 31
0.0
  0
LINE
  5
2925
  8
0
 10
274.804702816451
 20
110.1898451908976
 30
0.0
 11
274.804702816451
 21
103.9938023128514
 31
0.0
  0
LINE
  5
2926
  8
0
 10
277.9292028164509
 20
111.9937639549601
 30
0.0
 11
277.9292028164509
 21
119.2413529900634
 31
0.0
  0
LINE
  5
2927
  8
0
 10
274.804702816451
 20
110.1898451908976
 30
0.0
 11
277.9292028164509
 21
111.9937639549601
 31
0.0
  0
LINE
  5
2928
  8
0
 10
277.4292028164509
 20
160.4938023128514
 30
0.0
 11
272.9458806728962
 21
157.9938023128514
 31
0.0
  0
LINE
  5
2929
  8
0
 10
272.4292028164509
 20
163.9938023128514
 30
0.0
 11
277.4292028164509
 21
162.6540425083326
 31
0.0
  0
LINE
  5
292A
  8
0
 10
272.4292028164509
 20
163.9938023128514
 30
0.0
 11
272.4292028164509
 21
167.4938023128536
 31
0.0
  0
LINE
  5
292B
  8
0
 10
272.92920281645
 20
167.9938023128514
 30
0.0
 11
272.42920281645
 21
167.4938023128514
 31
0.0
1001
GENIUS_GENFIL_13
1070
     0
1040
0.5
1040
0.5
1040
20.0
1040
0.0
1002
{
1002
}
1001
GENIUS_GENODEF_13
1002
{
1000
HIER
1070
     0
1002
}
1002
{
1000
MANEDIT
1070
     0
1002
}
1002
{
1000
NOSEL
1070
     0
1002
}
1002
{
1000
BEHIND
1070
     0
1002
}
1002
{
1000
OTHER
1070
     0
1002
}
1002
{
1000
REACTOR
1002
}
1001
GENIUS_GENOBJ-N-CHA_13
1002
{
1000
OWNER
1000
GEN
1002
}
  0
LINE
  5
292C
  8
0
 10
277.4292028164509
 20
160.4938023128514
 30
0.0
 11
277.4292028164509
 21
162.6540425083326
 31
0.0
  0
LINE
  5
292D
  8
0
 10
340.7163898953495
 20
167.7066152339528
 30
0.0
 11
324.1420157375524
 21
167.7066152339528
 31
0.0
  0
LINE
  5
292E
  8
0
 10
340.7163898953495
 20
112.2809893917499
 30
0.0
 11
324.1420157375524
 21
112.2809893917499
 31
0.0
  0
LINE
  5
292F
  8
0
 10
310.4292028164509
 20
103.9938023128514
 30
0.0
 11
313.368513045657
 21
101.0544920836453
 31
0.0
  0
LINE
  5
2930
  8
0
 10
310.4292028164509
 20
83.99380231285136
 30
0.0
 11
313.368513045657
 21
86.93311254205696
 31
0.0
  0
LINE
  5
2931
  8
0
 10
304.6792028164509
 20
83.99380231285136
 30
0.0
 11
304.6792028164509
 21
50.36857178469495
 31
0.0
  0
LINE
  5
2932
  8
0
 10
304.6792028164509
 20
50.36857178469495
 30
0.0
 11
304.3169078831952
 21
39.99380231285136
 31
0.0
  0
LINE
  5
2933
  8
0
 10
303.6787194255712
 20
54.99380231285136
 30
0.0
 11
303.1549078831949
 21
39.99380231285136
 31
0.0
  0
LINE
  5
2934
  8
0
 10
313.368513045657
 20
86.93311254205696
 30
0.0
 11
313.368513045657
 21
101.0544920836453
 31
0.0
  0
LINE
  5
2935
  8
0
 10
307.5822332119587
 20
157.9937870540623
 30
0.0
 11
316.4291875576619
 21
157.9937870540623
 31
0.0
  0
LINE
  5
2936
  8
0
 10
309.9124791836384
 20
121.9937717952732
 30
0.0
 11
316.42921807524
 21
121.9937717952732
 31
0.0
  0
LINE
  5
2937
  8
0
 10
302.9292028164509
 20
138.5598056171373
 30
0.0
 11
302.9292028164509
 21
141.6701870928403
 31
0.0
  0
ARC
  5
2938
  8
0
 10
302.9292028164509
 20
123.8239262142185
 30
0.0
 40
5.00000446475843
 50
293.5781561491152
 51
320.446984356873
  0
LINE
  5
2939
  8
0
 10
308.0537028164508
 20
110.1898299320881
 30
0.0
 11
304.9292028164509
 21
111.9937668619539
 31
0.0
  0
LINE
  5
293A
  8
0
 10
306.5747028164506
 20
111.0437338268778
 30
0.0
 11
306.5747028164506
 21
103.9938023128514
 31
0.0
  0
LINE
  5
293B
  8
0
 10
304.9292028164509
 20
111.9937668619539
 30
0.0
 11
304.9292028164509
 21
119.2413456478123
 31
0.0
  0
LINE
  5
293C
  8
0
 10
308.0537028164508
 20
110.1898299320881
 30
0.0
 11
308.0537028164508
 21
103.9938023128514
 31
0.0
  0
ARC
  5
293D
  8
0
 10
302.4292028164509
 20
134.9938023128514
 30
0.0
 40
15.00000640974864
 50
286.8786196658575
 51
299.926199057665
  0
LINE
  5
293E
  8
0
 10
305.42920364165
 20
160.4938037421371
 30
0.0
 11
307.5822332119587
 21
157.9937870540623
 31
0.0
  0
LINE
  5
293F
  8
0
 10
306.7942274503748
 20
156.5308975619148
 30
0.0
 11
302.8761759861418
 21
143.9741714047316
 31
0.0
  0
LINE
  5
2940
  8
0
 10
305.4292028164509
 20
162.6540272495433
 30
0.0
 11
310.4292028164509
 21
163.9937870540623
 31
0.0
  0
LINE
  5
2941
  8
0
 10
305.4292028164509
 20
160.4938023128514
 30
0.0
 11
305.4292028164509
 21
162.6540272495433
 31
0.0
  0
LINE
  5
2942
  8
0
 10
310.4292028164509
 20
163.9937870540623
 30
0.0
 11
310.4292028164509
 21
167.4938023128434
 31
0.0
  0
LINE
  5
2943
  8
0
 10
320.4292028164509
 20
163.9938023128514
 30
0.0
 11
320.4292028164509
 21
115.9938023128514
 31
0.0
  0
LINE
  5
2944
  8
0
 10
316.4291875576619
 20
157.9937870540623
 30
0.0
 11
316.4292028164509
 21
121.9937870540623
 31
0.0
  0
LINE
  5
2945
  8
0
 10
316.4292028164509
 20
121.9937870540623
 30
0.0
 11
319.3841875576618
 21
119.0388023128512
 31
0.0
  0
LINE
  5
2946
  8
0
 10
320.4292028164509
 20
115.9938023128514
 30
0.0
 11
324.1420157375524
 21
112.2809893917499
 31
0.0
  0
LINE
  5
2947
  8
0
 10
319.3841875576618
 20
119.0388023128512
 30
0.0
 11
320.4292028164509
 21
119.0388023128512
 31
0.0
  0
LINE
  5
2948
  8
0
 10
317.9051875576615
 20
120.5178023128512
 30
0.0
 11
320.4292028164509
 21
120.5178023128512
 31
0.0
  0
LINE
  5
2949
  8
0
 10
319.3842028164509
 20
160.9488023128513
 30
0.0
 11
316.4291875576619
 21
157.9937870540623
 31
0.0
  0
LINE
  5
294A
  8
0
 10
317.9052028164506
 20
159.4698023128512
 30
0.0
 11
320.4292028164509
 21
159.4698023128512
 31
0.0
  0
LINE
  5
294B
  8
0
 10
324.1420157375524
 20
167.7066152339528
 30
0.0
 11
320.4292028164509
 21
163.9938023128514
 31
0.0
  0
LINE
  5
294C
  8
0
 10
319.3842028164509
 20
160.9488023128513
 30
0.0
 11
320.4292028164509
 21
160.9488023128513
 31
0.0
  0
LINE
  5
294D
  8
0
 10
344.4292028164509
 20
123.2438023128514
 30
0.0
 11
374.4292028164509
 21
123.2438023128514
 31
0.0
  0
LINE
  5
294E
  8
0
 10
344.4292028164509
 20
156.7438023128514
 30
0.0
 11
374.4292028164509
 21
156.7438023128514
 31
0.0
  0
LINE
  5
294F
  8
0
 10
344.4292028164509
 20
163.9938023128514
 30
0.0
 11
344.4292028164509
 21
115.9938023128514
 31
0.0
  0
LINE
  5
2950
  8
0
 10
344.42920281645
 20
115.9938023128509
 30
0.0
 11
340.7163898953495
 21
112.2809893917499
 31
0.0
  0
LINE
  5
2951
  8
0
 10
340.7163898953495
 20
167.7066152339528
 30
0.0
 11
344.4292028164509
 21
163.9938023128514
 31
0.0
  0
LINE
  5
2952
  8
0
 10
374.4292028164509
 20
123.2438023128514
 30
0.0
 11
374.4292028164509
 21
156.7336802920267
 31
0.0
  0
LINE
  5
2953
  8
0
 10
391.4292028164509
 20
123.5506604374552
 30
0.0
 11
391.4292028164509
 21
156.436944188247
 31
0.0
  0
LINE
  5
2954
  8
0
 10
191.4292028164514
 20
316.8980801787479
 30
0.0
 11
208.4292028164514
 21
316.6013440749682
 31
0.0
  0
LINE
  5
2955
  8
0
 10
191.4292028164514
 20
318.3770801787477
 30
0.0
 11
208.4292028164514
 21
318.0803440749683
 31
0.0
  0
LINE
  5
2956
  8
0
 10
208.4292028164514
 20
350.0811000333192
 30
0.0
 11
191.4292028164523
 21
349.7843639295397
 31
0.0
  0
LINE
  5
2957
  8
0
 10
208.4292028164514
 20
348.6021000333189
 30
0.0
 11
191.4292028164514
 21
348.3053639295395
 31
0.0
  0
LINE
  5
2958
  8
0
 10
191.4292028164523
 20
349.7843639295397
 30
0.0
 11
191.4292028164514
 21
316.8980801787479
 31
0.0
  0
LINE
  5
2959
  8
0
 10
208.4292028164514
 20
350.0912220541436
 30
0.0
 11
208.4292028164514
 21
316.6013440749682
 31
0.0
  0
LINE
  5
295A
  8
0
 10
238.4292028164514
 20
316.5912220541436
 30
0.0
 11
208.4292028164514
 21
316.5912220541436
 31
0.0
  0
LINE
  5
295B
  8
0
 10
238.4292028164514
 20
350.0912220541436
 30
0.0
 11
208.4292028164514
 21
350.0912220541436
 31
0.0
  0
LINE
  5
295C
  8
0
 10
391.4292028164514
 20
349.7843639295397
 30
0.0
 11
374.4292028164514
 21
350.0811000333192
 31
0.0
  0
LINE
  5
295D
  8
0
 10
391.4292028164514
 20
348.3053639295395
 30
0.0
 11
374.4292028164514
 21
348.6021000333189
 31
0.0
  0
LINE
  5
295E
  8
0
 10
374.4292028164514
 20
316.6013440749682
 30
0.0
 11
391.4292028164514
 21
316.8980801787479
 31
0.0
  0
LINE
  5
295F
  8
0
 10
374.4292028164514
 20
318.0803440749683
 30
0.0
 11
391.4292028164514
 21
318.377080178748
 31
0.0
  0
LINE
  5
2960
  8
0
 10
374.4292028164514
 20
316.5912220541436
 30
0.0
 11
374.4292028164514
 21
350.0811000333192
 31
0.0
  0
LINE
  5
2961
  8
0
 10
344.4292028164514
 20
316.5912220541436
 30
0.0
 11
374.4292028164514
 21
316.5912220541436
 31
0.0
  0
LINE
  5
2962
  8
0
 10
344.4292028164514
 20
350.0912220541436
 30
0.0
 11
374.4292028164514
 21
350.0912220541436
 31
0.0
  0
LINE
  5
2963
  8
0
 10
391.4292028164514
 20
316.8980801787479
 30
0.0
 11
391.4292028164514
 21
349.7843639295397
 31
0.0
  0
LINE
  5
2964
  8
7
 10
80.73822618084296
 20
139.9938023128514
 30
0.0
 11
24.59473296717306
 21
139.9938023128514
 31
0.0
  0
LINE
  5
2965
  8
7
 10
52.66647957400846
 20
266.9938566323824
 30
0.0
 11
52.66647957400846
 21
30.40078239874015
 31
0.0
  0
LINE
  5
2966
  8
7
 10
185.2960171664145
 20
139.9938023128514
 30
0.0
 11
397.5623884664874
 21
139.9938023128514
 31
0.0
  0
LINE
  5
2967
  8
BEHIND
 10
276.8173554951481
 20
179.9938023128514
 30
0.0
 11
306.0410501377537
 21
179.9938023128514
 31
0.0
  0
LINE
  5
2968
  8
BEHIND
 10
276.8173554951481
 20
182.9938023128477
 30
0.0
 11
306.0410501377537
 21
182.9938023128477
 31
0.0
  0
LINE
  5
2969
  8
7
 10
291.4292028164509
 20
266.9938566323838
 30
0.0
 11
291.4292028164509
 21
30.40078239874015
 31
0.0
  0
LINE
  5
296A
  8
0
 10
71.66647957400846
 20
103.9938023128514
 30
0.0
 11
33.66647957400846
 21
103.9938023128514
 31
0.0
  0
LINE
  5
296B
  8
0
 10
71.66647957400846
 20
83.99380231285136
 30
0.0
 11
33.66647957400846
 21
83.99380231285136
 31
0.0
  0
LINE
  5
296C
  8
0
 10
33.66647957400846
 20
103.9938023128514
 30
0.0
 11
30.72716934480241
 21
101.0544920836453
 31
0.0
  0
LINE
  5
296D
  8
0
 10
33.66647957400846
 20
83.99380231285136
 30
0.0
 11
30.72716934480241
 21
86.93311254205696
 31
0.0
  0
LINE
  5
296E
  8
0
 10
30.72716934480241
 20
86.93311254205696
 30
0.0
 11
30.72716934480241
 21
101.0544920836453
 31
0.0
  0
LINE
  5
296F
  8
0
 10
71.66647957400846
 20
103.9938023128514
 30
0.0
 11
74.60578980321452
 21
101.0544920836453
 31
0.0
  0
LINE
  5
2970
  8
0
 10
71.66647957400846
 20
83.99380231285136
 30
0.0
 11
74.60578980321452
 21
86.93311254205696
 31
0.0
  0
LINE
  5
2971
  8
0
 10
74.60578980321452
 20
86.93311254205696
 30
0.0
 11
74.60578980321452
 21
101.0544920836453
 31
0.0
  0
LINE
  5
2972
  8
0
 10
242.1420157375528
 20
305.6284091330422
 30
0.0
 11
258.7163898953499
 21
305.6284091330422
 31
0.0
  0
LINE
  5
2973
  8
0
 10
242.1420157375528
 20
361.054034975245
 30
0.0
 11
258.7163898953499
 21
361.054034975245
 31
0.0
  0
LINE
  5
2974
  8
0
 10
238.4292028164514
 20
309.3412220541436
 30
0.0
 11
238.4292028164514
 21
357.3412220541436
 31
0.0
  0
LINE
  5
2975
  8
0
 10
242.1420157375528
 20
305.6284091330422
 30
0.0
 11
238.4292028164514
 21
309.3412220541436
 31
0.0
  0
LINE
  5
2976
  8
0
 10
238.4292028164523
 20
357.3412220541441
 30
0.0
 11
242.1420157375528
 21
361.054034975245
 31
0.0
  0
LINE
  5
2977
  8
0
 10
273.1292028164489
 20
167.9938023128398
 30
0.0
 11
309.7292028164529
 21
167.9938023128518
 31
0.0
  0
LINE
  5
2978
  8
0
 10
273.1292028164489
 20
167.9938023128395
 30
0.0
 11
272.92920281645
 21
168.1938023128394
 31
0.0
1001
GENIUS_GENFIL_13
1070
     0
1040
0.2
1040
0.2
1040
20.0
1040
0.0
1002
{
1002
}
1001
GENIUS_GENODEF_13
1002
{
1000
HIER
1070
     0
1002
}
1002
{
1000
MANEDIT
1070
     0
1002
}
1002
{
1000
NOSEL
1070
     0
1002
}
1002
{
1000
BEHIND
1070
     0
1002
}
1002
{
1000
OTHER
1070
     0
1002
}
1002
{
1000
REACTOR
1002
}
1001
GENIUS_GENOBJ-N-CHA_13
1002
{
1000
OWNER
1000
GEN
1002
}
  0
ARC
  5
2979
  8
0
 10
272.67920281645
 20
186.4153751881147
 30
0.0
 40
2.0
 50
135.0000000000092
 51
180.0
1001
GRPNAME
1000
PASTMD0C
1001
GENIUS_GENODEF_13
1002
{
1000
HIER
1070
     0
1002
}
1002
{
1000
MANEDIT
1070
     0
1002
}
1002
{
1000
NOSEL
1070
     0
1002
}
1002
{
1000
BEHIND
1070
     0
1002
}
1002
{
1000
OTHER
1070
     0
1002
}
1002
{
1000
REACTOR
1002
}
1001
GENIUS_GENOBJ-N-FIL_13
1002
{
1000
OWNER
1000
GEN
1002
}
  0
LINE
  5
297A
  8
0
 10
270.67920281645
 20
176.243802312855
 30
0.0
 11
272.9292028164482
 21
173.9938023128559
 31
0.0
  0
LINE
  5
297B
  8
0
 10
291.42920281645
 20
218.9938023128523
 30
0.0
 11
277.4292028164491
 21
218.9938023128523
 31
0.0
1001
GRPNAME
1000
PASTMD0C
  0
ARC
  5
297C
  8
0
 10
277.42920281645
 20
217.9938023128523
 30
0.0
 40
1.0
 50
89.99999991255908
 51
180.0
1001
GRPNAME
1000
PASTMD0C
  0
LINE
  5
297D
  8
0
 10
272.9292028164482
 20
173.9938023128559
 30
0.0
 11
272.9292028164482
 21
168.1938023128516
 31
0.0
  0
LINE
  5
297E
  8
0
 10
272.9292028164482
 20
189.4938023128577
 30
0.0
 11
271.2649892540776
 21
187.8295887504889
 31
0.0
  0
LINE
  5
297F
  8
0
 10
309.9292028164527
 20
173.9938023128555
 30
0.0
 11
309.9292028164518
 21
168.1938023128516
 31
0.0
  0
LINE
  5
2980
  8
0
 10
309.7292028164529
 20
167.9938023128518
 30
0.0
 11
309.9292028164518
 21
168.1938023128516
 31
0.0
1001
GENIUS_GENFIL_13
1070
     0
1040
0.2
1040
0.2
1040
20.0
1040
0.0
1002
{
1002
}
1001
GENIUS_GENODEF_13
1002
{
1000
HIER
1070
     0
1002
}
1002
{
1000
MANEDIT
1070
     0
1002
}
1002
{
1000
NOSEL
1070
     0
1002
}
1002
{
1000
BEHIND
1070
     0
1002
}
1002
{
1000
OTHER
1070
     0
1002
}
1002
{
1000
REACTOR
1002
}
1001
GENIUS_GENOBJ-N-CHA_13
1002
{
1000
OWNER
1000
GEN
1002
}
  0
LINE
  5
2981
  8
0
 10
306.4292028164518
 20
202.9938023128532
 30
0.0
 11
306.4292028164518
 21
217.9938023128523
 31
0.0
1001
GRPNAME
1000
PASTMD0C
  0
LINE
  5
2982
  8
0
 10
312.1792028164509
 20
186.4153751881488
 30
0.0
 11
312.1792028164509
 21
176.2438023128555
 31
0.0
1001
GRPNAME
1000
PASTMD0C
  0
LINE
  5
2983
  8
0
 10
312.17920281645
 20
176.243802312855
 30
0.0
 11
309.9292028164527
 21
173.9938023128555
 31
0.0
  0
LINE
  5
2984
  8
0
 10
291.42920281645
 20
218.9938023128518
 30
0.0
 11
305.4292028164518
 21
218.9938023128518
 31
0.0
1001
GRPNAME
1000
PASTMD0C
  0
ARC
  5
2985
  8
0
 10
305.4292028164518
 20
217.9938023128523
 30
0.0
 40
1.0
 50
0.0
 51
90.00000008738881
1001
GRPNAME
1000
PASTMD0C
  0
LINE
  5
2986
  8
0
 10
276.42920281645
 20
202.9938023128555
 30
0.0
 11
276.42920281645
 21
217.9938023128523
 31
0.0
1001
GRPNAME
1000
PASTMD0C
  0
LINE
  5
2987
  8
0
 10
270.67920281645
 20
186.4153751881147
 30
0.0
 11
270.67920281645
 21
176.2438023128555
 31
0.0
1001
GRPNAME
1000
PASTMD0C
  0
LINE
  5
2988
  8
0
 10
272.9292028164482
 20
199.4938023128541
 30
0.0
 11
272.9292028164482
 21
189.4938023128577
 31
0.0
  0
LINE
  5
2989
  8
0
 10
276.42920281645
 20
202.9938023128555
 30
0.0
 11
272.9292028164482
 21
199.4938023128541
 31
0.0
  0
ARC
  5
298A
  8
0
 10
310.1792028164518
 20
186.4153751881488
 30
0.0
 40
2.0
 50
0.0
 51
45.00000000013818
1001
GRPNAME
1000
PASTMD0C
1001
GENIUS_GENODEF_13
1002
{
1000
HIER
1070
     0
1002
}
1002
{
1000
MANEDIT
1070
     0
1002
}
1002
{
1000
NOSEL
1070
     0
1002
}
1002
{
1000
BEHIND
1070
     0
1002
}
1002
{
1000
OTHER
1070
     0
1002
}
1002
{
1000
REACTOR
1002
}
1001
GENIUS_GENOBJ-N-FIL_13
1002
{
1000
OWNER
1000
GEN
1002
}
  0
LINE
  5
298B
  8
0
 10
309.9292028164482
 20
189.4938023128914
 30
0.0
 11
311.5934163788215
 21
187.8295887505258
 31
0.0
  0
LINE
  5
298C
  8
0
 10
309.92920281643
 20
199.4938023128877
 30
0.0
 11
309.9292028164482
 21
189.4938023128914
 31
0.0
  0
LINE
  5
298D
  8
0
 10
306.4292028164518
 20
202.9938023128532
 30
0.0
 11
309.92920281643
 21
199.4938023128877
 31
0.0
  0
LINE
  5
298E
  8
0
 10
276.42920281645
 20
202.9938023128555
 30
0.0
 11
306.4292028164518
 21
202.9938023128532
 31
0.0
  0
LINE
  5
298F
  8
0
 10
309.92920281643
 20
199.4938023128877
 30
0.0
 11
272.9292028164482
 21
199.4938023128541
 31
0.0
  0
LINE
  5
2990
  8
0
 10
272.9292028164482
 20
189.4938023128577
 30
0.0
 11
309.9292028164482
 21
189.4938023128914
 31
0.0
  0
LINE
  5
2991
  8
0
 10
272.9292028164482
 20
173.9938023128559
 30
0.0
 11
309.9292028164527
 21
173.9938023128555
 31
0.0
  0
LINE
  5
2992
  8
0
 10
34.36647957400646
 20
167.9938023128398
 30
0.0
 11
70.96647957401046
 21
167.9938023128518
 31
0.0
  0
LINE
  5
2993
  8
0
 10
34.36647957400646
 20
167.9938023128395
 30
0.0
 11
34.16647957400755
 21
168.1938023128394
 31
0.0
1001
GENIUS_GENFIL_13
1070
     0
1040
0.2
1040
0.2
1040
20.0
1040
0.0
1002
{
1002
}
1001
GENIUS_GENODEF_13
1002
{
1000
HIER
1070
     0
1002
}
1002
{
1000
MANEDIT
1070
     0
1002
}
1002
{
1000
NOSEL
1070
     0
1002
}
1002
{
1000
BEHIND
1070
     0
1002
}
1002
{
1000
OTHER
1070
     0
1002
}
1002
{
1000
REACTOR
1002
}
1001
GENIUS_GENOBJ-N-CHA_13
1002
{
1000
OWNER
1000
GEN
1002
}
  0
ARC
  5
2994
  8
0
 10
33.91647957400755
 20
186.4153751881147
 30
0.0
 40
2.0
 50
135.0000000000092
 51
180.0
1001
GRPNAME
1000
PASTMD0C
1001
GENIUS_GENODEF_13
1002
{
1000
HIER
1070
     0
1002
}
1002
{
1000
MANEDIT
1070
     0
1002
}
1002
{
1000
NOSEL
1070
     0
1002
}
1002
{
1000
BEHIND
1070
     0
1002
}
1002
{
1000
OTHER
1070
     0
1002
}
1002
{
1000
REACTOR
1002
}
1001
GENIUS_GENOBJ-N-FIL_13
1002
{
1000
OWNER
1000
GEN
1002
}
  0
LINE
  5
2995
  8
0
 10
31.91647957400755
 20
176.243802312855
 30
0.0
 11
34.16647957400573
 21
173.9938023128559
 31
0.0
  0
LINE
  5
2996
  8
0
 10
52.66647957400755
 20
218.9938023128523
 30
0.0
 11
38.66647957400664
 21
218.9938023128523
 31
0.0
1001
GRPNAME
1000
PASTMD0C
  0
ARC
  5
2997
  8
0
 10
38.66647957400755
 20
217.9938023128523
 30
0.0
 40
1.0
 50
89.99999991255908
 51
180.0
1001
GRPNAME
1000
PASTMD0C
  0
LINE
  5
2998
  8
0
 10
34.16647957400573
 20
173.9938023128559
 30
0.0
 11
34.16647957400573
 21
168.1938023128516
 31
0.0
  0
LINE
  5
2999
  8
0
 10
34.16647957400573
 20
189.4938023128577
 30
0.0
 11
32.50226601163513
 21
187.8295887504889
 31
0.0
  0
LINE
  5
299A
  8
0
 10
71.16647957401028
 20
173.9938023128555
 30
0.0
 11
71.16647957400937
 21
168.1938023128516
 31
0.0
  0
LINE
  5
299B
  8
0
 10
70.96647957401046
 20
167.9938023128518
 30
0.0
 11
71.16647957400937
 21
168.1938023128516
 31
0.0
1001
GENIUS_GENFIL_13
1070
     0
1040
0.2
1040
0.2
1040
20.0
1040
0.0
1002
{
1002
}
1001
GENIUS_GENODEF_13
1002
{
1000
HIER
1070
     0
1002
}
1002
{
1000
MANEDIT
1070
     0
1002
}
1002
{
1000
NOSEL
1070
     0
1002
}
1002
{
1000
BEHIND
1070
     0
1002
}
1002
{
1000
OTHER
1070
     0
1002
}
1002
{
1000
REACTOR
1002
}
1001
GENIUS_GENOBJ-N-CHA_13
1002
{
1000
OWNER
1000
GEN
1002
}
  0
LINE
  5
299C
  8
0
 10
67.66647957400937
 20
202.9938023128532
 30
0.0
 11
67.66647957400937
 21
217.9938023128523
 31
0.0
1001
GRPNAME
1000
PASTMD0C
  0
LINE
  5
299D
  8
0
 10
73.41647957400846
 20
186.4153751881488
 30
0.0
 11
73.41647957400846
 21
176.2438023128555
 31
0.0
1001
GRPNAME
1000
PASTMD0C
  0
LINE
  5
299E
  8
0
 10
73.41647957400755
 20
176.243802312855
 30
0.0
 11
71.16647957401028
 21
173.9938023128555
 31
0.0
  0
LINE
  5
299F
  8
0
 10
52.66647957400755
 20
218.9938023128518
 30
0.0
 11
66.66647957400937
 21
218.9938023128518
 31
0.0
1001
GRPNAME
1000
PASTMD0C
  0
ARC
  5
29A0
  8
0
 10
66.66647957400937
 20
217.9938023128523
 30
0.0
 40
1.0
 50
0.0
 51
90.00000008738881
1001
GRPNAME
1000
PASTMD0C
  0
LINE
  5
29A1
  8
0
 10
37.66647957400755
 20
202.9938023128555
 30
0.0
 11
37.66647957400755
 21
217.9938023128523
 31
0.0
1001
GRPNAME
1000
PASTMD0C
  0
LINE
  5
29A2
  8
0
 10
31.91647957400755
 20
186.4153751881147
 30
0.0
 11
31.91647957400755
 21
176.2438023128555
 31
0.0
1001
GRPNAME
1000
PASTMD0C
  0
LINE
  5
29A3
  8
0
 10
34.16647957400573
 20
199.4938023128541
 30
0.0
 11
34.16647957400573
 21
189.4938023128577
 31
0.0
  0
LINE
  5
29A4
  8
0
 10
37.66647957400755
 20
202.9938023128555
 30
0.0
 11
34.16647957400573
 21
199.4938023128541
 31
0.0
  0
ARC
  5
29A5
  8
0
 10
71.41647957400937
 20
186.4153751881488
 30
0.0
 40
2.0
 50
0.0
 51
45.00000000013818
1001
GRPNAME
1000
PASTMD0C
1001
GENIUS_GENODEF_13
1002
{
1000
HIER
1070
     0
1002
}
1002
{
1000
MANEDIT
1070
     0
1002
}
1002
{
1000
NOSEL
1070
     0
1002
}
1002
{
1000
BEHIND
1070
     0
1002
}
1002
{
1000
OTHER
1070
     0
1002
}
1002
{
1000
REACTOR
1002
}
1001
GENIUS_GENOBJ-N-FIL_13
1002
{
1000
OWNER
1000
GEN
1002
}
  0
LINE
  5
29A6
  8
0
 10
71.16647957400573
 20
189.4938023128914
 30
0.0
 11
72.83069313637907
 21
187.8295887505258
 31
0.0
  0
LINE
  5
29A7
  8
0
 10
71.16647957398754
 20
199.4938023128877
 30
0.0
 11
71.16647957400573
 21
189.4938023128914
 31
0.0
  0
LINE
  5
29A8
  8
0
 10
67.66647957400937
 20
202.9938023128532
 30
0.0
 11
71.16647957398754
 21
199.4938023128877
 31
0.0
  0
LINE
  5
29A9
  8
0
 10
37.66647957400755
 20
202.9938023128555
 30
0.0
 11
67.66647957400937
 21
202.9938023128532
 31
0.0
  0
LINE
  5
29AA
  8
0
 10
71.16647957398754
 20
199.4938023128877
 30
0.0
 11
34.16647957400573
 21
199.4938023128541
 31
0.0
  0
LINE
  5
29AB
  8
0
 10
34.16647957400573
 20
189.4938023128577
 30
0.0
 11
71.16647957400573
 21
189.4938023128914
 31
0.0
  0
LINE
  5
29AC
  8
0
 10
34.16647957400573
 20
173.9938023128559
 30
0.0
 11
71.16647957401028
 21
173.9938023128555
 31
0.0
  0
LINE
  5
29AD
  8
0
 10
340.7163898953481
 20
305.6284091330394
 30
0.0
 11
324.142015737551
 21
305.6284091330403
 31
0.0
  0
LINE
  5
29AE
  8
0
 10
340.7163898953509
 20
361.0540349752423
 30
0.0
 11
324.1420157375537
 21
361.0540349752432
 31
0.0
  0
LINE
  5
29AF
  8
0
 10
344.4292028164496
 20
309.3412220541409
 30
0.0
 11
344.4292028164523
 21
357.3412220541409
 31
0.0
  0
LINE
  5
29B0
  8
0
 10
340.7163898953481
 20
305.6284091330394
 30
0.0
 11
344.4292028164496
 21
309.3412220541409
 31
0.0
  0
LINE
  5
29B1
  8
0
 10
344.4292028164514
 20
357.3412220541413
 30
0.0
 11
340.7163898953509
 21
361.0540349752423
 31
0.0
  0
LINE
  5
29B2
  8
7
 10
183.1385230858755
 20
333.3313007611143
 30
0.0
 11
397.6894105448187
 21
333.3313007611143
 31
0.0
  0
LINE
  5
29B3
  8
0
 10
34.16647957400846
 20
167.9938023128514
 30
0.0
 11
71.16647957400755
 21
167.9938023128514
 31
0.0
  0
LINE
  5
29B4
  8
0
 10
33.66647957400846
 20
167.4938023128514
 30
0.0
 11
34.16647957400846
 21
167.9938023128514
 31
0.0
1001
GENIUS_GENFIL_13
1070
     0
1040
0.5
1040
0.5
1040
20.0
1040
0.0
1002
{
1002
}
1001
GENIUS_GENODEF_13
1002
{
1000
HIER
1070
     0
1002
}
1002
{
1000
MANEDIT
1070
     0
1002
}
1002
{
1000
NOSEL
1070
     0
1002
}
1002
{
1000
BEHIND
1070
     0
1002
}
1002
{
1000
OTHER
1070
     0
1002
}
1002
{
1000
REACTOR
1002
}
1001
GENIUS_GENOBJ-N-CHA_13
1002
{
1000
OWNER
1000
GEN
1002
}
  0
LINE
  5
29B5
  8
0
 10
71.66647957400755
 20
167.4938023128514
 30
0.0
 11
71.16647957400755
 21
167.9938023128514
 31
0.0
1001
GENIUS_GENFIL_13
1070
     0
1040
0.5
1040
0.5
1040
20.0
1040
0.0
1002
{
1002
}
1001
GENIUS_GENODEF_13
1002
{
1000
HIER
1070
     0
1002
}
1002
{
1000
MANEDIT
1070
     0
1002
}
1002
{
1000
NOSEL
1070
     0
1002
}
1002
{
1000
BEHIND
1070
     0
1002
}
1002
{
1000
OTHER
1070
     0
1002
}
1002
{
1000
REACTOR
1002
}
1001
GENIUS_GENOBJ-N-CHA_13
1002
{
1000
OWNER
1000
GEN
1002
}
  0
LINE
  5
29B6
  8
0
 10
272.9292028164491
 20
167.9938023128514
 30
0.0
 11
309.9292028164518
 21
167.9938023128429
 31
0.0
  0
LINE
  5
29B7
  8
0
 10
310.4292028164518
 20
167.4938023128427
 30
0.0
 11
309.9292028164518
 21
167.9938023128429
 31
0.0
1001
GENIUS_GENFIL_13
1070
     0
1040
0.5
1040
0.5
1040
20.0
1040
0.0
1002
{
1002
}
1001
GENIUS_GENOBJ-N-CHA_13
1002
{
1000
OWNER
1000
GEN
1002
}
1001
GENIUS_GENODEF_13
1002
{
1000
HIER
1070
     0
1002
}
1002
{
1000
MANEDIT
1070
     0
1002
}
1002
{
1000
NOSEL
1070
     0
1002
}
1002
{
1000
BEHIND
1070
     0
1002
}
1002
{
1000
OTHER
1070
     0
1002
}
1002
{
1000
REACTOR
1002
}
  0
TEXT
  5
29B8
  8
10
 10
-1.5
 20
0.5
 30
0.0
 40
10.0
  1
2023.09.12 DV6-25[丸ハンドル][3方向チックナット付]
 11
-1.5
 21
0.5
 31
0.0
 73
     1
  0
LINE
  5
29B9
  8
0
 10
266.2859537080712
 20
315.197988204553
 30
0.0
 11
263.4741857266076
 21
312.3862202230891
 31
0.0
  0
LINE
  5
29BA
  8
0
 10
262.4292028164514
 20
313.8652220541437
 30
0.0
 11
264.9531875576627
 21
313.8652220541437
 31
0.0
  0
LINE
  5
29BB
  8
0
 10
262.4292028164514
 20
312.3862220541439
 30
0.0
 11
263.4741875576624
 21
312.3862220541439
 31
0.0
  0
LINE
  5
29BC
  8
0
 10
263.4742009853967
 20
354.2962238851985
 30
0.0
 11
266.4292028164514
 21
351.3412220541438
 31
0.0
  0
LINE
  5
29BD
  8
0
 10
262.4292028164514
 20
352.8172220541439
 30
0.0
 11
264.9532028164517
 21
352.8172220541439
 31
0.0
  0
LINE
  5
29BE
  8
0
 10
262.4292028164514
 20
354.2962220541438
 30
0.0
 11
263.4742028164515
 21
354.2962220541438
 31
0.0
  0
LINE
  5
29BF
  8
0
 10
262.4292028164514
 20
313.8652220541437
 30
0.0
 11
264.9531875576627
 21
313.8652220541437
 31
0.0
  0
LINE
  5
29C0
  8
0
 10
262.4292028164514
 20
352.8172220541439
 30
0.0
 11
264.9532028164517
 21
352.8172220541439
 31
0.0
  0
LINE
  5
29C1
  8
0
 10
262.4292028164514
 20
309.3412220541438
 30
0.0
 11
262.4292028164514
 21
322.3768496110113
 31
0.0
  0
LINE
  5
29C2
  8
0
 10
262.4292028164514
 20
326.4550557233383
 30
0.0
 11
262.4292028164514
 21
340.2075457988894
 31
0.0
  0
LINE
  5
29C3
  8
0
 10
262.4292028164514
 20
344.2857519112167
 30
0.0
 11
262.4292028164514
 21
357.3412220541438
 31
0.0
  0
LINE
  5
29C4
  8
0
 10
258.7163898953499
 20
305.6284091330424
 30
0.0
 11
262.4292028164514
 21
309.3412220541438
 31
0.0
  0
LINE
  5
29C5
  8
0
 10
262.4292028164514
 20
357.3412220541438
 30
0.0
 11
258.7163898953499
 21
361.0540349752453
 31
0.0
  0
LINE
  5
29C6
  8
0
 10
316.5724519248306
 20
315.1979882045516
 30
0.0
 11
319.3842199062933
 21
312.3862202230875
 31
0.0
  0
LINE
  5
29C7
  8
0
 10
320.4292028164496
 20
313.8652220541424
 30
0.0
 11
317.9052180752383
 21
313.8652220541424
 31
0.0
  0
LINE
  5
29C8
  8
0
 10
320.4292028164496
 20
312.3862220541421
 30
0.0
 11
319.3842180752386
 21
312.3862220541421
 31
0.0
  0
LINE
  5
29C9
  8
0
 10
319.384204647507
 20
354.2962238851969
 30
0.0
 11
316.5641289514706
 21
351.476148189161
 31
0.0
  0
LINE
  5
29CA
  8
0
 10
320.4292028164523
 20
352.8172220541423
 30
0.0
 11
317.9052028164519
 21
352.8172220541426
 31
0.0
  0
LINE
  5
29CB
  8
0
 10
320.4292028164523
 20
354.2962220541422
 30
0.0
 11
319.3842028164522
 21
354.2962220541422
 31
0.0
  0
LINE
  5
29CC
  8
0
 10
320.4292028164496
 20
313.8652220541424
 30
0.0
 11
317.9052180752383
 21
313.8652220541424
 31
0.0
  0
LINE
  5
29CD
  8
0
 10
320.4292028164523
 20
352.8172220541423
 30
0.0
 11
317.9052028164519
 21
352.8172220541426
 31
0.0
  0
LINE
  5
29CE
  8
0
 10
320.4292028164496
 20
309.3412220541422
 30
0.0
 11
320.42920281645
 21
322.3768496110083
 31
0.0
  0
LINE
  5
29CF
  8
0
 10
320.4292028164514
 20
326.4550557233383
 30
0.0
 11
320.4292028164514
 21
340.2075457988894
 31
0.0
  0
LINE
  5
29D0
  8
0
 10
320.4292028164518
 20
344.285751911216
 30
0.0
 11
320.4292028164523
 21
357.3412220541422
 31
0.0
  0
LINE
  5
29D1
  8
0
 10
324.142015737551
 20
305.6284091330406
 30
0.0
 11
320.4292028164496
 21
309.3412220541422
 31
0.0
  0
LINE
  5
29D2
  8
0
 10
320.4292028164523
 20
357.3412220541422
 30
0.0
 11
324.1420157375537
 21
361.0540349752434
 31
0.0
  0
LINE
  5
29D3
  8
7
 10
291.4292028164514
 20
375.3779330027894
 30
0.0
 11
291.4292028164514
 21
291.2619404060399
 31
0.0
  0
POLYLINE
  5
29D4
  8
0
 66
     1
 10
0.0
 20
0.0
 30
0.0
 70
     1
  0
VERTEX
  5
2A33
  8
0
 10
298.4508444417993
 20
363.5256139489504
 30
0.0
 42
0.1147433684531263
  0
VERTEX
  5
2A34
  8
0
 10
284.4075611911035
 20
363.5256139489504
 30
0.0
 42
0.3169980516087132
  0
VERTEX
  5
2A35
  8
0
 10
282.8736431831235
 20
361.805892933093
 30
0.0
 42
-0.5034443575988989
  0
VERTEX
  5
2A36
  8
0
 10
271.0472624497802
 20
354.9779288331586
 30
0.0
 42
0.3169980516087056
  0
VERTEX
  5
2A37
  8
0
 10
268.7909813586352
 20
354.5093773788542
 30
0.0
 42
0.1147433684531285
  0
VERTEX
  5
2A38
  8
0
 10
261.7693397332873
 20
342.3475373312106
 30
0.0
 42
0.3169980516087055
  0
VERTEX
  5
2A39
  8
0
 10
262.4917028164514
 20
340.1592648610488
 30
0.0
 42
-0.5034443575988864
  0
VERTEX
  5
2A3A
  8
0
 10
262.4917028164514
 20
326.503336661179
 30
0.0
 42
0.3169980516087206
  0
VERTEX
  5
2A3B
  8
0
 10
261.7693397332873
 20
324.3150641910172
 30
0.0
 42
0.1147433684531274
  0
VERTEX
  5
2A3C
  8
0
 10
268.7909813586352
 20
312.1532241433745
 30
0.0
 42
0.3169980516087066
  0
VERTEX
  5
2A3D
  8
0
 10
271.0472624497802
 20
311.6846726890692
 30
0.0
 42
-0.503444357598898
  0
VERTEX
  5
2A3E
  8
0
 10
282.8736431831235
 20
304.8567085891348
 30
0.0
 42
0.316998051608725
  0
VERTEX
  5
2A3F
  8
0
 10
284.4075611911035
 20
303.1369875732773
 30
0.0
 42
0.1147433684531251
  0
VERTEX
  5
2A40
  8
0
 10
298.4508444417993
 20
303.1369875732773
 30
0.0
 42
0.3169980516087174
  0
VERTEX
  5
2A41
  8
0
 10
299.9847624497793
 20
304.8567085891348
 30
0.0
 42
-0.503444357598898
  0
VERTEX
  5
2A42
  8
0
 10
311.8111431831226
 20
311.6846726890692
 30
0.0
 42
0.3169980516087068
  0
VERTEX
  5
2A43
  8
0
 10
314.0674242742675
 20
312.1532241433745
 30
0.0
 42
0.1147433684531273
  0
VERTEX
  5
2A44
  8
0
 10
321.0890658996154
 20
324.3150641910172
 30
0.0
 42
0.3169980516087207
  0
VERTEX
  5
2A45
  8
0
 10
320.3667028164514
 20
326.503336661179
 30
0.0
 42
-0.5034443575988866
  0
VERTEX
  5
2A46
  8
0
 10
320.3667028164514
 20
340.1592648610488
 30
0.0
 42
0.3169980516087057
  0
VERTEX
  5
2A47
  8
0
 10
321.0890658996154
 20
342.3475373312106
 30
0.0
 42
0.1147433684531281
  0
VERTEX
  5
2A48
  8
0
 10
314.0674242742675
 20
354.5093773788542
 30
0.0
 42
0.3169980516087061
  0
VERTEX
  5
2A49
  8
0
 10
311.8111431831226
 20
354.9779288331586
 30
0.0
 42
-0.5034443575988988
  0
VERTEX
  5
2A4A
  8
0
 10
299.9847624497793
 20
361.805892933093
 30
0.0
 42
0.3169980516087095
  0
SEQEND
  5
2A4B
  8
0
  0
CIRCLE
  5
29D5
  8
0
 10
291.4292028164514
 20
333.3313007611143
 30
0.0
 40
11.0
  0
LINE
  5
29D6
  8
0
 10
285.4291560510046
 20
221.9938566323879
 30
0.0
 11
285.4291560510046
 21
218.9938023128523
 31
0.0
  0
LINE
  5
29D7
  8
0
 10
297.4292495818954
 20
221.9938566323879
 30
0.0
 11
297.4292495818954
 21
218.9938023128518
 31
0.0
  0
LINE
  5
29D8
  8
0
 10
46.66643280855033
 20
221.993856632386
 30
0.0
 11
46.66643280854987
 21
218.9938023128523
 31
0.0
  0
LINE
  5
29D9
  8
0
 10
58.66652633944068
 20
221.993856632386
 30
0.0
 11
58.66652633944068
 21
218.9938023128518
 31
0.0
  0
LINE
  5
29DA
  8
0
 10
266.9292028164464
 20
229.7355263831894
 30
0.0
 11
315.9292028164455
 21
229.7355263831894
 31
0.0
  0
LINE
  5
29DB
  8
0
 10
268.9292028164464
 20
221.9938566323879
 30
0.0
 11
313.9292028164455
 21
221.9938566323879
 31
0.0
  0
LINE
  5
29DC
  8
0
 10
278.4292028164464
 20
262.9938566323879
 30
0.0
 11
304.4292028164573
 21
262.9938566323797
 31
0.0
  0
ARC
  5
29DD
  8
0
 10
278.1929401840398
 20
255.1013043530447
 30
0.0
 40
5.951205005509391
 50
37.38880691368148
 51
97.21420027622331
  0
ARC
  5
29DE
  8
0
 10
278.3232758371832
 20
233.9870736739276
 30
0.0
 40
2.565357953936887
 50
240.6774080382632
 51
316.5238775543725
  0
LINE
  5
29DF
  8
0
 10
261.6828792870419
 20
238.8224252890639
 30
0.0
 11
261.6828792870429
 21
258.8013634506121
 31
0.0
  0
LINE
  5
29E0
  8
0
 10
269.8671821936487
 20
240.9938566323888
 30
0.0
 11
269.8671821936477
 21
258.7149988313711
 31
0.0
  0
ARC
  5
29E1
  8
0
 10
268.9292028164464
 20
223.9938566323879
 30
0.0
 40
1.999999999999943
 50
180.0
 51
270.0
1001
GENIUS_GENODEF_13
1002
{
1000
HIER
1070
     0
1002
}
1002
{
1000
MANEDIT
1070
     0
1002
}
1002
{
1000
NOSEL
1070
     0
1002
}
1002
{
1000
BEHIND
1070
     0
1002
}
1002
{
1000
REACTOR
1002
}
1001
GENIUS_GENOBJ-N-FIL_13
1002
{
1000
OWNER
1000
GEN
1002
}
  0
LINE
  5
29E2
  8
0
 10
263.0950497587701
 20
240.9938566323897
 30
0.0
 11
268.8671821936323
 21
240.9938566323897
 31
0.0
  0
LINE
  5
29E3
  8
0
 10
266.9292028164464
 20
229.7355263831894
 30
0.0
 11
261.6828792870419
 21
238.8224252890629
 31
0.0
  0
LINE
  5
29E4
  8
0
 10
266.9292028164464
 20
229.7355263831894
 30
0.0
 11
266.9292028164464
 21
223.993856632387
 31
0.0
  0
ARC
  5
29E5
  8
0
 10
282.6578006586478
 20
243.5308310388473
 30
0.0
 40
13.03979140386123
 50
191.2188087997446
 51
244.6115597288438
  0
LINE
  5
29E6
  8
0
 10
262.9509755410036
 20
258.7149988313711
 30
0.0
 11
268.8671821936323
 21
258.7149988313711
 31
0.0
  0
ARC
  5
29E7
  8
0
 10
278.4292028164464
 20
222.9938566323865
 30
0.0
 40
40.00000000000136
 50
90.0
 51
111.8037479893836
  0
ARC
  5
29E8
  8
0
 10
265.4292028164455
 20
255.490010250933
 30
0.0
 40
4.999999999998328
 50
111.8037479893824
 51
138.5267245313393
1001
GENIUS_GENODEF_13
1002
{
1000
HIER
1070
     0
1002
}
1002
{
1000
MANEDIT
1070
     0
1002
}
1002
{
1000
NOSEL
1070
     0
1002
}
1002
{
1000
BEHIND
1070
     0
1002
}
1002
{
1000
REACTOR
1002
}
1001
GENIUS_GENOBJ-N-FIL_13
1002
{
1000
OWNER
1000
GEN
1002
}
  0
ARC
  5
29E9
  8
0
 10
276.8321732056402
 20
249.3522413127293
 30
0.0
 40
11.66928995911952
 50
86.98674223133894
 51
126.6456998178233
  0
LINE
  5
29EA
  8
0
 10
321.1755263458654
 20
238.8224252890639
 30
0.0
 11
321.1755263458654
 21
258.8013634506121
 31
0.0
  0
LINE
  5
29EB
  8
0
 10
282.9213704980984
 20
258.7149988313711
 30
0.0
 11
282.9213704980993
 21
240.9938566323897
 31
0.0
  0
LINE
  5
29EC
  8
0
 10
299.9370351348089
 20
258.7149988313711
 30
0.0
 11
299.9370351348089
 21
240.9938566323897
 31
0.0
  0
LINE
  5
29ED
  8
0
 10
312.9912234392596
 20
240.9938566323888
 30
0.0
 11
312.9912234392596
 21
258.7149988313711
 31
0.0
  0
ARC
  5
29EE
  8
0
 10
304.5351297957241
 20
233.9870736739276
 30
0.0
 40
2.565357953936903
 50
223.4761224456275
 51
299.3225919617369
  0
LINE
  5
29EF
  8
0
 10
283.9213704980839
 20
240.9938566323897
 30
0.0
 11
298.9370351348089
 21
240.9938566323897
 31
0.0
  0
ARC
  5
29F0
  8
0
 10
259.1748072313226
 20
243.5891466472763
 30
0.0
 40
23.88796343861021
 50
331.5850581069329
 51
353.7628312294629
  0
ARC
  5
29F1
  8
0
 10
323.6835984015847
 20
243.5891466472763
 30
0.0
 40
23.88796343861022
 50
186.2371687705372
 51
208.4149418930671
  0
ARC
  5
29F2
  8
0
 10
313.9292028164455
 20
223.9938566323879
 30
0.0
 40
2.0
 50
270.0
 51
0.0
1001
GENIUS_GENODEF_13
1002
{
1000
HIER
1070
     0
1002
}
1002
{
1000
MANEDIT
1070
     0
1002
}
1002
{
1000
NOSEL
1070
     0
1002
}
1002
{
1000
BEHIND
1070
     0
1002
}
1002
{
1000
REACTOR
1002
}
1001
GENIUS_GENOBJ-N-FIL_13
1002
{
1000
OWNER
1000
GEN
1002
}
  0
LINE
  5
29F3
  8
0
 10
319.6417283119599
 20
240.9938566323897
 30
0.0
 11
313.9912234392596
 21
240.9938566323897
 31
0.0
  0
ARC
  5
29F4
  8
0
 10
300.2006049742595
 20
243.5308310388473
 30
0.0
 40
13.03979140386123
 50
295.3884402711562
 51
348.7811912002554
  0
LINE
  5
29F5
  8
0
 10
315.9292028164455
 20
229.7355263831894
 30
0.0
 11
315.9292028164455
 21
223.993856632386
 31
0.0
  0
LINE
  5
29F6
  8
0
 10
315.9292028164455
 20
229.7355263831894
 30
0.0
 11
321.1755263458654
 21
238.8224252890893
 31
0.0
  0
ARC
  5
29F7
  8
0
 10
304.6654654488684
 20
255.1013043530443
 30
0.0
 40
5.951205005509814
 50
82.78579972377723
 51
142.6111930863133
  0
LINE
  5
29F8
  8
0
 10
283.9213704980839
 20
258.7149988313711
 30
0.0
 11
298.9370351348089
 21
258.7149988313711
 31
0.0
  0
LINE
  5
29F9
  8
0
 10
319.9074300918883
 20
258.7149988313711
 30
0.0
 11
313.9912234392596
 21
258.7149988313711
 31
0.0
  0
ARC
  5
29FA
  8
0
 10
304.4292028164455
 20
222.9938566323865
 30
0.0
 40
40.00000000000134
 50
68.19625201061636
 51
90.0
  0
ARC
  5
29FB
  8
0
 10
306.026232427268
 20
249.3522413127293
 30
0.0
 40
11.66928995911953
 50
53.35430018217667
 51
93.01325776866108
  0
ARC
  5
29FC
  8
0
 10
317.4292028164618
 20
255.4900102509332
 30
0.0
 40
4.99999999999799
 50
41.47327546866046
 51
68.19625201061613
1001
GENIUS_GENODEF_13
1002
{
1000
HIER
1070
     0
1002
}
1002
{
1000
MANEDIT
1070
     0
1002
}
1002
{
1000
NOSEL
1070
     0
1002
}
1002
{
1000
BEHIND
1070
     0
1002
}
1002
{
1000
REACTOR
1002
}
1001
GENIUS_GENOBJ-N-FIL_13
1002
{
1000
OWNER
1000
GEN
1002
}
  0
ARC
  5
29FD
  8
0
 10
50.62751667124439
 20
230.1973620841557
 30
0.0
 40
30.91919402524992
 50
78.7296769207184
 51
86.2188921363998
  0
LINE
  5
29FE
  8
0
 10
39.66647957400073
 20
262.993856632386
 30
0.0
 11
65.66647957401165
 21
262.9938566323788
 31
0.0
  0
LINE
  5
29FF
  8
0
 10
30.16647957400073
 20
221.993856632386
 30
0.0
 11
75.16647957400028
 21
221.993856632386
 31
0.0
  0
LINE
  5
2A00
  8
0
 10
28.16647957400073
 20
229.7355263831885
 30
0.0
 11
77.16647957400028
 21
229.7355263831885
 31
0.0
  0
ARC
  5
2A01
  8
0
 10
52.71130489263214
 20
235.171815553512
 30
0.0
 40
3.704509570427573
 50
269.306692505253
 51
329.9640267076142
  0
LINE
  5
2A02
  8
0
 10
21.66647957400073
 20
255.4900102509307
 30
0.0
 11
21.66647957400073
 21
240.9938566323879
 31
0.0
  0
LINE
  5
2A03
  8
0
 10
22.44144469507319
 20
240.9938566323879
 30
0.0
 11
22.44144469507319
 21
257.5738541725493
 31
0.0
  0
LINE
  5
2A04
  8
0
 10
45.83851547407357
 20
258.7149988313702
 30
0.0
 11
45.83851547407357
 21
240.9938566323879
 31
0.0
  0
LINE
  5
2A05
  8
0
 10
31.10445895118664
 20
240.9938566323879
 30
0.0
 11
31.10445895118664
 21
258.7149988313702
 31
0.0
  0
ARC
  5
2A06
  8
0
 10
30.31302866506212
 20
232.1117540883906
 30
0.0
 40
0.5000000000001373
 50
246.2367264954695
 51
357.25323245334
1001
GENIUS_GENODEF_13
1002
{
1000
HIER
1070
     0
1002
}
1002
{
1000
MANEDIT
1070
     0
1002
}
1002
{
1000
NOSEL
1070
     0
1002
}
1002
{
1000
BEHIND
1070
     0
1002
}
1002
{
1000
REACTOR
1002
}
1001
GENIUS_GENOBJ-N-FIL_13
1002
{
1000
OWNER
1000
GEN
1002
}
  0
ARC
  5
2A07
  8
0
 10
30.16647957400073
 20
223.993856632386
 30
0.0
 40
2.0
 50
180.0
 51
270.0
1001
GENIUS_GENODEF_13
1002
{
1000
HIER
1070
     0
1002
}
1002
{
1000
MANEDIT
1070
     0
1002
}
1002
{
1000
NOSEL
1070
     0
1002
}
1002
{
1000
BEHIND
1070
     0
1002
}
1002
{
1000
REACTOR
1002
}
1001
GENIUS_GENOBJ-N-FIL_13
1002
{
1000
OWNER
1000
GEN
1002
}
  0
LINE
  5
2A08
  8
0
 10
28.16647957400073
 20
229.7355263831885
 30
0.0
 11
28.16647957400073
 21
223.9938566323851
 31
0.0
  0
LINE
  5
2A09
  8
0
 10
28.16647957400073
 20
229.7355263831885
 30
0.0
 11
21.66647957400073
 21
240.9938566323879
 31
0.0
  0
ARC
  5
2A0A
  8
0
 10
33.55491604026838
 20
238.9771189749588
 30
0.0
 40
8.092139528442901
 50
218.3219467238751
 51
244.8164215542312
  0
ARC
  5
2A0B
  8
0
 10
59.01732612249543
 20
260.6377700098024
 30
0.0
 40
41.51720649287704
 50
208.2390387289538
 51
219.9850051421017
  0
LINE
  5
2A0C
  8
0
 10
32.10445895118664
 20
241.0050186581391
 30
0.0
 11
44.83851547407357
 21
240.9938566323851
 31
0.0
  0
ARC
  5
2A0D
  8
0
 10
-149.6452764282171
 20
240.7455952493569
 30
0.0
 40
180.6652985045642
 50
357.2532324534187
 51
0.0787330719278605
  0
ARC
  5
2A0E
  8
0
 10
52.62165425538478
 20
235.171815553512
 30
0.0
 40
3.704509570427561
 50
210.0359732923834
 51
270.6933074947401
  0
ARC
  5
2A0F
  8
0
 10
61.9852921335405
 20
243.8448897950186
 30
0.0
 40
16.39654800819768
 50
190.0134925743615
 51
219.9445765225451
  0
ARC
  5
2A10
  8
0
 10
39.66647957400073
 20
222.9938566323885
 30
0.0
 40
39.99999999999841
 50
90.0
 51
111.8037479893853
  0
ARC
  5
2A11
  8
0
 10
27.21950790066512
 20
255.7798558263316
 30
0.0
 40
4.869076824715424
 50
37.07163361014329
 51
88.33534575517055
  0
ARC
  5
2A12
  8
0
 10
26.66647957400073
 20
255.4900102509307
 30
0.0
 40
4.999999999999826
 50
111.803747989381
 51
180.0
1001
GENIUS_GENODEF_13
1002
{
1000
HIER
1070
     0
1002
}
1002
{
1000
MANEDIT
1070
     0
1002
}
1002
{
1000
NOSEL
1070
     0
1002
}
1002
{
1000
BEHIND
1070
     0
1002
}
1002
{
1000
REACTOR
1002
}
1001
GENIUS_GENOBJ-N-FIL_13
1002
{
1000
OWNER
1000
GEN
1002
}
  0
ARC
  5
2A13
  8
0
 10
29.01512841160638
 20
252.5245036836341
 30
0.0
 40
8.289104774638442
 50
101.5112441720044
 51
142.4715634063268
  0
LINE
  5
2A14
  8
0
 10
32.10445895118664
 20
258.7149988313702
 30
0.0
 11
44.83851547407357
 21
258.7149988313702
 31
0.0
  0
ARC
  5
2A15
  8
0
 10
54.70544247677299
 20
230.1973620841522
 30
0.0
 40
30.91919402525333
 50
93.78110786360146
 51
101.2703230792821
  0
ARC
  5
2A16
  8
0
 10
49.02380744461334
 20
256.8437160666504
 30
0.0
 40
3.694290746966676
 50
95.61023783029427
 51
149.5667841226208
  0
LINE
  5
2A17
  8
0
 10
83.66647957400119
 20
255.4900102509298
 30
0.0
 11
83.66647957400119
 21
240.9938566323879
 31
0.0
  0
LINE
  5
2A18
  8
0
 10
74.22850019682983
 20
240.9938566323879
 30
0.0
 11
74.22850019682983
 21
258.7149988313702
 31
0.0
  0
LINE
  5
2A19
  8
0
 10
82.89151445294328
 20
240.9938566323879
 30
0.0
 11
82.89151445294328
 21
257.5738541725493
 31
0.0
  0
LINE
  5
2A1A
  8
0
 10
59.49444367394335
 20
258.7149988313702
 30
0.0
 11
59.49444367394335
 21
240.9938566323879
 31
0.0
  0
LINE
  5
2A1B
  8
0
 10
77.16647957400028
 20
229.7355263831876
 30
0.0
 11
83.66647957400119
 21
240.9938566323879
 31
0.0
  0
ARC
  5
2A1C
  8
0
 10
46.31563302551467
 20
260.6377700098074
 30
0.0
 40
41.51720649288583
 50
320.0149948579
 51
331.7609612710448
  0
ARC
  5
2A1D
  8
0
 10
75.16647957400028
 20
223.993856632386
 30
0.0
 40
2.0
 50
270.0
 51
0.0
1001
GENIUS_GENODEF_13
1002
{
1000
HIER
1070
     0
1002
}
1002
{
1000
MANEDIT
1070
     0
1002
}
1002
{
1000
NOSEL
1070
     0
1002
}
1002
{
1000
BEHIND
1070
     0
1002
}
1002
{
1000
REACTOR
1002
}
1001
GENIUS_GENOBJ-N-FIL_13
1002
{
1000
OWNER
1000
GEN
1002
}
  0
LINE
  5
2A1E
  8
0
 10
73.3131076460536
 20
240.9938566323879
 30
0.0
 11
60.49444367394335
 21
240.9938566323879
 31
0.0
  0
ARC
  5
2A1F
  8
0
 10
43.34766701447961
 20
243.844889795017
 30
0.0
 40
16.39654800819415
 50
320.0554234774524
 51
349.9865074256929
  0
LINE
  5
2A20
  8
0
 10
77.16647957400028
 20
229.7355263831876
 30
0.0
 11
77.16647957400028
 21
223.9938566323851
 31
0.0
  0
ARC
  5
2A21
  8
0
 10
254.9782355762336
 20
240.7455952493588
 30
0.0
 40
180.6652985045639
 50
179.9212669280768
 51
182.7467675465875
  0
ARC
  5
2A22
  8
0
 10
71.77804310774945
 20
238.9771189749588
 30
0.0
 40
8.092139528442887
 50
295.1835784457688
 51
321.6780532761216
  0
ARC
  5
2A23
  8
0
 10
75.01993048295526
 20
232.1117540883904
 30
0.0
 40
0.5000000000000417
 50
182.7467675466345
 51
293.763273504594
1001
GENIUS_GENODEF_13
1002
{
1000
HIER
1070
     0
1002
}
1002
{
1000
MANEDIT
1070
     0
1002
}
1002
{
1000
NOSEL
1070
     0
1002
}
1002
{
1000
BEHIND
1070
     0
1002
}
1002
{
1000
REACTOR
1002
}
1001
GENIUS_GENOBJ-N-FIL_13
1002
{
1000
OWNER
1000
GEN
1002
}
  0
ARC
  5
2A24
  8
0
 10
65.66647957399982
 20
222.9938566323872
 30
0.0
 40
39.99999999999903
 50
68.19625201061365
 51
90.0
  0
ARC
  5
2A25
  8
0
 10
76.317830736411
 20
252.5245036836341
 30
0.0
 40
8.289104774638432
 50
37.5284365936737
 51
78.48875582799562
  0
LINE
  5
2A26
  8
0
 10
73.3131076460536
 20
258.7149988313693
 30
0.0
 11
60.49444367394335
 21
258.7149988313702
 31
0.0
  0
ARC
  5
2A27
  8
0
 10
56.30915170340359
 20
256.8437160666504
 30
0.0
 40
3.69429074696669
 50
30.43321587738551
 51
84.38976216971996
  0
ARC
  5
2A28
  8
0
 10
78.11345124735226
 20
255.7798558263316
 30
0.0
 40
4.869076824715402
 50
91.6646542448241
 51
142.9283663898567
  0
ARC
  5
2A29
  8
0
 10
78.66647957400164
 20
255.49001025093
 30
0.0
 40
4.999999999999716
 50
0.0
 51
68.19625201062387
1001
GENIUS_GENODEF_13
1002
{
1000
HIER
1070
     0
1002
}
1002
{
1000
MANEDIT
1070
     0
1002
}
1002
{
1000
NOSEL
1070
     0
1002
}
1002
{
1000
BEHIND
1070
     0
1002
}
1002
{
1000
REACTOR
1002
}
1001
GENIUS_GENOBJ-N-FIL_13
1002
{
1000
OWNER
1000
GEN
1002
}
  0
VIEWPORT
  5
22
 67
     1
  8
0
 10
5.269134197284911
 20
5.545311567251436
 30
0.0
 40
11.13808705479925
 41
12.32365374410561
 68
     1
 69
     1
1001
GENIUS_GENSCREG_15
1000
PF
1040
1.0
1000
DF
1040
1.0
1000
MIN
1011
-0.2999093301147138
1021
-0.6165153048013714
1031
0.0
1021
-0.6165153048013714
1031
0.0
1000
MAX
1011
10.83817772468454
1021
11.70713843930424
1031
0.0
1021
11.70713843930424
1031
0.0
1000
FLAGS
1070
     4
1001
GENIUS_GENODEF_13
1002
{
1000
HIER
1070
     0
1002
}
1002
{
1000
MANEDIT
1070
     0
1002
}
1002
{
1000
NOSEL
1070
     0
1002
}
1002
{
1000
BEHIND
1070
     0
1002
}
1002
{
1000
OTHER
1070
     0
1002
}
1002
{
1000
REACTOR
1002
}
1001
GENIUS_GENOBJ-N-SDF_13
1002
{
1000
OWNER
1000
GEN
1002
}
1001
ACAD
1000
MVIEW
1002
{
1070
    16
1010
0.0
1020
0.0
1030
0.0
1020
0.0
1030
0.0
1010
0.0
1020
0.0
1030
1.0
1020
0.0
1030
1.0
1040
0.0
1040
12.32365374410561
1040
5.269134197284911
1040
5.545311567251436
1040
50.0
1040
0.0
1040
0.0
1070
     0
1070
   100
1070
     0
1070
     1
1070
     0
1070
     0
1070
     0
1070
     0
1040
0.0
1040
0.0
1040
0.0
1040
1.0
1040
1.0
1040
10.0
1040
10.0
1070
     0
1002
{
1002
}
1002
}
  0
ENDSEC
  0
EOF
