  0
SECTION
  2
HEADER
  9
$ACADVER
  1
AC1009
  9
$DWGCODEPAGE
  3
ansi_932
  9
$INSBASE
 10
0.0
 20
0.0
 30
0.0
  9
$EXTMIN
 10
0.0
 20
0.0
 30
0.0
  9
$EXTMAX
 10
389.004875342061
 20
375.3779330027892
 30
0.0
  9
$LIMMIN
 10
0.0
 20
0.0
  9
$LIMMAX
 10
420.0
 20
420.0
  9
$ORTHOMODE
 70
     0
  9
$REGENMODE
 70
     1
  9
$FILLMODE
 70
     1
  9
$QTEXTMODE
 70
     0
  9
$MIRRTEXT
 70
     0
  9
$DRAGMODE
 70
     2
  9
$LTSCALE
 40
10.0
  9
$OSMODE
 70
 15359
  9
$ATTMODE
 70
     1
  9
$TEXTSIZE
 40
3.5
  9
$TRACEWID
 40
1.0
  9
$TEXTSTYLE
  7
STANDARD
  9
$CLAYER
  8
0
  9
$CELTYPE
  6
BYLAYER
  9
$CECOLOR
 62
   256
  9
$DIMSCALE
 40
1.0
  9
$DIMASZ
 40
2.5
  9
$DIMEXO
 40
1.0
  9
$DIMDLI
 40
7.0
  9
$DIMRND
 40
0.0
  9
$DIMDLE
 40
0.0
  9
$DIMEXE
 40
1.0
  9
$DIMTP
 40
0.1
  9
$DIMTM
 40
0.1
  9
$DIMTXT
 40
3.0
  9
$DIMCEN
 40
0.0
  9
$DIMTSZ
 40
0.0
  9
$DIMTOL
 70
     0
  9
$DIMLIM
 70
     0
  9
$DIMTIH
 70
     0
  9
$DIMTOH
 70
     0
  9
$DIMSE1
 70
     0
  9
$DIMSE2
 70
     0
  9
$DIMTAD
 70
     3
  9
$DIMZIN
 70
     8
  9
$DIMBLK
  1
OPEN
  9
$DIMASO
 70
     1
  9
$DIMSHO
 70
     1
  9
$DIMPOST
  1

  9
$DIMAPOST
  1
"
  9
$DIMALT
 70
     0
  9
$DIMALTD
 70
     2
  9
$DIMALTF
 40
0.0393701
  9
$DIMLFAC
 40
1.0
  9
$DIMTOFL
 70
     1
  9
$DIMTVP
 40
0.0
  9
$DIMTIX
 70
     0
  9
$DIMSOXD
 70
     0
  9
$DIMSAH
 70
     0
  9
$DIMBLK1
  1

  9
$DIMBLK2
  1

  9
$DIMSTYLE
  2
AM_JIS
  9
$DIMCLRD
 70
   256
  9
$DIMCLRE
 70
   256
  9
$DIMCLRT
 70
     2
  9
$DIMTFAC
 40
0.71
  9
$DIMGAP
 40
1.0
  9
$LUNITS
 70
     2
  9
$LUPREC
 70
     2
  9
$SKETCHINC
 40
1.0
  9
$FILLETRAD
 40
2.5
  9
$AUNITS
 70
     0
  9
$AUPREC
 70
     0
  9
$MENU
  1
.
  9
$ELEVATION
 40
0.0
  9
$PELEVATION
 40
0.0
  9
$THICKNESS
 40
0.0
  9
$LIMCHECK
 70
     0
  9
$CHAMFERA
 40
2.5
  9
$CHAMFERB
 40
2.5
  9
$SKPOLY
 70
     1
  9
$TDCREATE
 40
2460208.721825914
  9
$TDUPDATE
 40
2460210.730335949
  9
$TDINDWG
 40
0.1303515972
  9
$TDUSRTIMER
 40
0.1302546181
  9
$USRTIMER
 70
     1
  9
$ANGBASE
 50
0.0
  9
$ANGDIR
 70
     0
  9
$PDMODE
 70
     0
  9
$PDSIZE
 40
0.0
  9
$PLINEWID
 40
0.0
  9
$COORDS
 70
     2
  9
$SPLFRAME
 70
     0
  9
$SPLINETYPE
 70
     6
  9
$SPLINESEGS
 70
     8
  9
$ATTDIA
 70
     1
  9
$ATTREQ
 70
     1
  9
$HANDLING
 70
     1
  9
$HANDSEED
  5
2ED9
  9
$SURFTAB1
 70
     6
  9
$SURFTAB2
 70
     6
  9
$SURFTYPE
 70
     6
  9
$SURFU
 70
     6
  9
$SURFV
 70
     6
  9
$UCSNAME
  2

  9
$UCSORG
 10
0.0
 20
0.0
 30
0.0
  9
$UCSXDIR
 10
1.0
 20
0.0
 30
0.0
  9
$UCSYDIR
 10
0.0
 20
1.0
 30
0.0
  9
$PUCSNAME
  2

  9
$PUCSORG
 10
0.0
 20
0.0
 30
0.0
  9
$PUCSXDIR
 10
1.0
 20
0.0
 30
0.0
  9
$PUCSYDIR
 10
0.0
 20
1.0
 30
0.0
  9
$USERI1
 70
     0
  9
$USERI2
 70
     0
  9
$USERI3
 70
     0
  9
$USERI4
 70
     0
  9
$USERI5
 70
     0
  9
$USERR1
 40
0.0
  9
$USERR2
 40
0.0
  9
$USERR3
 40
0.0
  9
$USERR4
 40
0.0
  9
$USERR5
 40
0.0
  9
$WORLDVIEW
 70
     1
  9
$SHADEDGE
 70
     3
  9
$SHADEDIF
 70
    70
  9
$TILEMODE
 70
     1
  9
$MAXACTVP
 70
    48
  9
$PLIMCHECK
 70
     0
  9
$PEXTMIN
 10
1.000000000000000E+20
 20
1.000000000000000E+20
 30
1.000000000000000E+20
  9
$PEXTMAX
 10
-1.000000000000000E+20
 20
-1.000000000000000E+20
 30
-1.000000000000000E+20
  9
$PLIMMIN
 10
-0.2500002402958907
 20
-0.2499999962453767
  9
$PLIMMAX
 10
10.74999951940822
 20
8.249999763458732
  9
$UNITMODE
 70
     0
  9
$VISRETAIN
 70
     1
  9
$PLINEGEN
 70
     0
  9
$PSLTSCALE
 70
     1
  0
ENDSEC
  0
SECTION
  2
TABLES
  0
TABLE
  2
VPORT
 70
     1
  0
VPORT
  2
*ACTIVE
 70
     0
 10
0.0
 20
0.0
 11
1.0
 21
1.0
 12
194.5024376710305
 22
187.688966501394
 13
0.0
 23
0.0
 14
2.5
 24
2.5
 15
10.0
 25
10.0
 16
0.0
 26
0.0
 36
1.0
 17
0.0
 27
0.0
 37
0.0
 40
378.7559121524209
 41
2.295429208472687
 42
50.0
 43
0.0
 44
0.0
 50
0.0
 51
0.0
 71
     0
 72
   100
 73
     1
 74
     3
 75
     0
 76
     0
 77
     0
 78
     0
  0
ENDTAB
  0
TABLE
  2
LTYPE
 70
    14
  0
LTYPE
  2
CONTINUOUS
 70
     0
  3
Solid line
 72
    65
 73
     0
 40
0.0
  0
LTYPE
  2
PHANTOM2
 70
     0
  3
___ _ _ ___ _ _ ___ _ _ ___ _ _ ___ _ _ ___ _ _
 72
    65
 73
     6
 40
1.25
 49
0.625
 49
-0.125
 49
0.125
 49
-0.125
 49
0.125
 49
-0.125
  0
LTYPE
  2
ACJISTGB
 70
     0
  3
__ . . __ . .
 72
    65
 73
     6
 40
9.0
 49
4.0
 49
-1.0
 49
1.0
 49
-1.0
 49
1.0
 49
-1.0
  0
LTYPE
  2
ACJISTGL
 70
     0
  3
_ _ _ _ _
 72
    65
 73
     2
 40
3.0
 49
2.0
 49
-1.0
  0
LTYPE
  2
AM_ISO02W050
 70
     0
  3
__ __ __ __ __ __ __ __ __ __ __ __ __ __ __
 72
    65
 73
     2
 40
7.5
 49
6.0
 49
-1.5
  0
LTYPE
  2
AM_ISO08W050
 70
     0
  3
____ . ____ . ____ . ____ . ____ . ____ . ____
 72
    65
 73
     4
 40
18.0
 49
12.0
 49
-1.5
 49
3.0
 49
-1.5
  0
LTYPE
  2
AM_ISO09W050
 70
     0
  3
_____ . . _____ . . _____ . . ____ .. ____
 72
    65
 73
     6
 40
22.5
 49
12.0
 49
-1.5
 49
3.0
 49
-1.5
 49
3.0
 49
-1.5
  0
LTYPE
  2
AM_ISO02W050X2
 70
     0
  3
 _ _ _ _ _ _ _ _ _ _ _ _
 72
    65
 73
     2
 40
3.75
 49
3.0
 49
-0.75
  0
LTYPE
  2
AM_ISO08W050X2
 70
     0
  3
__ . __ . __ . __ . __ . __
 72
    65
 73
     4
 40
9.0
 49
6.0
 49
-0.75
 49
1.5
 49
-0.75
  0
LTYPE
  2
AMZIGZAG
 70
     0
  3
/\/-/\/-/\/-/\/-/\/-/\/
 72
    65
 73
     2
 40
11.0001
 49
0.0001
 49
-11.0
  0
LTYPE
  2
AMCONSTR
 70
     0
  3
_______________________
 72
    65
 73
     2
 40
9999.0
 49
9999.0
 49
0.0
  0
LTYPE
  2
CENTER2
 70
     0
  3
Center (.5x) ___ _ ___ _ ___ _ ___ _ ___ _ ___
 72
    65
 73
     4
 40
1.125
 49
0.75
 49
-0.125
 49
0.125
 49
-0.125
  0
LTYPE
  2
HIDDEN2
 70
     0
  3
Hidden (.5x) _ _ _ _ _ _ _ _ _ _ _ _ _ _ _ _ _
 72
    65
 73
     2
 40
0.1875
 49
0.125
 49
-0.0625
  0
LTYPE
  2
ACJISWELD
 70
     0
  3
_ _ _ _ _
 72
    65
 73
     2
 40
2.0
 49
2.0
 49
-1.0
  0
ENDTAB
  0
TABLE
  2
LAYER
 70
     4
  0
LAYER
  2
0
 70
     0
 62
     7
  6
CONTINUOUS
  0
LAYER
  2
7
 70
     0
 62
     4
  6
CENTER2
  0
LAYER
  2
AM_0
 70
     0
 62
     7
  6
CONTINUOUS
  0
LAYER
  2
10
 70
     0
 62
     2
  6
CONTINUOUS
  0
ENDTAB
  0
TABLE
  2
STYLE
 70
     4
  0
STYLE
  2
STANDARD
 70
     0
 40
0.0
 41
1.0
 50
0.0
 71
     0
 42
3.5
  3
isocp.shx
  4
extfont.shx
  0
STYLE
  2
ACJISTS
 70
     0
 40
1.0
 41
1.0
 50
0.0
 71
     0
 42
3.5
  3
isocp.shx
  4
extfont.shx
  0
STYLE
  2
ACJISGDT
 70
     0
 40
0.0
 41
1.0
 50
0.0
 71
     0
 42
3.5
  3
amgdt.shx
  4
extfont.shx
  0
STYLE
  2

 70
     1
 40
0.0
 41
1.0
 50
0.0
 71
     0
 42
3.5
  3
ltypeshp.shx
  4

  0
ENDTAB
  0
TABLE
  2
VIEW
 70
     3
  0
VIEW
  2
AMDTVIEW1
 70
     0
 40
329.0721649484536
 10
210.0
 20
164.5360824742268
 41
420.0
 11
0.0
 21
0.0
 31
1.0
 12
0.0
 22
0.0
 32
0.0
 42
50.0
 43
0.0
 44
0.0
 50
0.0
 71
     0
  0
VIEW
  2
AMDTVIEW2
 70
     0
 40
329.0721649484536
 10
210.0
 20
164.5360824742268
 41
420.0
 11
0.0
 21
0.0
 31
1.0
 12
0.0
 22
0.0
 32
0.0
 42
50.0
 43
0.0
 44
0.0
 50
0.0
 71
     0
  0
VIEW
  2
AMDTVIEW3
 70
     0
 40
329.0721649484536
 10
210.0
 20
164.5360824742268
 41
420.0
 11
0.0
 21
0.0
 31
1.0
 12
0.0
 22
0.0
 32
0.0
 42
50.0
 43
0.0
 44
0.0
 50
0.0
 71
     0
  0
ENDTAB
  0
TABLE
  2
UCS
 70
     0
  0
ENDTAB
  0
TABLE
  2
APPID
 70
    67
  0
APPID
  2
ACAD
 70
     0
  0
APPID
  2
AD_DRAW
 70
     0
  0
APPID
  2
DESIGNERASSEMBLIES
 70
     0
  0
APPID
  2
MCAD_NO_VIS
 70
     0
  0
APPID
  2
ASURF_PCURVE_APPNAME
 70
     0
  0
APPID
  2
ACAD_TEMP_GRAPHIC
 70
     0
  0
APPID
  2
ACATTRIBSERVICES
 70
     0
  0
APPID
  2
ACADM_DIM_EDIT
 70
     0
  0
APPID
  2
GENIUS_GENDIM_13
 70
     0
  0
APPID
  2
GENIUS_GENDTOL_13
 70
     0
  0
APPID
  2
GENIUS_GE3DTOL_13
 70
     0
  0
APPID
  2
AMG_3D2D_5_0
 70
     0
  0
APPID
  2
AMDT_DM_ADJ
 70
     0
  0
APPID
  2
ACAD_PSEXT
 70
     0
  0
APPID
  2
ACAD_DSTYLE_DIMTEXT_FILL
 70
     0
  0
APPID
  2
ACAECLAYERSTANDARD
 70
     0
  0
APPID
  2
GENIUS_GENREC_14
 70
     0
  0
APPID
  2
GENIUS_GENODEF_13
 70
     0
  0
APPID
  2
GENIUS_GENOBJ-N-REC_13
 70
     0
  0
APPID
  2
DCO15
 70
     0
  0
APPID
  2
ACAD_DSTYLE_DIMJAG
 70
     0
  0
APPID
  2
ACAD_DSTYLE_DIMTALN
 70
     0
  0
APPID
  2
ACAD_MLEADERVER
 70
     0
  0
APPID
  2
GENIUS_GENSCREG_15
 70
     0
  0
APPID
  2
GENIUS_GENOBJ-N-SDF_13
 70
     0
  0
APPID
  2
ACAD_NAV_VCDISPLAY
 70
     0
  0
APPID
  2
ACAD_EXEMPT_FROM_CAD_STAND
 70
     0
  0
APPID
  2
ACCMTRANSPARENCY
 70
     0
  0
APPID
  2
HC_SUPERPART
 70
     0
  0
APPID
  2
HC_SP4BLOCK
 70
     0
  0
APPID
  2
HC_XDATA_SPRING
 70
     0
  0
APPID
  2
HCCAD_FRAME
 70
     0
  0
APPID
  2
GENIUS_GENOLIS_13
 70
     0
  0
APPID
  2
GENIUS_GENOENT_13
 70
     0
  0
APPID
  2
GENIUS_GENOREF_13
 70
     0
  0
APPID
  2
GENIUS_GENOBJ-N-TIT_13
 70
     0
  0
APPID
  2
GENIUS_GENOBJ-N-ZOO_13
 70
     0
  0
APPID
  2
GENIUS_GENTITLE_13
 70
     0
  0
APPID
  2
GENIUS_GENSYMENT_13
 70
     0
  0
APPID
  2
GENIUS_GENSCSYM_13
 70
     0
  0
APPID
  2
GENIUS_GENOBJ-N-REV_13
 70
     0
  0
APPID
  2
GENIUS_GENOBJ-N-RSSYM_13
 70
     0
  0
APPID
  2
GENIUS_GENREV_15
 70
     0
  0
APPID
  2
HRA
 70
     0
  0
APPID
  2
HTIT
 70
     0
  0
APPID
  2
GENIUS_GENZOO_17
 70
     0
  0
APPID
  2
GENIUS_GENOBJ-N-CEN_13
 70
     0
  0
APPID
  2
GENIUS_GENCEN_19
 70
     0
  0
APPID
  2
GENIUS_GENOBJ-N-CRS_13
 70
     0
  0
APPID
  2
GENIUS_GENCRS_20
 70
     0
  0
APPID
  2
GENIUS_GENOBJ-N-CRC_13
 70
     0
  0
APPID
  2
GENIUS_GENCRC_14
 70
     0
  0
APPID
  2
GENIUS_GENFIL_13
 70
     0
  0
APPID
  2
GENIUS_GENOBJ-N-CHA_13
 70
     0
  0
APPID
  2
GENIUS_GENOBJ-N-FIL_13
 70
     0
  0
APPID
  2
GENIUS_GENHATCH_13
 70
     0
  0
APPID
  2
GENIUS_GENOBJ-N-HTC_13
 70
     0
  0
APPID
  2
GENIUS_GENOBJ-N-DIM_13
 70
     0
  0
APPID
  2
GENIUS_GENOBJ-N-DIMLI_13
 70
     0
  0
APPID
  2
GENIUS_GENOBJ-N-FITL_13
 70
     0
  0
APPID
  2
GENIUS_GENFITL_13
 70
     0
  0
APPID
  2
GENLAYCOLOR
 70
     0
  0
APPID
  2
ACAD_DSTYLE_DIMBREAK
 70
     0
  0
APPID
  2
ACADANNOTATIVE
 70
     0
  0
APPID
  2
ACADANNOPO
 70
     0
  0
APPID
  2
GRPNAME
 70
     0
  0
APPID
  2
PLOTTRANSPARENCY
 70
     0
  0
ENDTAB
  0
TABLE
  2
DIMSTYLE
 70
     8
  0
DIMSTYLE
  2
STANDARD
 70
     0
  3

  4

  5

  6

  7

 40
1.0
 41
2.5
 42
0.625
 43
3.75
 44
1.25
 45
0.0
 46
0.0
 47
0.0
 48
0.0
140
2.5
141
2.5
142
0.0
143
0.0394
144
1.0
145
0.0
146
1.0
147
0.625
 71
     0
 72
     0
 73
     0
 74
     0
 75
     0
 76
     0
 77
     1
 78
     8
170
     0
171
     4
172
     1
173
     0
174
     0
175
     0
176
     0
177
     0
178
     0
  0
DIMSTYLE
  2
ISO-25
 70
     0
  3

  4

  5

  6

  7

 40
1.0
 41
2.5
 42
0.625
 43
3.75
 44
1.25
 45
0.0
 46
0.0
 47
0.0
 48
0.0
140
2.5
141
2.5
142
0.0
143
0.0394
144
1.0
145
0.0
146
1.0
147
0.625
 71
     0
 72
     0
 73
     0
 74
     0
 75
     0
 76
     0
 77
     1
 78
     8
170
     0
171
     4
172
     1
173
     0
174
     0
175
     0
176
     0
177
     0
178
     0
  0
DIMSTYLE
  2
AM_JIS
 70
     0
  3

  4
"
  5
OPEN
  6

  7

 40
1.0
 41
2.5
 42
1.0
 43
7.0
 44
1.0
 45
0.0
 46
0.0
 47
0.1
 48
0.1
140
3.0
141
0.0
142
0.0
143
0.0393701
144
1.0
145
0.0
146
0.71
147
1.0
 71
     0
 72
     0
 73
     0
 74
     0
 75
     0
 76
     0
 77
     3
 78
     8
170
     0
171
     2
172
     1
173
     0
174
     0
175
     0
176
   256
177
   256
178
     2
  0
DIMSTYLE
  2
AM_JIS$3
 70
     0
  3

  4
"
  5
OPEN
  6

  7

 40
1.0
 41
2.5
 42
1.0
 43
10.0
 44
1.0
 45
0.0
 46
0.0
 47
0.1
 48
0.1
140
3.0
141
0.0
142
0.0
143
0.0393701
144
1.0
145
0.0
146
0.71
147
1.0
 71
     0
 72
     0
 73
     0
 74
     0
 75
     0
 76
     0
 77
     3
 78
     8
170
     0
171
     2
172
     1
173
     0
174
     0
175
     0
176
   256
177
   256
178
     2
  0
DIMSTYLE
  2
AM_JIS$4
 70
     0
  3

  4
"
  5

  6
OPEN30
  7
OPEN
 40
1.0
 41
2.5
 42
1.0
 43
10.0
 44
1.0
 45
0.0
 46
0.0
 47
0.1
 48
0.1
140
3.0
141
0.0
142
0.0
143
0.0393701
144
1.0
145
0.0
146
0.71
147
1.0
 71
     0
 72
     0
 73
     0
 74
     0
 75
     1
 76
     0
 77
     3
 78
     8
170
     0
171
     2
172
     1
173
     1
174
     0
175
     0
176
   256
177
   256
178
     2
  0
DIMSTYLE
  2
AM_JIS$6
 70
     0
  3

  4
"
  5
OPEN30
  6
OPEN30
  7
OPEN30
 40
1.0
 41
2.5
 42
1.0
 43
10.0
 44
1.0
 45
0.0
 46
0.0
 47
0.1
 48
0.1
140
3.5
141
0.0
142
0.0
143
0.0393701
144
1.0
145
0.0
146
0.71
147
1.5
 71
     0
 72
     0
 73
     0
 74
     0
 75
     0
 76
     0
 77
     0
 78
     8
170
     0
171
     2
172
     1
173
     0
174
     0
175
     0
176
   256
177
   256
178
     2
  0
DIMSTYLE
  2
AM_JIS$7
 70
     0
  3

  4
"
  5
OPEN30
  6

  7

 40
1.0
 41
2.5
 42
1.0
 43
10.0
 44
1.0
 45
0.0
 46
0.0
 47
0.1
 48
0.1
140
3.0
141
0.0
142
0.0
143
0.0393701
144
1.0
145
0.0
146
0.71
147
1.0
 71
     0
 72
     0
 73
     0
 74
     0
 75
     0
 76
     0
 77
     3
 78
     8
170
     0
171
     2
172
     1
173
     0
174
     0
175
     0
176
   256
177
   256
178
     2
  0
DIMSTYLE
  2
AM_JIS$0
 70
     0
  3

  4
"
  5
OPEN
  6

  7

 40
1.0
 41
2.5
 42
1.0
 43
7.0
 44
1.0
 45
0.0
 46
0.0
 47
0.1
 48
0.1
140
3.0
141
0.0
142
0.0
143
0.0393701
144
1.0
145
0.0
146
0.71
147
1.0
 71
     0
 72
     0
 73
     0
 74
     0
 75
     0
 76
     0
 77
     3
 78
     8
170
     0
171
     2
172
     1
173
     0
174
     0
175
     0
176
   256
177
   256
178
     2
  0
ENDTAB
  0
ENDSEC
  0
SECTION
  2
BLOCKS
  0
BLOCK
  8
0
  2
$MODEL_SPACE
 70
     0
 10
0.0
 20
0.0
 30
0.0
  3
$MODEL_SPACE
  1

  0
ENDBLK
  5
1C
  8
0
  0
BLOCK
 67
     1
  8
0
  2
$PAPER_SPACE
 70
     0
 10
0.0
 20
0.0
 30
0.0
  3
$PAPER_SPACE
  1

  0
ENDBLK
  5
19
 67
     1
  8
0
  0
BLOCK
  8
0
  2
_OPEN30
 70
     0
 10
0.0
 20
0.0
 30
0.0
  3
_OPEN30
  1

  0
LINE
  5
2EF
  8
0
  6
BYBLOCK
 62
     0
 10
-1.0
 20
0.26794919
 30
0.0
 11
0.0
 21
0.0
 31
0.0
  0
LINE
  5
2F0
  8
0
  6
BYBLOCK
 62
     0
 10
0.0
 20
0.0
 30
0.0
 11
-1.0
 21
-0.26794919
 31
0.0
  0
LINE
  5
2F1
  8
0
  6
BYBLOCK
 62
     0
 10
0.0
 20
0.0
 30
0.0
 11
-1.0
 21
0.0
 31
0.0
  0
ENDBLK
  5
2F3
  8
0
  0
BLOCK
  8
0
  2
_OPEN
 70
     0
 10
0.0
 20
0.0
 30
0.0
  3
_OPEN
  1

  0
LINE
  5
597
  8
0
  6
BYBLOCK
 62
     0
 10
-1.0
 20
0.1666666666666667
 30
0.0
 11
0.0
 21
0.0
 31
0.0
  0
LINE
  5
598
  8
0
  6
BYBLOCK
 62
     0
 10
-1.0
 20
-0.1666666666666667
 30
0.0
 11
0.0
 21
0.0
 31
0.0
  0
LINE
  5
599
  8
0
  6
BYBLOCK
 62
     0
 10
0.0
 20
0.0
 30
0.0
 11
-1.0
 21
0.0
 31
0.0
  0
ENDBLK
  5
59B
  8
0
  0
BLOCK
  8
0
  2
_TAGCIRCLE
 70
     2
 10
0.0
 20
0.0
 30
0.0
  3
_TAGCIRCLE
  1

  0
CIRCLE
  5
1151
  8
0
  6
BYBLOCK
 62
     0
 10
0.0
 20
0.0
 30
0.0
 40
4.0
  0
ATTDEF
  5
1152
  8
0
 62
     0
 10
-7.1
 20
-1.5
 30
0.0
 40
3.0
  1
タグ番号
 72
     1
 11
0.0
 21
-1.5
 31
0.0
  3
タグ番号を入力
  2
タグ番号
 70
     0
  0
ENDBLK
  5
1154
  8
0
  0
BLOCK
  8
AM_0
  2
_ACMOPEN30
 70
     0
 10
0.0
 20
0.0
 30
0.0
  3
_ACMOPEN30
  1
Acad:XRef
  0
LINE
  5
1CA4
  8
AM_0
 62
     0
 10
-1.0
 20
0.0
 30
0.0
 11
0.0
 21
0.0
 31
0.0
  0
LINE
  5
1CA5
  8
AM_0
 62
     0
 10
-1.0
 20
-0.2679491924311227
 30
0.0
 11
0.0
 21
0.0
 31
0.0
  0
LINE
  5
1CA6
  8
AM_0
 62
     0
 10
-1.0
 20
0.2679491924311227
 30
0.0
 11
0.0
 21
0.0
 31
0.0
  0
ENDBLK
  5
1CA7
  8
AM_0
  0
ENDSEC
  0
SECTION
  2
ENTITIES
  0
LINE
  5
2D72
  8
0
 10
245.4292028164489
 20
346.5813007611143
 30
0.0
 11
211.8039722882975
 21
346.5813007611143
 31
0.0
  0
LINE
  5
2D73
  8
0
 10
245.4292028164489
 20
320.0813007611143
 30
0.0
 11
211.803972288292
 21
320.0813007611143
 31
0.0
  0
LINE
  5
2D74
  8
0
 10
201.4292028164489
 20
346.2190058278579
 30
0.0
 11
201.4292028164489
 21
320.4435956943707
 31
0.0
  0
LINE
  5
2D75
  8
0
 10
216.4292028164489
 20
346.5813007611143
 30
0.0
 11
216.4292028164489
 21
320.1108007611144
 31
0.0
  0
LINE
  5
2D76
  8
0
 10
211.803972288292
 20
320.0813007611143
 30
0.0
 11
201.4292028164489
 21
320.4435956943707
 31
0.0
  0
LINE
  5
2D77
  8
0
 10
216.4292028164489
 20
321.0817841519945
 30
0.0
 11
201.4292028164489
 21
321.6055956943705
 31
0.0
  0
LINE
  5
2D78
  8
0
 10
211.8039722882975
 20
346.5813007611143
 30
0.0
 11
201.4292028164489
 21
346.2190058278579
 31
0.0
  0
LINE
  5
2D79
  8
0
 10
216.4292028164489
 20
345.5808173702342
 30
0.0
 11
201.4292028164489
 21
345.0570058278579
 31
0.0
  0
LINE
  5
2D7A
  8
0
 10
337.4292028164489
 20
320.0813007611142
 30
0.0
 11
371.0545248973337
 21
320.0813007611143
 31
0.0
  0
LINE
  5
2D7B
  8
0
 10
337.4292028164489
 20
346.5813007611143
 30
0.0
 11
371.0545248973392
 21
346.5813007611143
 31
0.0
  0
LINE
  5
2D7C
  8
0
 10
371.0545248973337
 20
320.0813007611143
 30
0.0
 11
381.4292943691833
 21
320.4435956943707
 31
0.0
  0
LINE
  5
2D7D
  8
0
 10
371.0545248973392
 20
346.5813007611143
 30
0.0
 11
381.4292943691833
 21
346.2190058278579
 31
0.0
  0
LINE
  5
2D7E
  8
0
 10
366.4292943691833
 20
321.0817841519945
 30
0.0
 11
381.4292943691833
 21
321.6055956943708
 31
0.0
  0
LINE
  5
2D7F
  8
0
 10
366.4292943691833
 20
345.5808173702342
 30
0.0
 11
381.4292943691833
 21
345.0570058278581
 31
0.0
  0
LINE
  5
2D80
  8
0
 10
366.4292943691833
 20
320.0813007611143
 30
0.0
 11
366.4292943691833
 21
346.5518007611142
 31
0.0
  0
LINE
  5
2D81
  8
0
 10
381.4292943691833
 20
320.4435956943707
 30
0.0
 11
381.4292943691833
 21
346.2190058278579
 31
0.0
  0
LINE
  5
2D82
  8
0
 10
52.66647957400551
 20
118.0544920836456
 30
0.0
 11
71.6664795740055
 21
129.0241471982484
 31
0.0
  0
LINE
  5
2D83
  8
0
 10
71.6664795740055
 20
150.9634574274546
 30
0.0
 11
52.66647957400551
 21
161.9331125420575
 31
0.0
  0
CIRCLE
  5
2D84
  8
0
 10
52.66647957400551
 20
139.9938023128514
 30
0.0
 40
19.0
  0
LINE
  5
2D85
  8
0
 10
63.16647957400551
 20
61.99380231285139
 30
0.0
 11
42.16647957400573
 21
61.99380231285139
 31
0.0
  0
LINE
  5
2D86
  8
0
 10
42.47393305305877
 20
48.99380231285161
 30
0.0
 11
62.85902609495338
 21
48.99380231285139
 31
0.0
  0
LINE
  5
2D87
  8
0
  6
CONTINUOUS
 10
41.66647957400573
 20
116.7143223323826
 30
0.0
 11
63.66657112673988
 21
116.7143223323826
 31
0.0
  0
LINE
  5
2D88
  8
0
 10
39.44597957400629
 20
114.4938223323827
 30
0.0
 11
39.44597957400629
 21
109.4938023128514
 31
0.0
  0
LINE
  5
2D89
  8
0
 10
40.60797957400655
 20
115.6558223323825
 30
0.0
 11
40.60797957400655
 21
109.4938023128514
 31
0.0
  0
LINE
  5
2D8A
  8
0
 10
42.16647957400573
 20
57.79811801171698
 30
0.0
 11
42.16647957400573
 21
91.49380231285139
 31
0.0
  0
LINE
  5
2D8B
  8
0
 10
43.18196304966523
 20
61.9938023128515
 30
0.0
 11
43.63593305305812
 21
48.9938023128515
 31
0.0
  0
LINE
  5
2D8C
  8
0
 10
42.16647957400573
 20
57.79811801171698
 30
0.0
 11
42.47393305305877
 21
48.99380231285161
 31
0.0
  0
LINE
  5
2D8D
  8
0
 10
52.66647957400551
 20
161.9331125420575
 30
0.0
 11
33.66647957400573
 21
150.9634574274544
 31
0.0
  0
LINE
  5
2D8E
  8
0
 10
33.66647957400573
 20
129.0241471982484
 30
0.0
 11
52.66647957400551
 21
118.0544920836456
 31
0.0
  0
LINE
  5
2D8F
  8
0
 10
33.66647957400573
 20
150.9634574274544
 30
0.0
 11
33.66647957400573
 21
129.0241471982484
 31
0.0
  0
LINE
  5
2D90
  8
0
  6
CONTINUOUS
 10
41.66647957400573
 20
123.1277765973112
 30
0.0
 11
40.5600734409004
 21
125.044128923513
 31
0.0
  0
LINE
  5
2D91
  8
0
 10
39.44597481326355
 20
114.4938175716404
 30
0.0
 11
41.66647957400573
 21
116.7143223323826
 31
0.0
  0
LINE
  5
2D92
  8
0
  6
CONTINUOUS
 10
41.66647957400573
 20
123.1277765973112
 30
0.0
 11
43.87929303508508
 21
123.1277765973112
 31
0.0
  0
LINE
  5
2D93
  8
0
 10
41.66647957400573
 20
116.7143223323826
 30
0.0
 11
41.66647957400573
 21
123.1277765973112
 31
0.0
  0
LINE
  5
2D94
  8
0
  6
CONTINUOUS
 10
39.56385003031619
 20
157.5963403038072
 30
0.0
 11
45.15496971650236
 21
157.5963403038072
 31
0.0
  0
LINE
  5
2D95
  8
0
 10
37.66647957400573
 20
159.4938023128514
 30
0.0
 11
37.66647957400573
 21
162.4938023128514
 31
0.0
  0
LINE
  5
2D96
  8
0
  6
CONTINUOUS
 10
37.66638802127136
 20
159.4938023128514
 30
0.0
 11
39.56385003031619
 21
157.5963403038072
 31
0.0
  0
LINE
  5
2D97
  8
0
  6
CONTINUOUS
 10
39.56385003031619
 20
154.368305847916
 30
0.0
 11
39.56385003031619
 21
157.5963403038072
 31
0.0
  0
LINE
  5
2D98
  8
0
 10
65.88697957400495
 20
114.4939138851172
 30
0.0
 11
65.88697957400495
 21
109.4938023128514
 31
0.0
  0
LINE
  5
2D99
  8
0
 10
64.72497957400651
 20
115.655913885117
 30
0.0
 11
64.72497957400651
 21
109.4938023128514
 31
0.0
  0
LINE
  5
2D9A
  8
0
 10
63.16647957400551
 20
57.79811801171516
 30
0.0
 11
63.16647957400551
 21
91.49380231285139
 31
0.0
  0
LINE
  5
2D9B
  8
0
 10
62.15099609834601
 20
61.9938023128515
 30
0.0
 11
61.69702609495312
 21
48.9938023128515
 31
0.0
  0
LINE
  5
2D9C
  8
0
 10
63.16647957400551
 20
57.79811801171516
 30
0.0
 11
62.85902609495338
 21
48.99380231285139
 31
0.0
  0
LINE
  5
2D9D
  8
0
 10
71.6664795740055
 20
129.0241471982484
 30
0.0
 11
71.6664795740055
 21
150.9634574274546
 31
0.0
  0
LINE
  5
2D9E
  8
0
  6
CONTINUOUS
 10
63.66657112673988
 20
123.1279351713559
 30
0.0
 11
64.77288570711085
 21
125.044128923513
 31
0.0
  0
LINE
  5
2D9F
  8
0
 10
65.88707588748207
 20
114.4938175716404
 30
0.0
 11
63.66657112673988
 21
116.7143223323826
 31
0.0
  0
LINE
  5
2DA0
  8
0
  6
CONTINUOUS
 10
61.45366611292707
 20
123.1277765973113
 30
0.0
 11
63.66657112673988
 21
123.1277765973113
 31
0.0
  0
LINE
  5
2DA1
  8
0
 10
63.66657112673988
 20
116.7143223323826
 30
0.0
 11
63.66657112673988
 21
123.1279351713559
 31
0.0
  0
LINE
  5
2DA2
  8
0
  6
CONTINUOUS
 10
60.17798943150979
 20
157.5963403038072
 30
0.0
 11
65.66657112673988
 21
157.5963403038072
 31
0.0
  0
LINE
  5
2DA3
  8
0
 10
67.66657112673988
 20
159.4938023128514
 30
0.0
 11
67.66657112673988
 21
162.4938023128514
 31
0.0
  0
LINE
  5
2DA4
  8
0
  6
CONTINUOUS
 10
67.66657112673988
 20
159.4938023128514
 30
0.0
 11
65.66657112673988
 21
157.4938023128514
 31
0.0
  0
LINE
  5
2DA5
  8
0
 10
65.66657112673988
 20
154.4275061845965
 30
0.0
 11
65.66657112673988
 21
157.4938023128514
 31
0.0
  0
LINE
  5
2DA6
  8
0
 10
281.236656295501
 20
48.99380231285164
 30
0.0
 11
301.6217493373958
 21
48.99380231285141
 31
0.0
  0
LINE
  5
2DA7
  8
0
 10
301.9292028164489
 20
61.99380231285141
 30
0.0
 11
280.9292028164489
 21
61.99380231285141
 31
0.0
  0
LINE
  5
2DA8
  8
0
 10
306.9292028164489
 20
91.49380231285141
 30
0.0
 11
275.9292028164489
 21
91.49380231285141
 31
0.0
1001
GRPNAME
1000
PASTME6F
  0
LINE
  5
2DA9
  8
0
 10
306.9292028164489
 20
109.4938023128514
 30
0.0
 11
275.9292028164489
 21
109.4938023128514
 31
0.0
1001
GRPNAME
1000
PASTME6F
  0
LINE
  5
2DAA
  8
0
  6
CONTINUOUS
 10
278.3265732727584
 20
157.5963403038072
 30
0.0
 11
304.4292943691833
 21
157.5963403038072
 31
0.0
  0
LINE
  5
2DAB
  8
0
  6
CONTINUOUS
 10
280.4292028164489
 20
116.7143223323827
 30
0.0
 11
302.4292943691833
 21
116.7143223323827
 31
0.0
  0
LINE
  5
2DAC
  8
0
  6
CONTINUOUS
 10
282.9397440568134
 20
136.9938023128514
 30
0.0
 11
300.2249314288272
 21
136.9938023128514
 31
0.0
  0
LINE
  5
2DAD
  8
0
  6
CONTINUOUS
 10
282.6867898558955
 20
142.9936802425389
 30
0.0
 11
300.1406133618545
 21
142.9936802425389
 31
0.0
  0
LINE
  5
2DAE
  8
0
 10
245.4292028164489
 20
126.7438023128514
 30
0.0
 11
211.803972288292
 21
126.7438023128514
 31
0.0
  0
LINE
  5
2DAF
  8
0
 10
245.4292028164489
 20
153.2438023128514
 30
0.0
 11
211.8039722882975
 21
153.2438023128514
 31
0.0
  0
LINE
  5
2DB0
  8
0
 10
201.4292028164489
 20
152.881507379595
 30
0.0
 11
201.4292028164489
 21
127.1060972461078
 31
0.0
  0
LINE
  5
2DB1
  8
0
 10
216.4292028164489
 20
153.2438023128514
 30
0.0
 11
216.4292028164489
 21
126.7733023128514
 31
0.0
  0
LINE
  5
2DB2
  8
0
 10
211.803972288292
 20
126.7438023128514
 30
0.0
 11
201.4292028164489
 21
127.1060972461078
 31
0.0
  0
LINE
  5
2DB3
  8
0
 10
216.4292028164489
 20
127.7442857037316
 30
0.0
 11
201.4292028164489
 21
128.2680972461076
 31
0.0
  0
LINE
  5
2DB4
  8
0
 10
211.8039722882975
 20
153.2438023128514
 30
0.0
 11
201.4292028164489
 21
152.881507379595
 31
0.0
  0
LINE
  5
2DB5
  8
0
 10
216.4292028164489
 20
152.2433189219713
 30
0.0
 11
201.4292028164489
 21
151.719507379595
 31
0.0
  0
LINE
  5
2DB6
  8
0
 10
278.2087028164485
 20
114.4938223323828
 30
0.0
 11
278.2087028164485
 21
109.4938023128514
 31
0.0
  0
LINE
  5
2DB7
  8
0
 10
279.3707028164479
 20
115.6558223323826
 30
0.0
 11
279.3707028164479
 21
109.4938023128514
 31
0.0
  0
LINE
  5
2DB8
  8
0
 10
280.9292028164489
 20
57.79811801171701
 30
0.0
 11
280.9292028164489
 21
91.49380231285141
 31
0.0
  0
LINE
  5
2DB9
  8
0
 10
281.9446862921084
 20
61.99380231285153
 30
0.0
 11
282.3986562955013
 21
48.99380231285153
 31
0.0
  0
LINE
  5
2DBA
  8
0
 10
280.9292028164489
 20
57.79811801171701
 30
0.0
 11
281.236656295501
 21
48.99380231285164
 31
0.0
  0
LINE
  5
2DBB
  8
0
 10
275.9292028164489
 20
91.49380231285141
 30
0.0
 11
273.53134447157
 21
93.89166065773003
 31
0.0
1001
GRPNAME
1000
PASTME6F
  0
LINE
  5
2DBC
  8
0
 10
275.9292028164489
 20
109.4938023128514
 30
0.0
 11
273.53134447157
 21
107.095943967973
 31
0.0
1001
GRPNAME
1000
PASTME6F
  0
LINE
  5
2DBD
  8
0
 10
273.53134447157
 20
93.89166065773003
 30
0.0
 11
273.53134447157
 21
107.095943967973
 31
0.0
1001
GRPNAME
1000
PASTME6F
  0
LINE
  5
2DBE
  8
0
 10
265.4292028164489
 20
156.6183023128513
 30
0.0
 11
267.8045807461365
 21
156.6183023128513
 31
0.0
  0
LINE
  5
2DBF
  8
0
 10
265.4292028164489
 20
155.1393023128515
 30
0.0
 11
269.2835807461358
 21
155.1393023128515
 31
0.0
  0
LINE
  5
2DC0
  8
0
 10
265.4292028164489
 20
123.3693023128515
 30
0.0
 11
267.804702816449
 21
123.3693023128515
 31
0.0
  0
LINE
  5
2DC1
  8
0
 10
265.4292028164489
 20
124.8483023128513
 30
0.0
 11
269.2837028164483
 21
124.8483023128513
 31
0.0
  0
LINE
  5
2DC2
  8
0
 10
265.4292028164489
 20
120.9938023128514
 30
0.0
 11
265.4292028164489
 21
158.9938023128514
 31
0.0
  0
LINE
  5
2DC3
  8
0
 10
245.4292028164489
 20
120.9938023128514
 30
0.0
 11
245.4292028164489
 21
158.9938023128514
 31
0.0
  0
LINE
  5
2DC4
  8
0
 10
248.368513045654
 20
118.0544920836456
 30
0.0
 11
262.4898925872419
 21
118.0544920836456
 31
0.0
  0
LINE
  5
2DC5
  8
0
 10
245.4292028164489
 20
120.9938023128514
 30
0.0
 11
248.368513045654
 21
118.0544920836456
 31
0.0
  0
LINE
  5
2DC6
  8
0
 10
265.4292028164489
 20
120.9938023128514
 30
0.0
 11
262.4898925872419
 21
118.0544920836456
 31
0.0
  0
LINE
  5
2DC7
  8
0
 10
248.368513045654
 20
161.9331125420572
 30
0.0
 11
262.4898925872419
 21
161.9331125420572
 31
0.0
  0
LINE
  5
2DC8
  8
0
 10
245.4292028164489
 20
158.9938023128514
 30
0.0
 11
248.368513045654
 21
161.9331125420572
 31
0.0
  0
LINE
  5
2DC9
  8
0
 10
265.4292028164489
 20
158.9938023128514
 30
0.0
 11
262.4898925872419
 21
161.9331125420572
 31
0.0
  0
LINE
  5
2DCA
  8
0
  6
CONTINUOUS
 10
270.4292028164489
 20
153.9936802425389
 30
0.0
 11
270.4292028164489
 21
125.9938023128514
 31
0.0
  0
LINE
  5
2DCB
  8
0
  6
CONTINUOUS
 10
277.8835637783629
 20
125.9938023128514
 30
0.0
 11
280.4292055591438
 21
123.4938085971629
 31
0.0
  0
LINE
  5
2DCC
  8
0
 10
278.2086980557067
 20
114.4938175716405
 30
0.0
 11
280.4292028164489
 21
116.7143223323827
 31
0.0
  0
LINE
  5
2DCD
  8
0
 10
270.4292028164489
 20
125.9938023128514
 30
0.0
 11
277.8835637783629
 21
125.9938023128514
 31
0.0
  0
LINE
  5
2DCE
  8
0
 10
267.804702816449
 20
123.3693023128515
 30
0.0
 11
270.4292028164489
 21
125.9938023128514
 31
0.0
  0
LINE
  5
2DCF
  8
0
  6
CONTINUOUS
 10
281.42202118808
 20
136.0680077900476
 30
0.0
 11
279.1563846687529
 21
126.5421597119379
 31
0.0
  0
LINE
  5
2DD0
  8
0
 10
280.4292028164489
 20
116.7143223323827
 30
0.0
 11
280.4292028164489
 21
123.4938023128514
 31
0.0
  0
LINE
  5
2DD1
  8
0
 10
281.4292028164489
 20
137.8411207174397
 30
0.0
 11
281.4292028164489
 21
142.1399395037571
 31
0.0
  0
LINE
  5
2DD2
  8
0
 10
270.4292028164489
 20
153.9936802425389
 30
0.0
 11
273.6027868008239
 21
153.9936802425389
 31
0.0
  0
LINE
  5
2DD3
  8
0
 10
267.8045807461365
 20
156.6183023128513
 30
0.0
 11
270.4292028164489
 21
153.9936802425389
 31
0.0
  0
LINE
  5
2DD4
  8
0
  6
CONTINUOUS
 10
276.4291112637145
 20
159.4938023128515
 30
0.0
 11
278.3265732727584
 21
157.5963403038072
 31
0.0
  0
LINE
  5
2DD5
  8
0
  6
CONTINUOUS
 10
278.3265732727584
 20
156.4168230150632
 30
0.0
 11
278.3265732727584
 21
157.5963403038072
 31
0.0
  0
LINE
  5
2DD6
  8
0
  6
CONTINUOUS
 10
273.6027868008239
 20
153.9936802425389
 30
0.0
 11
278.3265732727584
 21
156.4168230150632
 31
0.0
  0
LINE
  5
2DD7
  8
0
  6
CONTINUOUS
 10
276.4292028164489
 20
159.4938023128515
 30
0.0
 11
276.4292028164489
 21
162.4938023128515
 31
0.0
  0
LINE
  5
2DD8
  8
0
 10
337.4292028164489
 20
158.9938023128514
 30
0.0
 11
334.4898925872419
 21
161.9331125420572
 31
0.0
  0
LINE
  5
2DD9
  8
0
 10
337.4292028164489
 20
120.9938023128514
 30
0.0
 11
334.4898925872419
 21
118.0544920836456
 31
0.0
  0
LINE
  5
2DDA
  8
0
 10
304.6497028164483
 20
114.4939138851173
 30
0.0
 11
304.6497028164483
 21
109.4938023128514
 31
0.0
  0
LINE
  5
2DDB
  8
0
 10
303.4877028164481
 20
115.6559138851171
 30
0.0
 11
303.4877028164481
 21
109.4938023128514
 31
0.0
  0
LINE
  5
2DDC
  8
0
 10
301.9292028164489
 20
57.79811801171519
 30
0.0
 11
301.9292028164489
 21
91.49380231285141
 31
0.0
  0
LINE
  5
2DDD
  8
0
 10
301.9292028164489
 20
57.79811801171519
 30
0.0
 11
301.6217493373958
 21
48.99380231285141
 31
0.0
  0
LINE
  5
2DDE
  8
0
 10
300.9137193407885
 20
61.99380231285153
 30
0.0
 11
300.4597493373965
 21
48.99380231285153
 31
0.0
  0
LINE
  5
2DDF
  8
0
 10
309.3270611613268
 20
93.89166065773003
 30
0.0
 11
306.9292028164489
 21
91.49380231285141
 31
0.0
1001
GRPNAME
1000
PASTME6F
  0
LINE
  5
2DE0
  8
0
 10
309.3270611613268
 20
107.095943967973
 30
0.0
 11
306.9292028164489
 21
109.4938023128514
 31
0.0
1001
GRPNAME
1000
PASTME6F
  0
LINE
  5
2DE1
  8
0
 10
309.3270611613268
 20
93.89166065773003
 30
0.0
 11
309.3270611613268
 21
107.095943967973
 31
0.0
1001
GRPNAME
1000
PASTME6F
  0
LINE
  5
2DE2
  8
0
 10
313.574824886761
 20
155.1393023128515
 30
0.0
 11
317.4292028164489
 21
155.1393023128515
 31
0.0
  0
LINE
  5
2DE3
  8
0
 10
313.5747028164485
 20
124.8483023128513
 30
0.0
 11
317.4292028164489
 21
124.8483023128513
 31
0.0
  0
LINE
  5
2DE4
  8
0
 10
315.0537028164488
 20
123.3693023128515
 30
0.0
 11
312.4292028164489
 21
125.9938023128514
 31
0.0
  0
LINE
  5
2DE5
  8
0
 10
315.0538248867613
 20
156.6183023128513
 30
0.0
 11
312.4292028164489
 21
153.9936802425389
 31
0.0
  0
LINE
  5
2DE6
  8
0
  6
CONTINUOUS
 10
312.4292028164489
 20
153.9936802425389
 30
0.0
 11
312.4292028164489
 21
125.9938023128514
 31
0.0
  0
LINE
  5
2DE7
  8
0
  6
CONTINUOUS
 10
304.3129390448191
 20
152.8573151546283
 30
0.0
 11
301.4053843664512
 21
144.1649785839194
 31
0.0
  0
LINE
  5
2DE8
  8
0
 10
301.4292943691833
 20
142.1399395037571
 30
0.0
 11
301.4292943691833
 21
138.009702627595
 31
0.0
  0
LINE
  5
2DE9
  8
0
  6
CONTINUOUS
 10
306.6803028643169
 20
124.4760094828676
 30
0.0
 11
308.5883519863708
 21
125.9938023128514
 31
0.0
  0
LINE
  5
2DEA
  8
0
  6
CONTINUOUS
 10
302.4292943691833
 20
123.0147643027872
 30
0.0
 11
306.6803028643169
 21
124.4760094828676
 31
0.0
  0
LINE
  5
2DEB
  8
0
 10
304.6497991299254
 20
114.4938175716405
 30
0.0
 11
302.4292943691833
 21
116.7143223323827
 31
0.0
  0
LINE
  5
2DEC
  8
0
 10
302.4292943691833
 20
116.7143223323827
 30
0.0
 11
302.4292943691833
 21
123.0147643027872
 31
0.0
  0
LINE
  5
2DED
  8
0
 10
312.4292028164489
 20
125.9938023128514
 30
0.0
 11
308.5883519863708
 21
125.9938023128514
 31
0.0
  0
LINE
  5
2DEE
  8
0
 10
312.4292028164489
 20
153.9936802425389
 30
0.0
 11
304.4292943691833
 21
153.9936802425389
 31
0.0
  0
LINE
  5
2DEF
  8
0
  6
CONTINUOUS
 10
306.4292943691833
 20
159.4938023128515
 30
0.0
 11
304.4292943691833
 21
157.4938023128515
 31
0.0
  0
LINE
  5
2DF0
  8
0
  6
CONTINUOUS
 10
306.4292943691833
 20
159.4938023128515
 30
0.0
 11
306.4292943691833
 21
162.4938023128515
 31
0.0
  0
LINE
  5
2DF1
  8
0
 10
304.4292943691833
 20
153.9936802425389
 30
0.0
 11
304.4292943691833
 21
157.4938023128515
 31
0.0
  0
LINE
  5
2DF2
  8
0
 10
317.4292028164489
 20
158.9938023128514
 30
0.0
 11
317.4292028164489
 21
120.9938023128514
 31
0.0
  0
LINE
  5
2DF3
  8
0
 10
334.4898925872419
 20
118.0544920836456
 30
0.0
 11
320.368513045654
 21
118.0544920836456
 31
0.0
  0
LINE
  5
2DF4
  8
0
 10
317.4292028164489
 20
120.9938023128514
 30
0.0
 11
320.368513045654
 21
118.0544920836456
 31
0.0
  0
LINE
  5
2DF5
  8
0
 10
315.0537028164488
 20
123.3693023128515
 30
0.0
 11
317.4292028164489
 21
123.3693023128515
 31
0.0
  0
LINE
  5
2DF6
  8
0
 10
334.4898925872419
 20
161.9331125420572
 30
0.0
 11
320.368513045654
 21
161.9331125420572
 31
0.0
  0
LINE
  5
2DF7
  8
0
 10
317.4292028164489
 20
158.9938023128514
 30
0.0
 11
320.368513045654
 21
161.9331125420572
 31
0.0
  0
LINE
  5
2DF8
  8
0
 10
315.0538248867613
 20
156.6183023128513
 30
0.0
 11
317.4292028164489
 21
156.6183023128513
 31
0.0
  0
LINE
  5
2DF9
  8
0
 10
337.4292028164489
 20
153.2438023128514
 30
0.0
 11
371.0544333446048
 21
153.2438023128514
 31
0.0
  0
LINE
  5
2DFA
  8
0
 10
337.4292028164489
 20
126.7438023128514
 30
0.0
 11
371.0544333445994
 21
126.7438023128514
 31
0.0
  0
LINE
  5
2DFB
  8
0
 10
337.4292028164489
 20
158.9938023128514
 30
0.0
 11
337.4292028164489
 21
120.9938023128514
 31
0.0
  0
LINE
  5
2DFC
  8
0
 10
381.4292028164489
 20
127.1060972461078
 30
0.0
 11
381.4292028164489
 21
152.881507379595
 31
0.0
  0
LINE
  5
2DFD
  8
0
 10
366.4292028164489
 20
126.7438023128514
 30
0.0
 11
366.4292028164489
 21
153.2143023128514
 31
0.0
  0
LINE
  5
2DFE
  8
0
 10
371.0544333445994
 20
126.7438023128514
 30
0.0
 11
381.4292028164489
 21
127.1060972461078
 31
0.0
  0
LINE
  5
2DFF
  8
0
 10
366.4292028164489
 20
127.7442857037316
 30
0.0
 11
381.4292028164489
 21
128.2680972461079
 31
0.0
  0
LINE
  5
2E00
  8
0
 10
371.0544333446048
 20
153.2438023128514
 30
0.0
 11
381.4292028164489
 21
152.881507379595
 31
0.0
  0
LINE
  5
2E01
  8
0
 10
366.4292028164489
 20
152.2433189219713
 30
0.0
 11
381.4292028164489
 21
151.7195073795952
 31
0.0
  0
LINE
  5
2E02
  8
7
 10
291.4292028164489
 20
45.52407669582709
 30
0.0
 11
291.429202816448
 21
260.4938718776513
 31
0.0
  0
LINE
  5
2E03
  8
7
 10
52.66647957400551
 20
45.13314935861879
 30
0.0
 11
52.66647957400642
 21
260.4938718776499
 31
0.0
  0
LINE
  5
2E04
  8
7
 10
190.4968299865848
 20
139.9938023128514
 30
0.0
 11
389.0048753420613
 21
139.9938023128514
 31
0.0
  0
LINE
  5
2E05
  8
0
 10
68.1664795740055
 20
91.49380231285139
 30
0.0
 11
37.16647957400573
 21
91.49380231285139
 31
0.0
1001
GRPNAME
1000
PASTME6F
  0
LINE
  5
2E06
  8
0
 10
68.1664795740055
 20
109.4938023128514
 30
0.0
 11
37.16647957400573
 21
109.4938023128514
 31
0.0
1001
GRPNAME
1000
PASTME6F
  0
LINE
  5
2E07
  8
0
 10
37.16647957400573
 20
91.49380231285139
 30
0.0
 11
34.76862122912689
 21
93.89166065773
 31
0.0
1001
GRPNAME
1000
PASTME6F
  0
LINE
  5
2E08
  8
0
 10
37.16647957400573
 20
109.4938023128514
 30
0.0
 11
34.76862122912689
 21
107.095943967973
 31
0.0
1001
GRPNAME
1000
PASTME6F
  0
LINE
  5
2E09
  8
0
 10
34.76862122912689
 20
93.89166065773
 30
0.0
 11
34.76862122912689
 21
107.095943967973
 31
0.0
1001
GRPNAME
1000
PASTME6F
  0
LINE
  5
2E0A
  8
0
 10
70.56433791888435
 20
93.89166065773
 30
0.0
 11
68.1664795740055
 21
91.49380231285139
 31
0.0
1001
GRPNAME
1000
PASTME6F
  0
LINE
  5
2E0B
  8
0
 10
70.56433791888435
 20
107.095943967973
 30
0.0
 11
68.1664795740055
 21
109.4938023128514
 31
0.0
1001
GRPNAME
1000
PASTME6F
  0
LINE
  5
2E0C
  8
0
 10
70.56433791888435
 20
93.89166065773
 30
0.0
 11
70.56433791888435
 21
107.095943967973
 31
0.0
1001
GRPNAME
1000
PASTME6F
  0
LINE
  5
2E0D
  8
0
 10
265.4292028164489
 20
314.3313007611146
 30
0.0
 11
265.4292028164484
 21
316.4493577449809
 31
0.0
  0
LINE
  5
2E0E
  8
0
 10
265.4292028164489
 20
350.213243777248
 30
0.0
 11
265.4292028164489
 21
352.3313007611146
 31
0.0
  0
LINE
  5
2E0F
  8
0
 10
245.4292028164489
 20
314.3313007611146
 30
0.0
 11
245.4292028164489
 21
352.3313007611146
 31
0.0
  0
LINE
  5
2E10
  8
0
 10
248.368513045654
 20
311.3919905319087
 30
0.0
 11
262.4898925872419
 21
311.3919905319087
 31
0.0
  0
LINE
  5
2E11
  8
0
 10
245.4292028164489
 20
314.3313007611146
 30
0.0
 11
248.368513045654
 21
311.3919905319087
 31
0.0
  0
LINE
  5
2E12
  8
0
 10
265.4292028164489
 20
314.3313007611146
 30
0.0
 11
262.4898925872419
 21
311.3919905319087
 31
0.0
  0
LINE
  5
2E13
  8
0
 10
248.368513045654
 20
355.2706109903204
 30
0.0
 11
262.4898925872419
 21
355.2706109903204
 31
0.0
  0
LINE
  5
2E14
  8
0
 10
245.4292028164489
 20
352.3313007611146
 30
0.0
 11
248.368513045654
 21
355.2706109903204
 31
0.0
  0
LINE
  5
2E15
  8
0
 10
265.4292028164489
 20
352.3313007611146
 30
0.0
 11
262.4898925872419
 21
355.2706109903204
 31
0.0
  0
LINE
  5
2E16
  8
7
 10
198.3684357632662
 20
333.3313007611143
 30
0.0
 11
387.0102219540984
 21
333.3313007611143
 31
0.0
  0
LINE
  5
2E17
  8
7
 10
291.4292028164489
 20
375.3779330027892
 30
0.0
 11
291.4292028164489
 21
291.2619404060397
 31
0.0
  0
TEXT
  5
2E18
  8
10
 10
-1.5
 20
0.5
 30
0.0
 40
10.0
  1
2023.09.12 DV6-20[丸ハンドル][3方向チックナット付]
 11
-1.5
 21
0.5
 31
0.0
 73
     1
  0
LINE
  5
2E19
  8
0
 10
337.429202816448
 20
352.3313007611143
 30
0.0
 11
334.4898925872419
 21
355.2706109903202
 31
0.0
  0
LINE
  5
2E1A
  8
0
 10
337.429202816448
 20
314.3313007611143
 30
0.0
 11
334.4898925872419
 21
311.3919905319085
 31
0.0
  0
LINE
  5
2E1B
  8
0
 10
317.429202816448
 20
352.3313007611143
 30
0.0
 11
317.4292028164475
 21
350.2132437772499
 31
0.0
  0
LINE
  5
2E1C
  8
0
 10
317.4292028164475
 20
316.4493577449786
 30
0.0
 11
317.429202816448
 21
314.3313007611143
 31
0.0
  0
LINE
  5
2E1D
  8
0
 10
334.4898925872419
 20
311.3919905319085
 30
0.0
 11
320.368513045654
 21
311.3919905319085
 31
0.0
  0
LINE
  5
2E1E
  8
0
 10
317.429202816448
 20
314.3313007611143
 30
0.0
 11
320.368513045654
 21
311.3919905319085
 31
0.0
  0
LINE
  5
2E1F
  8
0
 10
334.4898925872419
 20
355.2706109903202
 30
0.0
 11
320.368513045654
 21
355.2706109903202
 31
0.0
  0
LINE
  5
2E20
  8
0
 10
317.429202816448
 20
352.3313007611143
 30
0.0
 11
320.368513045654
 21
355.2706109903202
 31
0.0
  0
LINE
  5
2E21
  8
0
 10
337.429202816448
 20
352.3313007611143
 30
0.0
 11
337.429202816448
 21
314.3313007611143
 31
0.0
  0
LINE
  5
2E22
  8
0
  6
CONTINUOUS
 10
297.429249581897
 20
215.4938718776554
 30
0.0
 11
297.429249581897
 21
208.4938023128333
 31
0.0
  0
LINE
  5
2E23
  8
0
  6
CONTINUOUS
 10
285.429249581897
 20
215.4938718776554
 30
0.0
 11
285.429249581897
 21
208.4938023128326
 31
0.0
  0
LINE
  5
2E24
  8
0
  6
CONTINUOUS
 10
305.3792028164569
 20
162.4938023128515
 30
0.0
 11
277.4792028164409
 21
162.4938023128615
 31
0.0
  0
ARC
  5
2E25
  8
0
  6
CONTINUOUS
 10
272.679202816458
 20
182.4153751880862
 30
0.0
 40
2.0
 50
135.0000000000098
 51
180.0
1001
GRPNAME
1000
PASTMD0C
1001
GENIUS_GENODEF_13
1002
{
1000
HIER
1070
     0
1002
}
1002
{
1000
MANEDIT
1070
     0
1002
}
1002
{
1000
NOSEL
1070
     0
1002
}
1002
{
1000
BEHIND
1070
     0
1002
}
1002
{
1000
OTHER
1070
     0
1002
}
1002
{
1000
REACTOR
1002
}
1001
GENIUS_GENOBJ-N-FIL_13
1002
{
1000
OWNER
1000
GEN
1002
}
  0
LINE
  5
2E26
  8
0
  6
CONTINUOUS
 10
270.679202816458
 20
174.2438023128351
 30
0.0
 11
274.4292028164689
 21
170.4938023128219
 31
0.0
  0
LINE
  5
2E27
  8
0
  6
CONTINUOUS
 10
305.4292028164671
 20
208.4938023128337
 30
0.0
 11
277.4292028164543
 21
208.4938023128321
 31
0.0
1001
GRPNAME
1000
PASTMD0C
  0
ARC
  5
2E28
  8
0
  6
CONTINUOUS
 10
277.4292028164543
 20
207.4938023128324
 30
0.0
 40
1.0
 50
89.99999991255908
 51
180.0
1001
GRPNAME
1000
PASTMD0C
  0
LINE
  5
2E29
  8
0
  6
CONTINUOUS
 10
274.4292028164689
 20
170.4938023128219
 30
0.0
 11
274.4292028164707
 21
162.6938023128531
 31
0.0
  0
LINE
  5
2E2A
  8
0
  6
CONTINUOUS
 10
274.6292028164696
 20
162.4938023128531
 30
0.0
 11
274.4292028164707
 21
162.6938023128531
 31
0.0
1001
GENIUS_GENFIL_13
1070
     0
1040
0.2
1040
0.2
1040
20.0
1040
0.0
1002
{
1002
}
1001
GENIUS_GENODEF_13
1002
{
1000
HIER
1070
     0
1002
}
1002
{
1000
MANEDIT
1070
     0
1002
}
1002
{
1000
NOSEL
1070
     0
1002
}
1002
{
1000
BEHIND
1070
     0
1002
}
1002
{
1000
OTHER
1070
     0
1002
}
1002
{
1000
REACTOR
1002
}
1001
GENIUS_GENOBJ-N-CHA_13
1002
{
1000
OWNER
1000
GEN
1002
}
  0
LINE
  5
2E2B
  8
0
  6
CONTINUOUS
 10
272.9292028164598
 20
199.4938023128417
 30
0.0
 11
276.429202816458
 21
202.9938023128331
 31
0.0
  0
LINE
  5
2E2C
  8
0
  6
CONTINUOUS
 10
306.4292028164634
 20
202.9938023128331
 30
0.0
 11
306.4292028164671
 21
207.4938023128324
 31
0.0
1001
GRPNAME
1000
PASTMD0C
  0
LINE
  5
2E2D
  8
0
  6
CONTINUOUS
 10
312.1792028164634
 20
182.4153751880859
 30
0.0
 11
312.1792028164634
 21
174.2438023128358
 31
0.0
1001
GRPNAME
1000
PASTMD0C
  0
LINE
  5
2E2E
  8
0
  6
CONTINUOUS
 10
312.1792028164634
 20
174.2438023128351
 30
0.0
 11
308.4292028164525
 21
170.4938023128221
 31
0.0
  0
ARC
  5
2E2F
  8
0
  6
CONTINUOUS
 10
305.4292028164671
 20
207.4938023128324
 30
0.0
 40
1.0
 50
0.0
 51
90.00000008738881
1001
GRPNAME
1000
PASTMD0C
  0
LINE
  5
2E30
  8
0
  6
CONTINUOUS
 10
308.4292028164525
 20
170.4938023128221
 30
0.0
 11
308.4292028164525
 21
162.6938023128533
 31
0.0
  0
LINE
  5
2E31
  8
0
  6
CONTINUOUS
 10
308.2292028164518
 20
162.4938023128533
 30
0.0
 11
308.4292028164525
 21
162.6938023128533
 31
0.0
1001
GENIUS_GENFIL_13
1070
     0
1040
0.2
1040
0.2
1040
20.0
1040
0.0
1002
{
1002
}
1001
GENIUS_GENODEF_13
1002
{
1000
HIER
1070
     0
1002
}
1002
{
1000
MANEDIT
1070
     0
1002
}
1002
{
1000
NOSEL
1070
     0
1002
}
1002
{
1000
BEHIND
1070
     0
1002
}
1002
{
1000
OTHER
1070
     0
1002
}
1002
{
1000
REACTOR
1002
}
1001
GENIUS_GENOBJ-N-CHA_13
1002
{
1000
OWNER
1000
GEN
1002
}
  0
LINE
  5
2E32
  8
0
  6
CONTINUOUS
 10
305.3792028164569
 20
162.4938023128517
 30
0.0
 11
308.2292028164518
 21
162.4938023128533
 31
0.0
  0
LINE
  5
2E33
  8
0
  6
CONTINUOUS
 10
309.9292028164434
 20
199.4938023128592
 30
0.0
 11
306.4292028164634
 21
202.9938023128331
 31
0.0
  0
LINE
  5
2E34
  8
0
  6
CONTINUOUS
 10
277.4792028164409
 20
162.4938023128617
 30
0.0
 11
274.629202816446
 21
162.4938023128663
 31
0.0
  0
LINE
  5
2E35
  8
0
  6
CONTINUOUS
 10
272.9292028164598
 20
199.4938023128417
 30
0.0
 11
272.929202816458
 21
185.4938023128326
 31
0.0
1001
GENIUS_GENODEF_13
1002
{
1000
HIER
1070
     0
1002
}
1002
{
1000
MANEDIT
1070
     0
1002
}
1002
{
1000
NOSEL
1070
     0
1002
}
1002
{
1000
BEHIND
1070
     0
1002
}
1002
{
1000
REACTOR
1002
}
1001
GENIUS_GENOBJ-N-CEN_13
1002
{
1000
OWNER
1000
GEN
1002
}
  0
LINE
  5
2E36
  8
0
  6
CONTINUOUS
 10
272.929202816458
 20
185.4938023128326
 30
0.0
 11
271.2649892540846
 21
183.8295887504593
 31
0.0
  0
LINE
  5
2E37
  8
0
  6
CONTINUOUS
 10
276.429202816458
 20
202.9938023128331
 30
0.0
 11
276.4292028164543
 21
207.4938023128324
 31
0.0
1001
GRPNAME
1000
PASTMD0C
  0
LINE
  5
2E38
  8
0
  6
CONTINUOUS
 10
270.679202816458
 20
182.4153751880859
 30
0.0
 11
270.679202816458
 21
174.2438023128358
 31
0.0
1001
GRPNAME
1000
PASTMD0C
  0
ARC
  5
2E39
  8
0
  6
CONTINUOUS
 10
310.1792028164471
 20
182.4153751880862
 30
0.0
 40
2.0
 50
0.0
 51
44.99999999999021
1001
GRPNAME
1000
PASTMD0C
1001
GENIUS_GENODEF_13
1002
{
1000
HIER
1070
     0
1002
}
1002
{
1000
MANEDIT
1070
     0
1002
}
1002
{
1000
NOSEL
1070
     0
1002
}
1002
{
1000
BEHIND
1070
     0
1002
}
1002
{
1000
OTHER
1070
     0
1002
}
1002
{
1000
REACTOR
1002
}
1001
GENIUS_GENOBJ-N-FIL_13
1002
{
1000
OWNER
1000
GEN
1002
}
  0
LINE
  5
2E3A
  8
0
  6
CONTINUOUS
 10
309.9292028164434
 20
199.4938023128417
 30
0.0
 11
309.9292028164471
 21
185.4938023128326
 31
0.0
1001
GENIUS_GENODEF_13
1002
{
1000
HIER
1070
     0
1002
}
1002
{
1000
MANEDIT
1070
     0
1002
}
1002
{
1000
NOSEL
1070
     0
1002
}
1002
{
1000
BEHIND
1070
     0
1002
}
1002
{
1000
REACTOR
1002
}
1001
GENIUS_GENOBJ-N-CEN_13
1002
{
1000
OWNER
1000
GEN
1002
}
  0
LINE
  5
2E3B
  8
0
  6
CONTINUOUS
 10
309.9292028164471
 20
185.4938023128326
 30
0.0
 11
311.5934163788204
 21
183.8295887504593
 31
0.0
  0
LINE
  5
2E3C
  8
0
 10
276.429202816458
 20
202.9938023128331
 30
0.0
 11
306.4292028164634
 21
202.9938023128149
 31
0.0
  0
LINE
  5
2E3D
  8
0
 10
272.929202816458
 20
185.4938023128326
 30
0.0
 11
309.9292028164471
 21
185.4938023128326
 31
0.0
  0
LINE
  5
2E3E
  8
0
 10
309.9292028164434
 20
199.4938023128592
 30
0.0
 11
272.9292028164598
 21
199.4938023128417
 31
0.0
  0
LINE
  5
2E3F
  8
0
 10
274.4292028164689
 20
170.4938023128219
 30
0.0
 11
308.4292028164525
 21
170.4938023128221
 31
0.0
  0
LINE
  5
2E40
  8
0
  6
CONTINUOUS
 10
58.66652633945364
 20
215.4938718776535
 30
0.0
 11
58.66652633945364
 21
208.4938023128333
 31
0.0
  0
LINE
  5
2E41
  8
0
  6
CONTINUOUS
 10
46.66652633945409
 20
215.4938718776535
 30
0.0
 11
46.66652633945409
 21
208.4938023128326
 31
0.0
  0
LINE
  5
2E42
  8
0
  6
CONTINUOUS
 10
66.61647957401533
 20
162.4938023128514
 30
0.0
 11
38.71647957399773
 21
162.4938023128614
 31
0.0
  0
ARC
  5
2E43
  8
0
  6
CONTINUOUS
 10
33.91647957401483
 20
182.4153751880861
 30
0.0
 40
2.0
 50
135.0000000000098
 51
180.0
1001
GRPNAME
1000
PASTMD0C
1001
GENIUS_GENODEF_13
1002
{
1000
HIER
1070
     0
1002
}
1002
{
1000
MANEDIT
1070
     0
1002
}
1002
{
1000
NOSEL
1070
     0
1002
}
1002
{
1000
BEHIND
1070
     0
1002
}
1002
{
1000
OTHER
1070
     0
1002
}
1002
{
1000
REACTOR
1002
}
1001
GENIUS_GENOBJ-N-FIL_13
1002
{
1000
OWNER
1000
GEN
1002
}
  0
LINE
  5
2E44
  8
0
  6
CONTINUOUS
 10
31.91647957401665
 20
174.2438023128351
 30
0.0
 11
35.66647957402574
 21
170.4938023128219
 31
0.0
  0
LINE
  5
2E45
  8
0
  6
CONTINUOUS
 10
66.6664795740237
 20
208.4938023128337
 30
0.0
 11
38.66647957401119
 21
208.4938023128321
 31
0.0
1001
GRPNAME
1000
PASTMD0C
  0
ARC
  5
2E46
  8
0
  6
CONTINUOUS
 10
38.66647957401301
 20
207.4938023128323
 30
0.0
 40
1.0
 50
89.99999991255908
 51
180.0
1001
GRPNAME
1000
PASTMD0C
  0
LINE
  5
2E47
  8
0
  6
CONTINUOUS
 10
35.66647957402574
 20
170.4938023128219
 30
0.0
 11
35.66647957402756
 21
162.6938023128531
 31
0.0
  0
LINE
  5
2E48
  8
0
  6
CONTINUOUS
 10
35.86647957402829
 20
162.493802312853
 30
0.0
 11
35.66647957402756
 21
162.6938023128531
 31
0.0
1001
GENIUS_GENFIL_13
1070
     0
1040
0.2
1040
0.2
1040
20.0
1040
0.0
1002
{
1002
}
1001
GENIUS_GENODEF_13
1002
{
1000
HIER
1070
     0
1002
}
1002
{
1000
MANEDIT
1070
     0
1002
}
1002
{
1000
NOSEL
1070
     0
1002
}
1002
{
1000
BEHIND
1070
     0
1002
}
1002
{
1000
OTHER
1070
     0
1002
}
1002
{
1000
REACTOR
1002
}
1001
GENIUS_GENOBJ-N-CHA_13
1002
{
1000
OWNER
1000
GEN
1002
}
  0
LINE
  5
2E49
  8
0
  6
CONTINUOUS
 10
34.16647957401665
 20
199.4938023128417
 30
0.0
 11
37.66647957401483
 21
202.993802312833
 31
0.0
  0
LINE
  5
2E4A
  8
0
  6
CONTINUOUS
 10
67.66647957402188
 20
202.993802312833
 30
0.0
 11
67.6664795740237
 21
207.4938023128323
 31
0.0
1001
GRPNAME
1000
PASTMD0C
  0
LINE
  5
2E4B
  8
0
  6
CONTINUOUS
 10
73.41647957402188
 20
182.4153751880859
 30
0.0
 11
73.41647957402006
 21
174.2438023128358
 31
0.0
1001
GRPNAME
1000
PASTMD0C
  0
LINE
  5
2E4C
  8
0
  6
CONTINUOUS
 10
73.41647957402006
 20
174.2438023128351
 30
0.0
 11
69.66647957401096
 21
170.4938023128221
 31
0.0
  0
ARC
  5
2E4D
  8
0
  6
CONTINUOUS
 10
66.6664795740237
 20
207.4938023128323
 30
0.0
 40
1.0
 50
0.0
 51
90.00000008738881
1001
GRPNAME
1000
PASTMD0C
  0
LINE
  5
2E4E
  8
0
  6
CONTINUOUS
 10
69.66647957401096
 20
170.4938023128221
 30
0.0
 11
69.66647957400914
 21
162.6938023128533
 31
0.0
  0
LINE
  5
2E4F
  8
0
  6
CONTINUOUS
 10
69.46647957401024
 20
162.4938023128533
 30
0.0
 11
69.66647957400914
 21
162.6938023128533
 31
0.0
1001
GENIUS_GENFIL_13
1070
     0
1040
0.2
1040
0.2
1040
20.0
1040
0.0
1002
{
1002
}
1001
GENIUS_GENODEF_13
1002
{
1000
HIER
1070
     0
1002
}
1002
{
1000
MANEDIT
1070
     0
1002
}
1002
{
1000
NOSEL
1070
     0
1002
}
1002
{
1000
BEHIND
1070
     0
1002
}
1002
{
1000
OTHER
1070
     0
1002
}
1002
{
1000
REACTOR
1002
}
1001
GENIUS_GENOBJ-N-CHA_13
1002
{
1000
OWNER
1000
GEN
1002
}
  0
LINE
  5
2E50
  8
0
  6
CONTINUOUS
 10
66.61647957401533
 20
162.4938023128517
 30
0.0
 11
69.46647957401024
 21
162.4938023128533
 31
0.0
  0
LINE
  5
2E51
  8
0
  6
CONTINUOUS
 10
71.16647957400187
 20
199.4938023128592
 30
0.0
 11
67.66647957402188
 21
202.993802312833
 31
0.0
  0
LINE
  5
2E52
  8
0
  6
CONTINUOUS
 10
38.71647957399773
 20
162.4938023128617
 30
0.0
 11
35.86647957400464
 21
162.4938023128662
 31
0.0
  0
LINE
  5
2E53
  8
0
  6
CONTINUOUS
 10
34.16647957401665
 20
199.4938023128417
 30
0.0
 11
34.16647957401483
 21
185.4938023128326
 31
0.0
1001
GENIUS_GENODEF_13
1002
{
1000
HIER
1070
     0
1002
}
1002
{
1000
MANEDIT
1070
     0
1002
}
1002
{
1000
NOSEL
1070
     0
1002
}
1002
{
1000
BEHIND
1070
     0
1002
}
1002
{
1000
REACTOR
1002
}
1001
GENIUS_GENOBJ-N-CEN_13
1002
{
1000
OWNER
1000
GEN
1002
}
  0
LINE
  5
2E54
  8
0
  6
CONTINUOUS
 10
34.16647957401483
 20
185.4938023128326
 30
0.0
 11
32.5022660116415
 21
183.8295887504592
 31
0.0
  0
LINE
  5
2E55
  8
0
  6
CONTINUOUS
 10
37.66647957401483
 20
202.993802312833
 30
0.0
 11
37.66647957401301
 21
207.4938023128323
 31
0.0
1001
GRPNAME
1000
PASTMD0C
  0
LINE
  5
2E56
  8
0
  6
CONTINUOUS
 10
31.91647957401483
 20
182.4153751880859
 30
0.0
 11
31.91647957401483
 21
174.2438023128358
 31
0.0
1001
GRPNAME
1000
PASTMD0C
  0
ARC
  5
2E57
  8
0
  6
CONTINUOUS
 10
71.41647957400369
 20
182.4153751880861
 30
0.0
 40
2.0
 50
0.0
 51
44.99999999999021
1001
GRPNAME
1000
PASTMD0C
1001
GENIUS_GENODEF_13
1002
{
1000
HIER
1070
     0
1002
}
1002
{
1000
MANEDIT
1070
     0
1002
}
1002
{
1000
NOSEL
1070
     0
1002
}
1002
{
1000
BEHIND
1070
     0
1002
}
1002
{
1000
OTHER
1070
     0
1002
}
1002
{
1000
REACTOR
1002
}
1001
GENIUS_GENOBJ-N-FIL_13
1002
{
1000
OWNER
1000
GEN
1002
}
  0
LINE
  5
2E58
  8
0
  6
CONTINUOUS
 10
71.16647957400187
 20
199.4938023128417
 30
0.0
 11
71.16647957400369
 21
185.4938023128326
 31
0.0
1001
GENIUS_GENODEF_13
1002
{
1000
HIER
1070
     0
1002
}
1002
{
1000
MANEDIT
1070
     0
1002
}
1002
{
1000
NOSEL
1070
     0
1002
}
1002
{
1000
BEHIND
1070
     0
1002
}
1002
{
1000
REACTOR
1002
}
1001
GENIUS_GENOBJ-N-CEN_13
1002
{
1000
OWNER
1000
GEN
1002
}
  0
LINE
  5
2E59
  8
0
  6
CONTINUOUS
 10
71.16647957400369
 20
185.4938023128326
 30
0.0
 11
72.83069313637702
 21
183.8295887504592
 31
0.0
  0
LINE
  5
2E5A
  8
0
 10
37.66647957401483
 20
202.993802312833
 30
0.0
 11
67.66647957402188
 21
202.9938023128148
 31
0.0
  0
LINE
  5
2E5B
  8
0
 10
34.16647957401483
 20
185.4938023128326
 30
0.0
 11
71.16647957400369
 21
185.4938023128326
 31
0.0
  0
LINE
  5
2E5C
  8
0
 10
71.16647957400187
 20
199.4938023128592
 30
0.0
 11
34.16647957401665
 21
199.4938023128417
 31
0.0
  0
LINE
  5
2E5D
  8
0
 10
35.66647957402574
 20
170.4938023128219
 30
0.0
 11
69.66647957401096
 21
170.4938023128221
 31
0.0
  0
LINE
  5
2E5E
  8
7
 10
74.26013081003225
 20
139.9938023128514
 30
0.0
 11
31.07282833797899
 21
139.9938023128514
 31
0.0
  0
CIRCLE
  5
2E5F
  8
0
 10
52.66647957400642
 20
139.8449430181745
 30
0.0
 40
11.72561071919435
  0
CIRCLE
  5
2E60
  8
0
 10
52.66647957400642
 20
139.8449430181745
 30
0.0
 40
12.92965693971868
  0
CIRCLE
  5
2E61
  8
0
 10
52.66647957400642
 20
139.8449430181745
 30
0.0
 40
6.500000000001592
  0
CIRCLE
  5
2E62
  8
0
 10
52.66647957400642
 20
139.8449430181745
 30
0.0
 40
8.5
  0
CIRCLE
  5
2E63
  8
0
 10
52.66647957400642
 20
139.8449430181745
 30
0.0
 40
9.499999999999972
  0
CIRCLE
  5
2E64
  8
0
 10
52.66647957400642
 20
139.8449430181745
 30
0.0
 40
10.29999999999993
  0
POLYLINE
  5
2E65
  8
0
 66
     1
 10
0.0
 20
0.0
 30
0.0
 70
     1
  0
VERTEX
  5
2EC0
  8
0
 10
298.4508444417968
 20
363.5256139489504
 30
0.0
 42
0.1147433684531263
  0
VERTEX
  5
2EC1
  8
0
 10
284.407561191101
 20
363.5256139489504
 30
0.0
 42
0.3169980516087132
  0
VERTEX
  5
2EC2
  8
0
 10
282.873643183121
 20
361.805892933093
 30
0.0
 42
-0.5034443575988989
  0
VERTEX
  5
2EC3
  8
0
 10
271.0472624497777
 20
354.9779288331586
 30
0.0
 42
0.3169980516087056
  0
VERTEX
  5
2EC4
  8
0
 10
268.7909813586327
 20
354.5093773788542
 30
0.0
 42
0.1147433684531285
  0
VERTEX
  5
2EC5
  8
0
 10
261.7693397332848
 20
342.3475373312106
 30
0.0
 42
0.3169980516087055
  0
VERTEX
  5
2EC6
  8
0
 10
262.4917028164489
 20
340.1592648610488
 30
0.0
 42
-0.5034443575988864
  0
VERTEX
  5
2EC7
  8
0
 10
262.4917028164489
 20
326.503336661179
 30
0.0
 42
0.3169980516087206
  0
VERTEX
  5
2EC8
  8
0
 10
261.7693397332848
 20
324.3150641910172
 30
0.0
 42
0.1147433684531274
  0
VERTEX
  5
2EC9
  8
0
 10
268.7909813586327
 20
312.1532241433745
 30
0.0
 42
0.3169980516087066
  0
VERTEX
  5
2ECA
  8
0
 10
271.0472624497777
 20
311.6846726890692
 30
0.0
 42
-0.503444357598898
  0
VERTEX
  5
2ECB
  8
0
 10
282.873643183121
 20
304.8567085891348
 30
0.0
 42
0.316998051608725
  0
VERTEX
  5
2ECC
  8
0
 10
284.407561191101
 20
303.1369875732773
 30
0.0
 42
0.1147433684531251
  0
VERTEX
  5
2ECD
  8
0
 10
298.4508444417968
 20
303.1369875732773
 30
0.0
 42
0.3169980516087174
  0
VERTEX
  5
2ECE
  8
0
 10
299.9847624497768
 20
304.8567085891348
 30
0.0
 42
-0.503444357598898
  0
VERTEX
  5
2ECF
  8
0
 10
311.8111431831201
 20
311.6846726890692
 30
0.0
 42
0.3169980516087068
  0
VERTEX
  5
2ED0
  8
0
 10
314.067424274265
 20
312.1532241433745
 30
0.0
 42
0.1147433684531273
  0
VERTEX
  5
2ED1
  8
0
 10
321.0890658996129
 20
324.3150641910172
 30
0.0
 42
0.3169980516087207
  0
VERTEX
  5
2ED2
  8
0
 10
320.3667028164489
 20
326.503336661179
 30
0.0
 42
-0.5034443575988866
  0
VERTEX
  5
2ED3
  8
0
 10
320.3667028164489
 20
340.1592648610488
 30
0.0
 42
0.3169980516087057
  0
VERTEX
  5
2ED4
  8
0
 10
321.0890658996129
 20
342.3475373312106
 30
0.0
 42
0.1147433684531281
  0
VERTEX
  5
2ED5
  8
0
 10
314.067424274265
 20
354.5093773788542
 30
0.0
 42
0.3169980516087061
  0
VERTEX
  5
2ED6
  8
0
 10
311.8111431831201
 20
354.9779288331586
 30
0.0
 42
-0.5034443575988988
  0
VERTEX
  5
2ED7
  8
0
 10
299.9847624497768
 20
361.805892933093
 30
0.0
 42
0.3169980516087095
  0
SEQEND
  5
2ED8
  8
0
  0
CIRCLE
  5
2E66
  8
0
 10
291.4292028164489
 20
333.3313007611143
 30
0.0
 40
11.0
  0
LINE
  5
2E67
  8
0
 10
266.929202816443
 20
223.2355416284569
 30
0.0
 11
315.9292028164421
 21
223.2355416284569
 31
0.0
  0
LINE
  5
2E68
  8
0
 10
268.929202816443
 20
215.4938718776554
 30
0.0
 11
313.9292028164421
 21
215.4938718776554
 31
0.0
  0
LINE
  5
2E69
  8
0
 10
278.429202816443
 20
256.4938718776554
 30
0.0
 11
304.4292028164539
 21
256.4938718776472
 31
0.0
  0
ARC
  5
2E6A
  8
0
 10
278.1929401840364
 20
248.6013195983123
 30
0.0
 40
5.951205005509391
 50
37.38880691368343
 51
97.21420027622328
  0
ARC
  5
2E6B
  8
0
 10
278.3232758371798
 20
227.4870889191951
 30
0.0
 40
2.565357953936887
 50
240.6774080382635
 51
316.5238775543729
  0
LINE
  5
2E6C
  8
0
 10
261.6828792870385
 20
232.3224405343314
 30
0.0
 11
261.6828792870394
 21
252.3013786958797
 31
0.0
  0
LINE
  5
2E6D
  8
0
 10
269.8671821936452
 20
234.4938718776563
 30
0.0
 11
269.8671821936443
 21
252.2150140766386
 31
0.0
  0
ARC
  5
2E6E
  8
0
 10
268.929202816443
 20
217.4938718776554
 30
0.0
 40
1.999999999999943
 50
180.0
 51
270.0
1001
GENIUS_GENODEF_13
1002
{
1000
HIER
1070
     0
1002
}
1002
{
1000
MANEDIT
1070
     0
1002
}
1002
{
1000
NOSEL
1070
     0
1002
}
1002
{
1000
BEHIND
1070
     0
1002
}
1002
{
1000
REACTOR
1002
}
1001
GENIUS_GENOBJ-N-FIL_13
1002
{
1000
OWNER
1000
GEN
1002
}
  0
LINE
  5
2E6F
  8
0
 10
263.0950497587667
 20
234.4938718776572
 30
0.0
 11
268.8671821936289
 21
234.4938718776572
 31
0.0
  0
LINE
  5
2E70
  8
0
 10
266.929202816443
 20
223.2355416284569
 30
0.0
 11
261.6828792870385
 21
232.3224405343305
 31
0.0
  0
LINE
  5
2E71
  8
0
 10
266.929202816443
 20
223.2355416284569
 30
0.0
 11
266.929202816443
 21
217.4938718776545
 31
0.0
  0
ARC
  5
2E72
  8
0
 10
282.6578006586444
 20
237.0308462841147
 30
0.0
 40
13.03979140386123
 50
191.2188087997442
 51
244.6115597288438
  0
LINE
  5
2E73
  8
0
 10
262.9509755410002
 20
252.2150140766386
 30
0.0
 11
268.8671821936289
 21
252.2150140766386
 31
0.0
  0
ARC
  5
2E74
  8
0
 10
278.429202816443
 20
216.493871877654
 30
0.0
 40
40.00000000000136
 50
90.0
 51
111.8037479893843
  0
ARC
  5
2E75
  8
0
 10
265.4292028164421
 20
248.9900254962005
 30
0.0
 40
4.999999999998328
 50
111.8037479893822
 51
138.5267245313402
1001
GENIUS_GENODEF_13
1002
{
1000
HIER
1070
     0
1002
}
1002
{
1000
MANEDIT
1070
     0
1002
}
1002
{
1000
NOSEL
1070
     0
1002
}
1002
{
1000
BEHIND
1070
     0
1002
}
1002
{
1000
REACTOR
1002
}
1001
GENIUS_GENOBJ-N-FIL_13
1002
{
1000
OWNER
1000
GEN
1002
}
  0
ARC
  5
2E76
  8
0
 10
276.8321732056368
 20
242.852256557997
 30
0.0
 40
11.66928995911952
 50
86.98674223133894
 51
126.6456998178256
  0
LINE
  5
2E77
  8
0
 10
321.175526345862
 20
232.3224405343314
 30
0.0
 11
321.175526345862
 21
252.3013786958797
 31
0.0
  0
LINE
  5
2E78
  8
0
 10
282.921370498095
 20
252.2150140766386
 30
0.0
 11
282.9213704980959
 21
234.4938718776572
 31
0.0
  0
LINE
  5
2E79
  8
0
 10
299.9370351348055
 20
252.2150140766386
 30
0.0
 11
299.9370351348055
 21
234.4938718776572
 31
0.0
  0
LINE
  5
2E7A
  8
0
 10
312.9912234392561
 20
234.4938718776563
 30
0.0
 11
312.9912234392561
 21
252.2150140766386
 31
0.0
  0
ARC
  5
2E7B
  8
0
 10
304.5351297957206
 20
227.4870889191951
 30
0.0
 40
2.565357953936903
 50
223.4761224456271
 51
299.3225919617248
  0
LINE
  5
2E7C
  8
0
 10
283.9213704980805
 20
234.4938718776572
 30
0.0
 11
298.9370351348055
 21
234.4938718776572
 31
0.0
  0
ARC
  5
2E7D
  8
0
 10
259.1748072313192
 20
237.0891618925437
 30
0.0
 40
23.88796343861021
 50
331.5850581069329
 51
353.7628312294631
  0
ARC
  5
2E7E
  8
0
 10
323.6835984015813
 20
237.0891618925438
 30
0.0
 40
23.88796343861022
 50
186.2371687705372
 51
208.4149418930672
  0
ARC
  5
2E7F
  8
0
 10
313.9292028164421
 20
217.4938718776554
 30
0.0
 40
2.0
 50
270.0
 51
0.0
1001
GENIUS_GENODEF_13
1002
{
1000
HIER
1070
     0
1002
}
1002
{
1000
MANEDIT
1070
     0
1002
}
1002
{
1000
NOSEL
1070
     0
1002
}
1002
{
1000
BEHIND
1070
     0
1002
}
1002
{
1000
REACTOR
1002
}
1001
GENIUS_GENOBJ-N-FIL_13
1002
{
1000
OWNER
1000
GEN
1002
}
  0
LINE
  5
2E80
  8
0
 10
319.6417283119565
 20
234.4938718776572
 30
0.0
 11
313.9912234392561
 21
234.4938718776572
 31
0.0
  0
ARC
  5
2E81
  8
0
 10
300.2006049742556
 20
237.0308462841147
 30
0.0
 40
13.03979140386123
 50
295.3884402711585
 51
348.7811912002561
  0
LINE
  5
2E82
  8
0
 10
315.9292028164421
 20
223.2355416284569
 30
0.0
 11
315.9292028164421
 21
217.4938718776536
 31
0.0
  0
LINE
  5
2E83
  8
0
 10
315.9292028164421
 20
223.2355416284569
 30
0.0
 11
321.175526345862
 21
232.3224405343569
 31
0.0
  0
ARC
  5
2E84
  8
0
 10
304.665465448865
 20
248.6013195983119
 30
0.0
 40
5.951205005509814
 50
82.78579972377723
 51
142.6111930863122
  0
LINE
  5
2E85
  8
0
 10
283.9213704980805
 20
252.2150140766386
 30
0.0
 11
298.9370351348055
 21
252.2150140766386
 31
0.0
  0
LINE
  5
2E86
  8
0
 10
319.9074300918849
 20
252.2150140766386
 30
0.0
 11
313.9912234392561
 21
252.2150140766386
 31
0.0
  0
ARC
  5
2E87
  8
0
 10
304.4292028164421
 20
216.493871877654
 30
0.0
 40
40.00000000000134
 50
68.19625201061638
 51
90.0
  0
ARC
  5
2E88
  8
0
 10
306.0262324272646
 20
242.852256557997
 30
0.0
 40
11.66928995911953
 50
53.35430018217712
 51
93.01325776866108
  0
ARC
  5
2E89
  8
0
 10
317.4292028164584
 20
248.9900254962009
 30
0.0
 40
4.99999999999799
 50
41.47327546866229
 51
68.19625201061626
1001
GENIUS_GENODEF_13
1002
{
1000
HIER
1070
     0
1002
}
1002
{
1000
MANEDIT
1070
     0
1002
}
1002
{
1000
NOSEL
1070
     0
1002
}
1002
{
1000
BEHIND
1070
     0
1002
}
1002
{
1000
REACTOR
1002
}
1001
GENIUS_GENOBJ-N-FIL_13
1002
{
1000
OWNER
1000
GEN
1002
}
  0
ARC
  5
2E8A
  8
0
 10
50.62751667124189
 20
223.6973773294231
 30
0.0
 40
30.91919402524992
 50
78.72967692071754
 51
86.21889213639896
  0
LINE
  5
2E8B
  8
0
 10
39.66647957399869
 20
256.4938718776535
 30
0.0
 11
65.6664795740096
 21
256.4938718776463
 31
0.0
  0
LINE
  5
2E8C
  8
0
 10
30.16647957399869
 20
215.4938718776535
 30
0.0
 11
75.16647957399778
 21
215.4938718776535
 31
0.0
  0
LINE
  5
2E8D
  8
0
 10
28.16647957399869
 20
223.235541628456
 30
0.0
 11
77.16647957399778
 21
223.235541628456
 31
0.0
  0
ARC
  5
2E8E
  8
0
 10
52.71130489262964
 20
228.6718307987795
 30
0.0
 40
3.704509570427573
 50
269.306692505253
 51
329.9640267076146
  0
LINE
  5
2E8F
  8
0
 10
21.66647957399869
 20
248.9900254961982
 30
0.0
 11
21.66647957399869
 21
234.4938718776554
 31
0.0
  0
LINE
  5
2E90
  8
0
 10
22.44144469507114
 20
234.4938718776554
 30
0.0
 11
22.44144469507114
 21
251.0738694178168
 31
0.0
  0
LINE
  5
2E91
  8
0
 10
45.83851547407153
 20
252.2150140766377
 30
0.0
 11
45.83851547407153
 21
234.4938718776554
 31
0.0
  0
LINE
  5
2E92
  8
0
 10
31.1044589511846
 20
234.4938718776554
 30
0.0
 11
31.1044589511846
 21
252.2150140766377
 31
0.0
  0
ARC
  5
2E93
  8
0
 10
30.31302866506007
 20
225.611769333658
 30
0.0
 40
0.5000000000001373
 50
246.2367264954113
 51
357.253232453353
1001
GENIUS_GENODEF_13
1002
{
1000
HIER
1070
     0
1002
}
1002
{
1000
MANEDIT
1070
     0
1002
}
1002
{
1000
NOSEL
1070
     0
1002
}
1002
{
1000
BEHIND
1070
     0
1002
}
1002
{
1000
REACTOR
1002
}
1001
GENIUS_GENOBJ-N-FIL_13
1002
{
1000
OWNER
1000
GEN
1002
}
  0
ARC
  5
2E94
  8
0
 10
30.16647957399869
 20
217.4938718776535
 30
0.0
 40
2.0
 50
180.0
 51
270.0
1001
GENIUS_GENODEF_13
1002
{
1000
HIER
1070
     0
1002
}
1002
{
1000
MANEDIT
1070
     0
1002
}
1002
{
1000
NOSEL
1070
     0
1002
}
1002
{
1000
BEHIND
1070
     0
1002
}
1002
{
1000
REACTOR
1002
}
1001
GENIUS_GENOBJ-N-FIL_13
1002
{
1000
OWNER
1000
GEN
1002
}
  0
LINE
  5
2E95
  8
0
 10
28.16647957399869
 20
223.235541628456
 30
0.0
 11
28.16647957399869
 21
217.4938718776526
 31
0.0
  0
LINE
  5
2E96
  8
0
 10
28.16647957399869
 20
223.235541628456
 30
0.0
 11
21.66647957399869
 21
234.4938718776554
 31
0.0
  0
ARC
  5
2E97
  8
0
 10
33.55491604026588
 20
232.4771342202263
 30
0.0
 40
8.092139528442901
 50
218.3219467238794
 51
244.8164215542311
  0
ARC
  5
2E98
  8
0
 10
59.01732612249339
 20
254.1377852550697
 30
0.0
 40
41.51720649287704
 50
208.2390387289534
 51
219.9850051421009
  0
LINE
  5
2E99
  8
0
 10
32.1044589511846
 20
234.5050339034066
 30
0.0
 11
44.83851547407153
 21
234.4938718776526
 31
0.0
  0
ARC
  5
2E9A
  8
0
 10
-149.6452764282196
 20
234.2456104946243
 30
0.0
 40
180.6652985045642
 50
357.2532324534187
 51
0.0787330719278605
  0
ARC
  5
2E9B
  8
0
 10
52.62165425538274
 20
228.6718307987795
 30
0.0
 40
3.704509570427561
 50
210.0359732923817
 51
270.6933074947401
  0
ARC
  5
2E9C
  8
0
 10
61.985292133538
 20
237.3449050402861
 30
0.0
 40
16.39654800819768
 50
190.0134925743619
 51
219.9445765225455
  0
ARC
  5
2E9D
  8
0
 10
39.66647957399869
 20
216.493871877656
 30
0.0
 40
39.99999999999841
 50
90.0
 51
111.8037479893856
  0
ARC
  5
2E9E
  8
0
 10
27.21950790066307
 20
249.279871071599
 30
0.0
 40
4.869076824715424
 50
37.07163361014624
 51
88.33534575517591
  0
ARC
  5
2E9F
  8
0
 10
26.66647957399846
 20
248.9900254961982
 30
0.0
 40
4.999999999999826
 50
111.803747989381
 51
180.0
1001
GENIUS_GENODEF_13
1002
{
1000
HIER
1070
     0
1002
}
1002
{
1000
MANEDIT
1070
     0
1002
}
1002
{
1000
NOSEL
1070
     0
1002
}
1002
{
1000
BEHIND
1070
     0
1002
}
1002
{
1000
REACTOR
1002
}
1001
GENIUS_GENOBJ-N-FIL_13
1002
{
1000
OWNER
1000
GEN
1002
}
  0
ARC
  5
2EA0
  8
0
 10
29.01512841160434
 20
246.0245189289014
 30
0.0
 40
8.289104774638442
 50
101.5112441720059
 51
142.4715634063257
  0
LINE
  5
2EA1
  8
0
 10
32.1044589511846
 20
252.2150140766377
 30
0.0
 11
44.83851547407153
 21
252.2150140766377
 31
0.0
  0
ARC
  5
2EA2
  8
0
 10
54.70544247677049
 20
223.6973773294197
 30
0.0
 40
30.91919402525333
 50
93.78110786360146
 51
101.2703230792821
  0
ARC
  5
2EA3
  8
0
 10
49.02380744461084
 20
250.3437313119178
 30
0.0
 40
3.694290746966676
 50
95.61023783028725
 51
149.5667841226169
  0
LINE
  5
2EA4
  8
0
 10
83.66647957399869
 20
248.9900254961973
 30
0.0
 11
83.66647957399869
 21
234.4938718776554
 31
0.0
  0
LINE
  5
2EA5
  8
0
 10
74.22850019682733
 20
234.4938718776554
 30
0.0
 11
74.22850019682733
 21
252.2150140766377
 31
0.0
  0
LINE
  5
2EA6
  8
0
 10
82.89151445294078
 20
234.4938718776554
 30
0.0
 11
82.89151445294078
 21
251.0738694178168
 31
0.0
  0
LINE
  5
2EA7
  8
0
 10
59.4944436739413
 20
252.2150140766377
 30
0.0
 11
59.4944436739413
 21
234.4938718776554
 31
0.0
  0
LINE
  5
2EA8
  8
0
 10
77.16647957399778
 20
223.2355416284551
 30
0.0
 11
83.66647957399869
 21
234.4938718776554
 31
0.0
  0
ARC
  5
2EA9
  8
0
 10
46.31563302551217
 20
254.1377852550747
 30
0.0
 40
41.51720649288583
 50
320.0149948579001
 51
331.7609612710452
  0
ARC
  5
2EAA
  8
0
 10
75.16647957399778
 20
217.4938718776535
 30
0.0
 40
2.0
 50
270.0
 51
0.0
1001
GENIUS_GENODEF_13
1002
{
1000
HIER
1070
     0
1002
}
1002
{
1000
MANEDIT
1070
     0
1002
}
1002
{
1000
NOSEL
1070
     0
1002
}
1002
{
1000
BEHIND
1070
     0
1002
}
1002
{
1000
REACTOR
1002
}
1001
GENIUS_GENOBJ-N-FIL_13
1002
{
1000
OWNER
1000
GEN
1002
}
  0
LINE
  5
2EAB
  8
0
 10
73.3131076460511
 20
234.4938718776554
 30
0.0
 11
60.4944436739413
 21
234.4938718776554
 31
0.0
  0
ARC
  5
2EAC
  8
0
 10
43.34766701447711
 20
237.3449050402844
 30
0.0
 40
16.39654800819415
 50
320.0554234774533
 51
349.9865074256931
  0
LINE
  5
2EAD
  8
0
 10
77.16647957399778
 20
223.2355416284551
 30
0.0
 11
77.16647957399778
 21
217.4938718776526
 31
0.0
  0
ARC
  5
2EAE
  8
0
 10
254.9782355762316
 20
234.2456104946264
 30
0.0
 40
180.6652985045639
 50
179.9212669280768
 51
182.7467675465875
  0
ARC
  5
2EAF
  8
0
 10
71.77804310774695
 20
232.4771342202263
 30
0.0
 40
8.092139528442887
 50
295.1835784457689
 51
321.6780532761206
  0
ARC
  5
2EB0
  8
0
 10
75.01993048295276
 20
225.6117693336579
 30
0.0
 40
0.5000000000000417
 50
182.746767546634
 51
293.763273504594
1001
GENIUS_GENODEF_13
1002
{
1000
HIER
1070
     0
1002
}
1002
{
1000
MANEDIT
1070
     0
1002
}
1002
{
1000
NOSEL
1070
     0
1002
}
1002
{
1000
BEHIND
1070
     0
1002
}
1002
{
1000
REACTOR
1002
}
1001
GENIUS_GENOBJ-N-FIL_13
1002
{
1000
OWNER
1000
GEN
1002
}
  0
ARC
  5
2EB1
  8
0
 10
65.66647957399778
 20
216.4938718776546
 30
0.0
 40
39.99999999999903
 50
68.19625201061436
 51
90.0
  0
ARC
  5
2EB2
  8
0
 10
76.3178307364085
 20
246.0245189289014
 30
0.0
 40
8.289104774638432
 50
37.52843659367432
 51
78.48875582799246
  0
LINE
  5
2EB3
  8
0
 10
73.3131076460511
 20
252.2150140766367
 30
0.0
 11
60.4944436739413
 21
252.2150140766377
 31
0.0
  0
ARC
  5
2EB4
  8
0
 10
56.30915170340108
 20
250.3437313119178
 30
0.0
 40
3.69429074696669
 50
30.43321587738312
 51
84.38976216971281
  0
ARC
  5
2EB5
  8
0
 10
78.11345124734976
 20
249.279871071599
 30
0.0
 40
4.869076824715402
 50
91.6646542448241
 51
142.9283663898509
  0
ARC
  5
2EB6
  8
0
 10
78.66647957399914
 20
248.9900254961974
 30
0.0
 40
4.999999999999716
 50
0.0
 51
68.19625201061855
1001
GENIUS_GENODEF_13
1002
{
1000
HIER
1070
     0
1002
}
1002
{
1000
MANEDIT
1070
     0
1002
}
1002
{
1000
NOSEL
1070
     0
1002
}
1002
{
1000
BEHIND
1070
     0
1002
}
1002
{
1000
REACTOR
1002
}
1001
GENIUS_GENOBJ-N-FIL_13
1002
{
1000
OWNER
1000
GEN
1002
}
  0
VIEWPORT
  5
22
 67
     1
  8
0
 10
5.269134197284911
 20
5.545311567251436
 30
0.0
 40
11.13808705479925
 41
12.32365374410561
 68
     1
 69
     1
1001
GENIUS_GENSCREG_15
1000
PF
1040
1.0
1000
DF
1040
1.0
1000
MIN
1011
-0.2999093301147138
1021
-0.6165153048013714
1031
0.0
1021
-0.6165153048013714
1031
0.0
1000
MAX
1011
10.83817772468454
1021
11.70713843930424
1031
0.0
1021
11.70713843930424
1031
0.0
1000
FLAGS
1070
     4
1001
GENIUS_GENODEF_13
1002
{
1000
HIER
1070
     0
1002
}
1002
{
1000
MANEDIT
1070
     0
1002
}
1002
{
1000
NOSEL
1070
     0
1002
}
1002
{
1000
BEHIND
1070
     0
1002
}
1002
{
1000
OTHER
1070
     0
1002
}
1002
{
1000
REACTOR
1002
}
1001
GENIUS_GENOBJ-N-SDF_13
1002
{
1000
OWNER
1000
GEN
1002
}
1001
ACAD
1000
MVIEW
1002
{
1070
    16
1010
0.0
1020
0.0
1030
0.0
1020
0.0
1030
0.0
1010
0.0
1020
0.0
1030
1.0
1020
0.0
1030
1.0
1040
0.0
1040
12.32365374410561
1040
5.269134197284911
1040
5.545311567251436
1040
50.0
1040
0.0
1040
0.0
1070
     0
1070
   100
1070
     0
1070
     1
1070
     0
1070
     0
1070
     0
1070
     0
1040
0.0
1040
0.0
1040
0.0
1040
1.0
1040
1.0
1040
10.0
1040
10.0
1070
     0
1002
{
1002
}
1002
}
  0
ENDSEC
  0
EOF
