  0
SECTION
  2
HEADER
  9
$ACADVER
  1
AC1009
  9
$DWGCODEPAGE
  3
ansi_932
  9
$INSBASE
 10
0.0
 20
0.0
 30
0.0
  9
$EXTMIN
 10
0.0
 20
0.0000000000000284
 30
0.0
  9
$EXTMAX
 10
387.0102219540984
 20
375.3779330027892
 30
0.0
  9
$LIMMIN
 10
0.0
 20
0.0
  9
$LIMMAX
 10
420.0
 20
420.0
  9
$ORTHOMODE
 70
     0
  9
$REGENMODE
 70
     1
  9
$FILLMODE
 70
     1
  9
$QTEXTMODE
 70
     0
  9
$MIRRTEXT
 70
     0
  9
$DRAGMODE
 70
     2
  9
$LTSCALE
 40
10.0
  9
$OSMODE
 70
 15359
  9
$ATTMODE
 70
     1
  9
$TEXTSIZE
 40
3.5
  9
$TRACEWID
 40
1.0
  9
$TEXTSTYLE
  7
STANDARD
  9
$CLAYER
  8
0
  9
$CELTYPE
  6
BYLAYER
  9
$CECOLOR
 62
   256
  9
$DIMSCALE
 40
1.0
  9
$DIMASZ
 40
2.5
  9
$DIMEXO
 40
1.0
  9
$DIMDLI
 40
7.0
  9
$DIMRND
 40
0.0
  9
$DIMDLE
 40
0.0
  9
$DIMEXE
 40
1.0
  9
$DIMTP
 40
0.1
  9
$DIMTM
 40
0.1
  9
$DIMTXT
 40
3.0
  9
$DIMCEN
 40
0.0
  9
$DIMTSZ
 40
0.0
  9
$DIMTOL
 70
     0
  9
$DIMLIM
 70
     0
  9
$DIMTIH
 70
     0
  9
$DIMTOH
 70
     0
  9
$DIMSE1
 70
     0
  9
$DIMSE2
 70
     0
  9
$DIMTAD
 70
     3
  9
$DIMZIN
 70
     8
  9
$DIMBLK
  1
OPEN
  9
$DIMASO
 70
     1
  9
$DIMSHO
 70
     1
  9
$DIMPOST
  1

  9
$DIMAPOST
  1
"
  9
$DIMALT
 70
     0
  9
$DIMALTD
 70
     2
  9
$DIMALTF
 40
0.0393701
  9
$DIMLFAC
 40
1.0
  9
$DIMTOFL
 70
     1
  9
$DIMTVP
 40
0.0
  9
$DIMTIX
 70
     0
  9
$DIMSOXD
 70
     0
  9
$DIMSAH
 70
     0
  9
$DIMBLK1
  1

  9
$DIMBLK2
  1

  9
$DIMSTYLE
  2
AM_JIS
  9
$DIMCLRD
 70
   256
  9
$DIMCLRE
 70
   256
  9
$DIMCLRT
 70
     2
  9
$DIMTFAC
 40
0.71
  9
$DIMGAP
 40
1.0
  9
$LUNITS
 70
     2
  9
$LUPREC
 70
     2
  9
$SKETCHINC
 40
1.0
  9
$FILLETRAD
 40
2.5
  9
$AUNITS
 70
     0
  9
$AUPREC
 70
     0
  9
$MENU
  1
.
  9
$ELEVATION
 40
0.0
  9
$PELEVATION
 40
0.0
  9
$THICKNESS
 40
0.0
  9
$LIMCHECK
 70
     0
  9
$CHAMFERA
 40
2.5
  9
$CHAMFERB
 40
2.5
  9
$SKPOLY
 70
     1
  9
$TDCREATE
 40
2460208.719091655
  9
$TDUPDATE
 40
2460210.73121875
  9
$TDINDWG
 40
0.132852419
  9
$TDUSRTIMER
 40
0.1327553241
  9
$USRTIMER
 70
     1
  9
$ANGBASE
 50
0.0
  9
$ANGDIR
 70
     0
  9
$PDMODE
 70
     0
  9
$PDSIZE
 40
0.0
  9
$PLINEWID
 40
0.0
  9
$COORDS
 70
     2
  9
$SPLFRAME
 70
     0
  9
$SPLINETYPE
 70
     6
  9
$SPLINESEGS
 70
     8
  9
$ATTDIA
 70
     1
  9
$ATTREQ
 70
     1
  9
$HANDLING
 70
     1
  9
$HANDSEED
  5
2A23
  9
$SURFTAB1
 70
     6
  9
$SURFTAB2
 70
     6
  9
$SURFTYPE
 70
     6
  9
$SURFU
 70
     6
  9
$SURFV
 70
     6
  9
$UCSNAME
  2

  9
$UCSORG
 10
0.0
 20
0.0
 30
0.0
  9
$UCSXDIR
 10
1.0
 20
0.0
 30
0.0
  9
$UCSYDIR
 10
0.0
 20
1.0
 30
0.0
  9
$PUCSNAME
  2

  9
$PUCSORG
 10
0.0
 20
0.0
 30
0.0
  9
$PUCSXDIR
 10
1.0
 20
0.0
 30
0.0
  9
$PUCSYDIR
 10
0.0
 20
1.0
 30
0.0
  9
$USERI1
 70
     0
  9
$USERI2
 70
     0
  9
$USERI3
 70
     0
  9
$USERI4
 70
     0
  9
$USERI5
 70
     0
  9
$USERR1
 40
0.0
  9
$USERR2
 40
0.0
  9
$USERR3
 40
0.0
  9
$USERR4
 40
0.0
  9
$USERR5
 40
0.0
  9
$WORLDVIEW
 70
     1
  9
$SHADEDGE
 70
     3
  9
$SHADEDIF
 70
    70
  9
$TILEMODE
 70
     1
  9
$MAXACTVP
 70
    48
  9
$PLIMCHECK
 70
     0
  9
$PEXTMIN
 10
1.000000000000000E+20
 20
1.000000000000000E+20
 30
1.000000000000000E+20
  9
$PEXTMAX
 10
-1.000000000000000E+20
 20
-1.000000000000000E+20
 30
-1.000000000000000E+20
  9
$PLIMMIN
 10
-0.2500002402958907
 20
-0.2499999962453767
  9
$PLIMMAX
 10
10.74999951940822
 20
8.249999763458732
  9
$UNITMODE
 70
     0
  9
$VISRETAIN
 70
     1
  9
$PLINEGEN
 70
     0
  9
$PSLTSCALE
 70
     1
  0
ENDSEC
  0
SECTION
  2
TABLES
  0
TABLE
  2
VPORT
 70
     1
  0
VPORT
  2
*ACTIVE
 70
     0
 10
0.0
 20
0.0
 11
1.0
 21
1.0
 12
193.5051109770488
 22
187.6889665013947
 13
0.0
 23
0.0
 14
2.5
 24
2.5
 15
10.0
 25
10.0
 16
0.0
 26
0.0
 36
1.0
 17
0.0
 27
0.0
 37
0.0
 40
378.7559121524209
 41
2.295429208472687
 42
50.0
 43
0.0
 44
0.0
 50
0.0
 51
0.0
 71
     0
 72
   100
 73
     1
 74
     3
 75
     0
 76
     0
 77
     0
 78
     0
  0
ENDTAB
  0
TABLE
  2
LTYPE
 70
    14
  0
LTYPE
  2
CONTINUOUS
 70
     0
  3
Solid line
 72
    65
 73
     0
 40
0.0
  0
LTYPE
  2
PHANTOM2
 70
     0
  3
___ _ _ ___ _ _ ___ _ _ ___ _ _ ___ _ _ ___ _ _
 72
    65
 73
     6
 40
1.25
 49
0.625
 49
-0.125
 49
0.125
 49
-0.125
 49
0.125
 49
-0.125
  0
LTYPE
  2
ACJISTGB
 70
     0
  3
__ . . __ . .
 72
    65
 73
     6
 40
9.0
 49
4.0
 49
-1.0
 49
1.0
 49
-1.0
 49
1.0
 49
-1.0
  0
LTYPE
  2
ACJISTGL
 70
     0
  3
_ _ _ _ _
 72
    65
 73
     2
 40
3.0
 49
2.0
 49
-1.0
  0
LTYPE
  2
AM_ISO02W050
 70
     0
  3
__ __ __ __ __ __ __ __ __ __ __ __ __ __ __
 72
    65
 73
     2
 40
7.5
 49
6.0
 49
-1.5
  0
LTYPE
  2
AM_ISO08W050
 70
     0
  3
____ . ____ . ____ . ____ . ____ . ____ . ____
 72
    65
 73
     4
 40
18.0
 49
12.0
 49
-1.5
 49
3.0
 49
-1.5
  0
LTYPE
  2
AM_ISO09W050
 70
     0
  3
_____ . . _____ . . _____ . . ____ .. ____
 72
    65
 73
     6
 40
22.5
 49
12.0
 49
-1.5
 49
3.0
 49
-1.5
 49
3.0
 49
-1.5
  0
LTYPE
  2
AM_ISO02W050X2
 70
     0
  3
 _ _ _ _ _ _ _ _ _ _ _ _
 72
    65
 73
     2
 40
3.75
 49
3.0
 49
-0.75
  0
LTYPE
  2
AM_ISO08W050X2
 70
     0
  3
__ . __ . __ . __ . __ . __
 72
    65
 73
     4
 40
9.0
 49
6.0
 49
-0.75
 49
1.5
 49
-0.75
  0
LTYPE
  2
AMZIGZAG
 70
     0
  3
/\/-/\/-/\/-/\/-/\/-/\/
 72
    65
 73
     2
 40
11.0001
 49
0.0001
 49
-11.0
  0
LTYPE
  2
AMCONSTR
 70
     0
  3
_______________________
 72
    65
 73
     2
 40
9999.0
 49
9999.0
 49
0.0
  0
LTYPE
  2
CENTER2
 70
     0
  3
Center (.5x) ___ _ ___ _ ___ _ ___ _ ___ _ ___
 72
    65
 73
     4
 40
1.125
 49
0.75
 49
-0.125
 49
0.125
 49
-0.125
  0
LTYPE
  2
HIDDEN2
 70
     0
  3
Hidden (.5x) _ _ _ _ _ _ _ _ _ _ _ _ _ _ _ _ _
 72
    65
 73
     2
 40
0.1875
 49
0.125
 49
-0.0625
  0
LTYPE
  2
ACJISWELD
 70
     0
  3
_ _ _ _ _
 72
    65
 73
     2
 40
2.0
 49
2.0
 49
-1.0
  0
ENDTAB
  0
TABLE
  2
LAYER
 70
     5
  0
LAYER
  2
0
 70
     0
 62
     7
  6
CONTINUOUS
  0
LAYER
  2
7
 70
     0
 62
     4
  6
CENTER2
  0
LAYER
  2
BEHIND
 70
     0
 62
   253
  6
CONTINUOUS
  0
LAYER
  2
AM_0
 70
     0
 62
     7
  6
CONTINUOUS
  0
LAYER
  2
10
 70
     0
 62
     2
  6
CONTINUOUS
  0
ENDTAB
  0
TABLE
  2
STYLE
 70
     4
  0
STYLE
  2
STANDARD
 70
     0
 40
0.0
 41
1.0
 50
0.0
 71
     0
 42
3.5
  3
isocp.shx
  4
extfont.shx
  0
STYLE
  2
ACJISTS
 70
     0
 40
1.0
 41
1.0
 50
0.0
 71
     0
 42
3.5
  3
isocp.shx
  4
extfont.shx
  0
STYLE
  2
ACJISGDT
 70
     0
 40
0.0
 41
1.0
 50
0.0
 71
     0
 42
3.5
  3
amgdt.shx
  4
extfont.shx
  0
STYLE
  2

 70
     1
 40
0.0
 41
1.0
 50
0.0
 71
     0
 42
3.5
  3
ltypeshp.shx
  4

  0
ENDTAB
  0
TABLE
  2
VIEW
 70
     3
  0
VIEW
  2
AMDTVIEW1
 70
     0
 40
329.0721649484536
 10
210.0
 20
164.5360824742268
 41
420.0
 11
0.0
 21
0.0
 31
1.0
 12
0.0
 22
0.0
 32
0.0
 42
50.0
 43
0.0
 44
0.0
 50
0.0
 71
     0
  0
VIEW
  2
AMDTVIEW2
 70
     0
 40
329.0721649484536
 10
210.0
 20
164.5360824742268
 41
420.0
 11
0.0
 21
0.0
 31
1.0
 12
0.0
 22
0.0
 32
0.0
 42
50.0
 43
0.0
 44
0.0
 50
0.0
 71
     0
  0
VIEW
  2
AMDTVIEW3
 70
     0
 40
329.0721649484536
 10
210.0
 20
164.5360824742268
 41
420.0
 11
0.0
 21
0.0
 31
1.0
 12
0.0
 22
0.0
 32
0.0
 42
50.0
 43
0.0
 44
0.0
 50
0.0
 71
     0
  0
ENDTAB
  0
TABLE
  2
UCS
 70
     0
  0
ENDTAB
  0
TABLE
  2
APPID
 70
    67
  0
APPID
  2
ACAD
 70
     0
  0
APPID
  2
AD_DRAW
 70
     0
  0
APPID
  2
DESIGNERASSEMBLIES
 70
     0
  0
APPID
  2
MCAD_NO_VIS
 70
     0
  0
APPID
  2
ASURF_PCURVE_APPNAME
 70
     0
  0
APPID
  2
ACAD_TEMP_GRAPHIC
 70
     0
  0
APPID
  2
ACATTRIBSERVICES
 70
     0
  0
APPID
  2
ACADM_DIM_EDIT
 70
     0
  0
APPID
  2
GENIUS_GENDIM_13
 70
     0
  0
APPID
  2
GENIUS_GENDTOL_13
 70
     0
  0
APPID
  2
GENIUS_GE3DTOL_13
 70
     0
  0
APPID
  2
AMG_3D2D_5_0
 70
     0
  0
APPID
  2
AMDT_DM_ADJ
 70
     0
  0
APPID
  2
ACAD_PSEXT
 70
     0
  0
APPID
  2
ACAD_DSTYLE_DIMTEXT_FILL
 70
     0
  0
APPID
  2
ACAECLAYERSTANDARD
 70
     0
  0
APPID
  2
GENIUS_GENREC_14
 70
     0
  0
APPID
  2
GENIUS_GENODEF_13
 70
     0
  0
APPID
  2
GENIUS_GENOBJ-N-REC_13
 70
     0
  0
APPID
  2
DCO15
 70
     0
  0
APPID
  2
ACAD_DSTYLE_DIMJAG
 70
     0
  0
APPID
  2
ACAD_DSTYLE_DIMTALN
 70
     0
  0
APPID
  2
ACAD_MLEADERVER
 70
     0
  0
APPID
  2
GENIUS_GENSCREG_15
 70
     0
  0
APPID
  2
GENIUS_GENOBJ-N-SDF_13
 70
     0
  0
APPID
  2
ACAD_NAV_VCDISPLAY
 70
     0
  0
APPID
  2
ACAD_EXEMPT_FROM_CAD_STAND
 70
     0
  0
APPID
  2
ACCMTRANSPARENCY
 70
     0
  0
APPID
  2
HC_SUPERPART
 70
     0
  0
APPID
  2
HC_SP4BLOCK
 70
     0
  0
APPID
  2
HC_XDATA_SPRING
 70
     0
  0
APPID
  2
HCCAD_FRAME
 70
     0
  0
APPID
  2
GENIUS_GENOLIS_13
 70
     0
  0
APPID
  2
GENIUS_GENOENT_13
 70
     0
  0
APPID
  2
GENIUS_GENOREF_13
 70
     0
  0
APPID
  2
GENIUS_GENOBJ-N-TIT_13
 70
     0
  0
APPID
  2
GENIUS_GENOBJ-N-ZOO_13
 70
     0
  0
APPID
  2
GENIUS_GENTITLE_13
 70
     0
  0
APPID
  2
GENIUS_GENSYMENT_13
 70
     0
  0
APPID
  2
GENIUS_GENSCSYM_13
 70
     0
  0
APPID
  2
GENIUS_GENOBJ-N-REV_13
 70
     0
  0
APPID
  2
GENIUS_GENOBJ-N-RSSYM_13
 70
     0
  0
APPID
  2
GENIUS_GENREV_15
 70
     0
  0
APPID
  2
HRA
 70
     0
  0
APPID
  2
HTIT
 70
     0
  0
APPID
  2
GENIUS_GENZOO_17
 70
     0
  0
APPID
  2
GENIUS_GENOBJ-N-CEN_13
 70
     0
  0
APPID
  2
GENIUS_GENCEN_19
 70
     0
  0
APPID
  2
GENIUS_GENOBJ-N-CRS_13
 70
     0
  0
APPID
  2
GENIUS_GENCRS_20
 70
     0
  0
APPID
  2
GENIUS_GENOBJ-N-CRC_13
 70
     0
  0
APPID
  2
GENIUS_GENCRC_14
 70
     0
  0
APPID
  2
GENIUS_GENFIL_13
 70
     0
  0
APPID
  2
GENIUS_GENOBJ-N-CHA_13
 70
     0
  0
APPID
  2
GENIUS_GENOBJ-N-FIL_13
 70
     0
  0
APPID
  2
GENIUS_GENHATCH_13
 70
     0
  0
APPID
  2
GENIUS_GENOBJ-N-HTC_13
 70
     0
  0
APPID
  2
GENIUS_GENOBJ-N-DIM_13
 70
     0
  0
APPID
  2
GENIUS_GENOBJ-N-DIMLI_13
 70
     0
  0
APPID
  2
GENIUS_GENOBJ-N-FITL_13
 70
     0
  0
APPID
  2
GENIUS_GENFITL_13
 70
     0
  0
APPID
  2
GENLAYCOLOR
 70
     0
  0
APPID
  2
ACAD_DSTYLE_DIMBREAK
 70
     0
  0
APPID
  2
ACADANNOTATIVE
 70
     0
  0
APPID
  2
ACADANNOPO
 70
     0
  0
APPID
  2
GRPNAME
 70
     0
  0
APPID
  2
PLOTTRANSPARENCY
 70
     0
  0
ENDTAB
  0
TABLE
  2
DIMSTYLE
 70
     8
  0
DIMSTYLE
  2
STANDARD
 70
     0
  3

  4

  5

  6

  7

 40
1.0
 41
2.5
 42
0.625
 43
3.75
 44
1.25
 45
0.0
 46
0.0
 47
0.0
 48
0.0
140
2.5
141
2.5
142
0.0
143
0.0394
144
1.0
145
0.0
146
1.0
147
0.625
 71
     0
 72
     0
 73
     0
 74
     0
 75
     0
 76
     0
 77
     1
 78
     8
170
     0
171
     4
172
     1
173
     0
174
     0
175
     0
176
     0
177
     0
178
     0
  0
DIMSTYLE
  2
ISO-25
 70
     0
  3

  4

  5

  6

  7

 40
1.0
 41
2.5
 42
0.625
 43
3.75
 44
1.25
 45
0.0
 46
0.0
 47
0.0
 48
0.0
140
2.5
141
2.5
142
0.0
143
0.0394
144
1.0
145
0.0
146
1.0
147
0.625
 71
     0
 72
     0
 73
     0
 74
     0
 75
     0
 76
     0
 77
     1
 78
     8
170
     0
171
     4
172
     1
173
     0
174
     0
175
     0
176
     0
177
     0
178
     0
  0
DIMSTYLE
  2
AM_JIS
 70
     0
  3

  4
"
  5
OPEN
  6

  7

 40
1.0
 41
2.5
 42
1.0
 43
7.0
 44
1.0
 45
0.0
 46
0.0
 47
0.1
 48
0.1
140
3.0
141
0.0
142
0.0
143
0.0393701
144
1.0
145
0.0
146
0.71
147
1.0
 71
     0
 72
     0
 73
     0
 74
     0
 75
     0
 76
     0
 77
     3
 78
     8
170
     0
171
     2
172
     1
173
     0
174
     0
175
     0
176
   256
177
   256
178
     2
  0
DIMSTYLE
  2
AM_JIS$3
 70
     0
  3

  4
"
  5
OPEN
  6

  7

 40
1.0
 41
2.5
 42
1.0
 43
10.0
 44
1.0
 45
0.0
 46
0.0
 47
0.1
 48
0.1
140
3.0
141
0.0
142
0.0
143
0.0393701
144
1.0
145
0.0
146
0.71
147
1.0
 71
     0
 72
     0
 73
     0
 74
     0
 75
     0
 76
     0
 77
     3
 78
     8
170
     0
171
     2
172
     1
173
     0
174
     0
175
     0
176
   256
177
   256
178
     2
  0
DIMSTYLE
  2
AM_JIS$4
 70
     0
  3

  4
"
  5

  6
OPEN30
  7
OPEN
 40
1.0
 41
2.5
 42
1.0
 43
10.0
 44
1.0
 45
0.0
 46
0.0
 47
0.1
 48
0.1
140
3.0
141
0.0
142
0.0
143
0.0393701
144
1.0
145
0.0
146
0.71
147
1.0
 71
     0
 72
     0
 73
     0
 74
     0
 75
     1
 76
     0
 77
     3
 78
     8
170
     0
171
     2
172
     1
173
     1
174
     0
175
     0
176
   256
177
   256
178
     2
  0
DIMSTYLE
  2
AM_JIS$6
 70
     0
  3

  4
"
  5
OPEN30
  6
OPEN30
  7
OPEN30
 40
1.0
 41
2.5
 42
1.0
 43
10.0
 44
1.0
 45
0.0
 46
0.0
 47
0.1
 48
0.1
140
3.5
141
0.0
142
0.0
143
0.0393701
144
1.0
145
0.0
146
0.71
147
1.5
 71
     0
 72
     0
 73
     0
 74
     0
 75
     0
 76
     0
 77
     0
 78
     8
170
     0
171
     2
172
     1
173
     0
174
     0
175
     0
176
   256
177
   256
178
     2
  0
DIMSTYLE
  2
AM_JIS$7
 70
     0
  3

  4
"
  5
OPEN30
  6

  7

 40
1.0
 41
2.5
 42
1.0
 43
10.0
 44
1.0
 45
0.0
 46
0.0
 47
0.1
 48
0.1
140
3.0
141
0.0
142
0.0
143
0.0393701
144
1.0
145
0.0
146
0.71
147
1.0
 71
     0
 72
     0
 73
     0
 74
     0
 75
     0
 76
     0
 77
     3
 78
     8
170
     0
171
     2
172
     1
173
     0
174
     0
175
     0
176
   256
177
   256
178
     2
  0
DIMSTYLE
  2
AM_JIS$0
 70
     0
  3

  4
"
  5
OPEN
  6

  7

 40
1.0
 41
2.5
 42
1.0
 43
7.0
 44
1.0
 45
0.0
 46
0.0
 47
0.1
 48
0.1
140
3.0
141
0.0
142
0.0
143
0.0393701
144
1.0
145
0.0
146
0.71
147
1.0
 71
     0
 72
     0
 73
     0
 74
     0
 75
     0
 76
     0
 77
     3
 78
     8
170
     0
171
     2
172
     1
173
     0
174
     0
175
     0
176
   256
177
   256
178
     2
  0
ENDTAB
  0
ENDSEC
  0
SECTION
  2
BLOCKS
  0
BLOCK
  8
0
  2
$MODEL_SPACE
 70
     0
 10
0.0
 20
0.0
 30
0.0
  3
$MODEL_SPACE
  1

  0
ENDBLK
  5
1C
  8
0
  0
BLOCK
 67
     1
  8
0
  2
$PAPER_SPACE
 70
     0
 10
0.0
 20
0.0
 30
0.0
  3
$PAPER_SPACE
  1

  0
ENDBLK
  5
19
 67
     1
  8
0
  0
BLOCK
  8
0
  2
_OPEN30
 70
     0
 10
0.0
 20
0.0
 30
0.0
  3
_OPEN30
  1

  0
LINE
  5
2EF
  8
0
  6
BYBLOCK
 62
     0
 10
-1.0
 20
0.26794919
 30
0.0
 11
0.0
 21
0.0
 31
0.0
  0
LINE
  5
2F0
  8
0
  6
BYBLOCK
 62
     0
 10
0.0
 20
0.0
 30
0.0
 11
-1.0
 21
-0.26794919
 31
0.0
  0
LINE
  5
2F1
  8
0
  6
BYBLOCK
 62
     0
 10
0.0
 20
0.0
 30
0.0
 11
-1.0
 21
0.0
 31
0.0
  0
ENDBLK
  5
2F3
  8
0
  0
BLOCK
  8
0
  2
_OPEN
 70
     0
 10
0.0
 20
0.0
 30
0.0
  3
_OPEN
  1

  0
LINE
  5
597
  8
0
  6
BYBLOCK
 62
     0
 10
-1.0
 20
0.1666666666666667
 30
0.0
 11
0.0
 21
0.0
 31
0.0
  0
LINE
  5
598
  8
0
  6
BYBLOCK
 62
     0
 10
-1.0
 20
-0.1666666666666667
 30
0.0
 11
0.0
 21
0.0
 31
0.0
  0
LINE
  5
599
  8
0
  6
BYBLOCK
 62
     0
 10
0.0
 20
0.0
 30
0.0
 11
-1.0
 21
0.0
 31
0.0
  0
ENDBLK
  5
59B
  8
0
  0
BLOCK
  8
0
  2
_TAGCIRCLE
 70
     2
 10
0.0
 20
0.0
 30
0.0
  3
_TAGCIRCLE
  1

  0
CIRCLE
  5
1151
  8
0
  6
BYBLOCK
 62
     0
 10
0.0
 20
0.0
 30
0.0
 40
4.0
  0
ATTDEF
  5
1152
  8
0
 62
     0
 10
-7.1
 20
-1.5
 30
0.0
 40
3.0
  1
タグ番号
 72
     1
 11
0.0
 21
-1.5
 31
0.0
  3
タグ番号を入力
  2
タグ番号
 70
     0
  0
ENDBLK
  5
1154
  8
0
  0
BLOCK
  8
AM_0
  2
_ACMOPEN30
 70
     0
 10
0.0
 20
0.0
 30
0.0
  3
_ACMOPEN30
  1
Acad:XRef
  0
LINE
  5
1CA4
  8
AM_0
 62
     0
 10
-1.0
 20
0.0
 30
0.0
 11
0.0
 21
0.0
 31
0.0
  0
LINE
  5
1CA5
  8
AM_0
 62
     0
 10
-1.0
 20
-0.2679491924311227
 30
0.0
 11
0.0
 21
0.0
 31
0.0
  0
LINE
  5
1CA6
  8
AM_0
 62
     0
 10
-1.0
 20
0.2679491924311227
 30
0.0
 11
0.0
 21
0.0
 31
0.0
  0
ENDBLK
  5
1CA7
  8
AM_0
  0
ENDSEC
  0
SECTION
  2
ENTITIES
  0
LINE
  5
28BA
  8
0
 10
214.7335185153129
 20
129.4938023128514
 30
0.0
 11
248.4292028164491
 21
129.4938023128514
 31
0.0
  0
LINE
  5
28BB
  8
0
 10
214.7335185153147
 20
150.4938023128514
 30
0.0
 11
248.4292028164491
 21
150.4938023128514
 31
0.0
  0
LINE
  5
28BC
  8
0
 10
218.9292028164491
 20
130.5092857885113
 30
0.0
 11
205.9292028164491
 21
130.963255791904
 31
0.0
  0
LINE
  5
28BD
  8
0
 10
218.9292028164491
 20
149.4783188371914
 30
0.0
 11
205.9292028164491
 21
149.0243488337988
 31
0.0
  0
LINE
  5
28BE
  8
0
  6
CONTINUOUS
 10
40.66647957400528
 20
157.9938023128514
 30
0.0
 11
51.84339411024484
 21
157.9938023128514
 31
0.0
  0
LINE
  5
28BF
  8
0
  6
CONTINUOUS
 10
53.48956503776549
 20
157.9938023128514
 30
0.0
 11
64.66647957400528
 21
157.9938023128514
 31
0.0
  0
LINE
  5
28C0
  8
0
  6
CONTINUOUS
 10
63.67611882689062
 20
126.1982563118463
 30
0.0
 11
61.66647957400528
 21
124.9938221292621
 31
0.0
  0
LINE
  5
28C1
  8
0
  6
CONTINUOUS
 10
63.16647957400528
 20
154.4938023128518
 30
0.0
 11
64.66647957400528
 21
151.8957261014999
 31
0.0
  0
LINE
  5
28C2
  8
0
 10
63.66647957400528
 20
118.9938023128514
 30
0.0
 11
61.66647957400528
 21
119.5297006977137
 31
0.0
  0
LINE
  5
28C3
  8
0
 10
62.15099609834533
 20
67.4938023128515
 30
0.0
 11
61.69702609495266
 21
54.4938023128515
 31
0.0
  0
LINE
  5
28C4
  8
0
 10
63.16647957400528
 20
63.29811801171516
 30
0.0
 11
62.8590260949527
 21
54.49380231285139
 31
0.0
  0
LINE
  5
28C5
  8
0
 10
43.18196304966523
 20
67.4938023128515
 30
0.0
 11
43.63593305305812
 21
54.4938023128515
 31
0.0
  0
LINE
  5
28C6
  8
0
 10
42.16647957400528
 20
63.29811801171698
 30
0.0
 11
42.47393305305786
 21
54.4938023128515
 31
0.0
  0
LINE
  5
28C7
  8
0
 10
42.47393305305786
 20
54.4938023128515
 30
0.0
 11
62.8590260949527
 21
54.49380231285139
 31
0.0
  0
LINE
  5
28C8
  8
0
 10
39.44597957400538
 20
116.7733023128515
 30
0.0
 11
41.66647957400528
 21
118.9938023128514
 31
0.0
  0
LINE
  5
28C9
  8
0
 10
39.44597957400538
 20
114.9938023128514
 30
0.0
 11
39.44597957400538
 21
116.7733023128515
 31
0.0
  0
LINE
  5
28CA
  8
0
 10
63.16647957400528
 20
63.29811801171516
 30
0.0
 11
63.16647957400528
 21
96.99380231285139
 31
0.0
  0
LINE
  5
28CB
  8
0
 10
42.16647957400528
 20
63.29811801171698
 30
0.0
 11
42.16647957400528
 21
96.99380231285139
 31
0.0
  0
LINE
  5
28CC
  8
0
 10
63.16647957400528
 20
67.49380231285139
 30
0.0
 11
42.16647957400528
 21
67.49380231285139
 31
0.0
  0
LINE
  5
28CD
  8
0
  6
CONTINUOUS
 10
43.66647957400528
 20
119.5297006977137
 30
0.0
 11
61.66647957400528
 21
119.5297006977137
 31
0.0
  0
LINE
  5
28CE
  8
0
  6
CONTINUOUS
 10
43.66647957400528
 20
124.9938221292621
 30
0.0
 11
46.64720736450795
 21
124.9938221292621
 31
0.0
  0
LINE
  5
28CF
  8
0
  6
CONTINUOUS
 10
41.65684032111994
 20
126.1982563118463
 30
0.0
 11
43.66647957400528
 21
124.9938221292621
 31
0.0
  0
LINE
  5
28D0
  8
0
  6
CONTINUOUS
 10
40.66647957400528
 20
128.3215785242035
 30
0.0
 11
41.65684032111994
 21
126.1982563118463
 31
0.0
  0
LINE
  5
28D1
  8
0
 10
40.66647957400528
 20
128.3215785242035
 30
0.0
 11
40.66647957400505
 21
128.4467969290588
 31
0.0
  0
LINE
  5
28D2
  8
0
 10
41.66647957400528
 20
118.9938023128514
 30
0.0
 11
43.66647957400528
 21
119.5297006977137
 31
0.0
  0
LINE
  5
28D3
  8
0
 10
43.66647957400528
 20
119.5297006977137
 30
0.0
 11
43.66647957400528
 21
124.9938221292621
 31
0.0
  0
LINE
  5
28D4
  8
0
 10
40.60797957400518
 20
114.9938023128514
 30
0.0
 11
40.60797957400518
 21
117.9353023128514
 31
0.0
  0
LINE
  5
28D5
  8
0
  6
CONTINUOUS
 10
58.6857517835017
 20
124.9938221292621
 30
0.0
 11
61.66647957400528
 21
124.9938221292621
 31
0.0
  0
LINE
  5
28D6
  8
0
 10
61.66647957400528
 20
119.5297006977137
 30
0.0
 11
61.66647957400528
 21
124.9938221292621
 31
0.0
  0
LINE
  5
28D7
  8
0
  6
CONTINUOUS
 10
42.16647957400528
 20
154.4938023128518
 30
0.0
 11
45.78121628375493
 21
154.4938023128518
 31
0.0
  0
LINE
  5
28D8
  8
0
 10
40.66647957400505
 20
151.5408076966438
 30
0.0
 11
40.66647957400528
 21
151.8957261014999
 31
0.0
  0
LINE
  5
28D9
  8
0
  6
CONTINUOUS
 10
42.16647957400528
 20
154.4938023128518
 30
0.0
 11
40.66647957400528
 21
151.8957261014999
 31
0.0
  0
LINE
  5
28DA
  8
0
 10
40.66647957400528
 20
157.9938023128514
 30
0.0
 11
40.66647957400528
 21
160.9938023128514
 31
0.0
  0
LINE
  5
28DB
  8
0
 10
42.16647957400528
 20
157.9938023128514
 30
0.0
 11
42.16647957400528
 21
154.4938023128518
 31
0.0
  0
LINE
  5
28DC
  8
0
  6
CONTINUOUS
 10
59.55174286425563
 20
154.4938023128518
 30
0.0
 11
63.16647957400528
 21
154.4938023128518
 31
0.0
  0
LINE
  5
28DD
  8
0
 10
63.16647957400528
 20
154.4938023128518
 30
0.0
 11
63.16647957400528
 21
157.9938023128514
 31
0.0
  0
LINE
  5
28DE
  8
0
  6
CONTINUOUS
 10
64.66647957400528
 20
128.3215785242035
 30
0.0
 11
63.67611882689062
 21
126.1982563118463
 31
0.0
  0
LINE
  5
28DF
  8
0
 10
64.66647957400528
 20
128.3215785242035
 30
0.0
 11
64.66647957400528
 21
128.446796929059
 31
0.0
  0
LINE
  5
28E0
  8
0
 10
65.88697957400518
 20
116.7733023128515
 30
0.0
 11
63.66647957400528
 21
118.9938023128514
 31
0.0
  0
LINE
  5
28E1
  8
0
 10
65.88697957400518
 20
114.9938023128514
 30
0.0
 11
65.88697957400518
 21
116.7733023128515
 31
0.0
  0
LINE
  5
28E2
  8
0
 10
64.72497957400537
 20
114.9938023128514
 30
0.0
 11
64.72497957400537
 21
117.9353023128514
 31
0.0
  0
LINE
  5
28E3
  8
0
 10
64.66647957400528
 20
157.9938023128514
 30
0.0
 11
64.66647957400528
 21
160.9938023128514
 31
0.0
  0
LINE
  5
28E4
  8
0
 10
64.66647957400528
 20
151.5408076966441
 30
0.0
 11
64.66647957400528
 21
151.8957261014999
 31
0.0
  0
LINE
  5
28E5
  8
0
 10
205.9292028164491
 20
150.1863488337987
 30
0.0
 11
205.9292028164491
 21
129.8012557919041
 31
0.0
  0
LINE
  5
28E6
  8
0
 10
214.7335185153129
 20
129.4938023128514
 30
0.0
 11
205.9292028164491
 21
129.8012557919041
 31
0.0
  0
LINE
  5
28E7
  8
0
 10
214.7335185153147
 20
150.4938023128514
 30
0.0
 11
205.9292028164491
 21
150.1863488337987
 31
0.0
  0
LINE
  5
28E8
  8
0
 10
309.3270611613275
 20
99.39166065772989
 30
0.0
 11
306.9292028164491
 21
96.99380231285139
 31
0.0
1001
GRPNAME
1000
PASTME6F
  0
LINE
  5
28E9
  8
0
 10
309.3270611613275
 20
112.595943967973
 30
0.0
 11
306.9292028164491
 21
114.9938023128514
 31
0.0
1001
GRPNAME
1000
PASTME6F
  0
LINE
  5
28EA
  8
0
 10
311.9292028164491
 20
150.4938023128514
 30
0.0
 11
303.4292028164491
 21
150.4938023128514
 31
0.0
  0
LINE
  5
28EB
  8
0
 10
307.0460467862563
 20
129.4938023128514
 30
0.0
 11
311.9292028164491
 21
129.4938023128514
 31
0.0
  0
LINE
  5
28EC
  8
0
 10
301.9292028164491
 20
63.29811801171516
 30
0.0
 11
301.6217493373965
 21
54.49380231285139
 31
0.0
  0
LINE
  5
28ED
  8
0
 10
300.9137193407892
 20
67.4938023128515
 30
0.0
 11
300.4597493373967
 21
54.4938023128515
 31
0.0
  0
LINE
  5
28EE
  8
0
 10
281.9446862921091
 20
67.4938023128515
 30
0.0
 11
282.3986562955015
 21
54.4938023128515
 31
0.0
  0
LINE
  5
28EF
  8
0
 10
280.9292028164491
 20
63.29811801171698
 30
0.0
 11
281.2366562955017
 21
54.4938023128515
 31
0.0
  0
LINE
  5
28F0
  8
0
 10
281.2366562955017
 20
54.4938023128515
 30
0.0
 11
301.6217493373965
 21
54.49380231285139
 31
0.0
  0
LINE
  5
28F1
  8
0
 10
218.9292028164491
 20
129.4938023128514
 30
0.0
 11
218.9292028164491
 21
150.4938023128514
 31
0.0
  0
LINE
  5
28F2
  8
0
  6
CONTINUOUS
 10
279.6147830031505
 20
131.6883801206634
 30
0.0
 11
282.8697858430323
 21
140.5772033533301
 31
0.0
  0
LINE
  5
28F3
  8
0
  6
CONTINUOUS
 10
270.9292028164491
 20
150.4938023128514
 30
0.0
 11
270.9292028164491
 21
129.4938023128514
 31
0.0
  0
LINE
  5
28F4
  8
0
 10
301.9292028164491
 20
67.49380231285139
 30
0.0
 11
280.9292028164491
 21
67.49380231285139
 31
0.0
  0
LINE
  5
28F5
  8
0
 10
306.9292028164491
 20
96.99380231285139
 30
0.0
 11
275.9292028164491
 21
96.99380231285139
 31
0.0
1001
GRPNAME
1000
PASTME6F
  0
LINE
  5
28F6
  8
0
 10
306.9292028164491
 20
114.9938023128514
 30
0.0
 11
275.9292028164491
 21
114.9938023128514
 31
0.0
1001
GRPNAME
1000
PASTME6F
  0
LINE
  5
28F7
  8
0
  6
CONTINUOUS
 10
282.4292028164491
 20
124.9938221292621
 30
0.0
 11
300.4292028164491
 21
124.9938221292621
 31
0.0
  0
LINE
  5
28F8
  8
0
  6
CONTINUOUS
 10
282.4292028164491
 20
119.5297006977137
 30
0.0
 11
300.4292028164491
 21
119.5297006977137
 31
0.0
  0
LINE
  5
28F9
  8
0
 10
280.9292028164491
 20
63.29811801171698
 30
0.0
 11
280.9292028164491
 21
96.99380231285139
 31
0.0
  0
LINE
  5
28FA
  8
0
 10
275.9292028164491
 20
96.99380231285139
 30
0.0
 11
273.5313444715703
 21
99.39166065772989
 31
0.0
1001
GRPNAME
1000
PASTME6F
  0
LINE
  5
28FB
  8
0
 10
275.9292028164491
 20
114.9938023128514
 30
0.0
 11
273.5313444715703
 21
112.595943967973
 31
0.0
1001
GRPNAME
1000
PASTME6F
  0
LINE
  5
28FC
  8
0
 10
279.4292028164491
 20
129.4938023128514
 30
0.0
 11
270.9292028164491
 21
129.4938023128514
 31
0.0
  0
LINE
  5
28FD
  8
0
 10
273.5313444715703
 20
99.39166065772989
 30
0.0
 11
273.5313444715703
 21
112.595943967973
 31
0.0
1001
GRPNAME
1000
PASTME6F
  0
LINE
  5
28FE
  8
0
 10
266.4292028164491
 20
127.9353023128514
 30
0.0
 11
269.370702816449
 21
127.9353023128514
 31
0.0
  0
LINE
  5
28FF
  8
0
 10
270.9292028164491
 20
129.4938023128514
 30
0.0
 11
268.2087028164492
 21
126.7733023128514
 31
0.0
  0
LINE
  5
2900
  8
0
 10
268.2087028164492
 20
126.7733023128514
 30
0.0
 11
266.4292028164491
 21
126.7733023128514
 31
0.0
  0
LINE
  5
2901
  8
0
 10
278.2087028164492
 20
116.7733023128515
 30
0.0
 11
280.4292028164491
 21
118.9938023128514
 31
0.0
  0
ARC
  5
2902
  8
0
 10
283.3905109611151
 20
128.8765900403016
 30
0.0
 40
4.000000000000034
 50
187.9756871629662
 51
256.0941569013374
  0
LINE
  5
2903
  8
0
 10
279.370702816449
 20
114.9938023128514
 30
0.0
 11
279.370702816449
 21
117.9353023128514
 31
0.0
  0
LINE
  5
2904
  8
0
 10
278.2087028164492
 20
114.9938023128514
 30
0.0
 11
278.2087028164492
 21
116.7733023128515
 31
0.0
  0
LINE
  5
2905
  8
0
 10
279.4292028164491
 20
129.4938023128514
 30
0.0
 11
279.4292028164491
 21
128.3215785242038
 31
0.0
  0
LINE
  5
2906
  8
0
 10
282.4292028164491
 20
119.5297006977137
 30
0.0
 11
282.4292028164491
 21
124.9938221292621
 31
0.0
  0
LINE
  5
2907
  8
0
 10
280.4292028164491
 20
118.9938023128514
 30
0.0
 11
282.4292028164491
 21
119.5297006977137
 31
0.0
  0
LINE
  5
2908
  8
0
 10
280.9292028164491
 20
118.9938023128514
 30
0.0
 11
280.8294801232278
 21
118.9938023128514
 31
0.0
  0
LINE
  5
2909
  8
0
 10
301.9292028164491
 20
63.29811801171516
 30
0.0
 11
301.9292028164491
 21
96.99380231285139
 31
0.0
  0
LINE
  5
290A
  8
0
 10
304.649702816449
 20
116.7733023128515
 30
0.0
 11
302.4292028164491
 21
118.9938023128514
 31
0.0
  0
ARC
  5
290B
  8
0
 10
298.4292028164491
 20
135.4938023128514
 30
0.0
 40
10.49999999999999
 50
280.9805754276096
 51
325.1500954209538
  0
LINE
  5
290C
  8
0
 10
302.4292028164491
 20
118.9938023128514
 30
0.0
 11
300.4292028164491
 21
119.5297006977137
 31
0.0
  0
LINE
  5
290D
  8
0
 10
300.4292028164491
 20
119.5297006977137
 30
0.0
 11
300.4292028164491
 21
125.1860382488073
 31
0.0
  0
LINE
  5
290E
  8
0
 10
301.9292028164491
 20
118.9938023128514
 30
0.0
 11
302.0407985712973
 21
118.9938023128514
 31
0.0
  0
LINE
  5
290F
  8
0
 10
303.4877028164492
 20
114.9938023128514
 30
0.0
 11
303.4877028164492
 21
117.9353023128514
 31
0.0
  0
LINE
  5
2910
  8
0
 10
304.649702816449
 20
114.9938023128514
 30
0.0
 11
304.649702816449
 21
116.7733023128515
 31
0.0
  0
LINE
  5
2911
  8
0
  6
CONTINUOUS
 10
283.663688926863
 20
137.7258531204202
 30
0.0
 11
299.3035830133213
 21
137.7258531204202
 31
0.0
  0
LINE
  5
2912
  8
0
  6
CONTINUOUS
 10
283.663688926863
 20
142.2617515052825
 30
0.0
 11
299.2241925087624
 21
142.2617515052825
 31
0.0
  0
LINE
  5
2913
  8
0
  6
CONTINUOUS
 10
280.9292028164491
 20
154.3932972494631
 30
0.0
 11
301.9292028164491
 21
154.3932972494631
 31
0.0
  0
LINE
  5
2914
  8
0
  6
CONTINUOUS
 10
279.4292028164491
 20
157.9938023128514
 30
0.0
 11
303.4292028164491
 21
157.9938023128514
 31
0.0
  0
LINE
  5
2915
  8
0
 10
270.9292028164491
 20
150.4938023128514
 30
0.0
 11
275.8123588466419
 21
150.4938023128514
 31
0.0
  0
LINE
  5
2916
  8
0
 10
270.9292028164491
 20
150.4938023128514
 30
0.0
 11
268.2087028164492
 21
153.2143023128514
 31
0.0
  0
LINE
  5
2917
  8
0
 10
266.4292028164491
 20
152.0523023128515
 30
0.0
 11
269.370702816449
 21
152.0523023128515
 31
0.0
  0
LINE
  5
2918
  8
0
 10
268.2087028164492
 20
153.2143023128514
 30
0.0
 11
266.4292028164491
 21
153.2143023128514
 31
0.0
  0
ARC
  5
2919
  8
0
 10
284.4292028164491
 20
144.4938023128514
 30
0.0
 40
10.49999999999999
 50
109.4712206344999
 51
145.1500954209538
  0
LINE
  5
291A
  8
0
  6
CONTINUOUS
 10
279.4292028164491
 20
157.9938023128514
 30
0.0
 11
279.4292028164491
 21
160.9938023128514
 31
0.0
  0
LINE
  5
291B
  8
0
 10
280.9292028164491
 20
157.9938023128514
 30
0.0
 11
280.9292028164491
 21
154.3932972494631
 31
0.0
  0
LINE
  5
291C
  8
0
 10
303.4292028164491
 20
150.4938023128514
 30
0.0
 11
303.4292028164491
 21
151.8957261014989
 31
0.0
  0
LINE
  5
291D
  8
0
  6
CONTINUOUS
 10
303.4292028164491
 20
149.7041201030196
 30
0.0
 11
299.9387050880341
 21
139.2280067568687
 31
0.0
  0
LINE
  5
291E
  8
0
  6
CONTINUOUS
 10
301.9292028164482
 20
154.4938023128524
 30
0.0
 11
303.4292028164491
 21
151.8957261015002
 31
0.0
  0
LINE
  5
291F
  8
0
 10
301.9292028164491
 20
154.4938023128518
 30
0.0
 11
301.9292028164491
 21
157.9938023128514
 31
0.0
  0
LINE
  5
2920
  8
0
  6
CONTINUOUS
 10
303.4292028164491
 20
157.9938023128514
 30
0.0
 11
303.4292028164491
 21
160.9938023128514
 31
0.0
  0
LINE
  5
2921
  8
0
 10
368.1248871175853
 20
150.4938023128514
 30
0.0
 11
334.4292028164491
 21
150.4938023128514
 31
0.0
  0
LINE
  5
2922
  8
0
 10
368.1248871175835
 20
129.4938023128514
 30
0.0
 11
334.4292028164491
 21
129.4938023128514
 31
0.0
  0
LINE
  5
2923
  8
0
  6
CONTINUOUS
 10
311.9292028164491
 20
150.4938023128514
 30
0.0
 11
311.9292028164491
 21
129.4938023128514
 31
0.0
  0
LINE
  5
2924
  8
0
 10
309.3270611613275
 20
99.39166065772989
 30
0.0
 11
309.3270611613275
 21
112.595943967973
 31
0.0
1001
GRPNAME
1000
PASTME6F
  0
LINE
  5
2925
  8
0
 10
314.649702816449
 20
126.7733023128514
 30
0.0
 11
316.4292028164491
 21
126.7733023128514
 31
0.0
  0
LINE
  5
2926
  8
0
 10
316.4292028164491
 20
127.9353023128514
 30
0.0
 11
313.4877028164492
 21
127.9353023128514
 31
0.0
  0
LINE
  5
2927
  8
0
 10
311.9292028164491
 20
129.4938023128514
 30
0.0
 11
314.649702816449
 21
126.7733023128514
 31
0.0
  0
LINE
  5
2928
  8
0
 10
311.9292028164491
 20
150.4938023128514
 30
0.0
 11
314.649702816449
 21
153.2143023128514
 31
0.0
  0
LINE
  5
2929
  8
0
 10
314.649702816449
 20
153.2143023128514
 30
0.0
 11
316.4292028164491
 21
153.2143023128514
 31
0.0
  0
LINE
  5
292A
  8
0
 10
316.4292028164491
 20
152.0523023128515
 30
0.0
 11
313.4877028164492
 21
152.0523023128515
 31
0.0
  0
LINE
  5
292B
  8
0
 10
376.9292028164491
 20
129.8012557919041
 30
0.0
 11
376.9292028164491
 21
150.1863488337987
 31
0.0
  0
LINE
  5
292C
  8
0
 10
363.9292028164491
 20
150.4938023128514
 30
0.0
 11
363.9292028164491
 21
129.4938023128514
 31
0.0
  0
LINE
  5
292D
  8
0
 10
363.9292028164491
 20
130.5092857885113
 30
0.0
 11
376.9292028164491
 21
130.963255791904
 31
0.0
  0
LINE
  5
292E
  8
0
 10
368.1248871175835
 20
129.4938023128514
 30
0.0
 11
376.9292028164491
 21
129.8012557919041
 31
0.0
  0
LINE
  5
292F
  8
0
 10
363.9292028164491
 20
149.4783188371914
 30
0.0
 11
376.9292028164491
 21
149.0243488337988
 31
0.0
  0
LINE
  5
2930
  8
0
 10
368.1248871175853
 20
150.4938023128514
 30
0.0
 11
376.9292028164491
 21
150.1863488337987
 31
0.0
  0
LINE
  5
2931
  8
0
 10
368.1248871175853
 20
343.8313007611143
 30
0.0
 11
334.4292028164491
 21
343.8313007611143
 31
0.0
  0
LINE
  5
2932
  8
0
 10
368.1248871175835
 20
322.8313007611144
 30
0.0
 11
334.4292028164491
 21
322.8313007611142
 31
0.0
  0
LINE
  5
2933
  8
0
 10
214.7335185153129
 20
322.8313007611143
 30
0.0
 11
248.4292028164491
 21
322.8313007611143
 31
0.0
  0
LINE
  5
2934
  8
0
 10
214.7335185153147
 20
343.8313007611142
 30
0.0
 11
248.4292028164491
 21
343.8313007611143
 31
0.0
  0
LINE
  5
2935
  8
0
 10
218.9292028164491
 20
323.8467842367743
 30
0.0
 11
205.9292028164491
 21
324.300754240167
 31
0.0
  0
LINE
  5
2936
  8
0
 10
214.7335185153129
 20
322.8313007611143
 30
0.0
 11
205.9292028164491
 21
323.138754240167
 31
0.0
  0
LINE
  5
2937
  8
0
 10
218.9292028164491
 20
342.8158172854544
 30
0.0
 11
205.9292028164491
 21
342.3618472820616
 31
0.0
  0
LINE
  5
2938
  8
0
 10
214.7335185153147
 20
343.8313007611142
 30
0.0
 11
205.9292028164491
 21
343.5238472820616
 31
0.0
  0
LINE
  5
2939
  8
0
 10
205.9292028164491
 20
343.5238472820616
 30
0.0
 11
205.9292028164491
 21
323.138754240167
 31
0.0
  0
LINE
  5
293A
  8
0
 10
218.9292028164491
 20
322.8313007611143
 30
0.0
 11
218.9292028164491
 21
343.8313007611143
 31
0.0
  0
LINE
  5
293B
  8
0
 10
363.9292028164491
 20
342.8158172854544
 30
0.0
 11
376.9292028164491
 21
342.3618472820617
 31
0.0
  0
LINE
  5
293C
  8
0
 10
368.1248871175853
 20
343.8313007611143
 30
0.0
 11
376.9292028164491
 21
343.5238472820616
 31
0.0
  0
LINE
  5
293D
  8
0
 10
363.9292028164491
 20
323.8467842367743
 30
0.0
 11
376.9292028164491
 21
324.3007542401671
 31
0.0
  0
LINE
  5
293E
  8
0
 10
368.1248871175835
 20
322.8313007611144
 30
0.0
 11
376.9292028164491
 21
323.138754240167
 31
0.0
  0
LINE
  5
293F
  8
0
 10
363.9292028164491
 20
343.8313007611143
 30
0.0
 11
363.9292028164491
 21
322.8313007611143
 31
0.0
  0
LINE
  5
2940
  8
0
 10
376.9292028164491
 20
323.138754240167
 30
0.0
 11
376.9292028164491
 21
343.5238472820616
 31
0.0
  0
TEXT
  5
2941
  8
10
 10
-1.5
 20
0.5000000000000284
 30
0.0
 40
10.0
  1
2023.09.12 DV6-13[丸ハンドル][3方向チックナット付]
 11
-1.5
 21
0.5000000000000284
 31
0.0
 73
     1
  0
LINE
  5
2942
  8
7
 10
291.4292028164491
 20
51.67787540806151
 30
0.0
 11
291.4292028164491
 21
258.993856632379
 31
0.0
  0
LINE
  5
2943
  8
7
 10
200.9119721610296
 20
139.9938023128514
 30
0.0
 11
381.9464334718687
 21
139.9938023128514
 31
0.0
  0
LINE
  5
2944
  8
BEHIND
 10
282.4314859313336
 20
170.9938023128514
 30
0.0
 11
300.4269197015647
 21
170.9938023128514
 31
0.0
  0
LINE
  5
2945
  8
0
 10
65.96647957401183
 20
160.9938023128514
 30
0.0
 11
39.36647957399896
 21
160.9938023128512
 31
0.0
  0
LINE
  5
2946
  8
0
  6
CONTINUOUS
 10
39.36647957400464
 20
160.9938023128456
 30
0.0
 11
39.16647957400482
 21
161.1938023128454
 31
0.0
1001
GENIUS_GENFIL_13
1070
     0
1040
0.2
1040
0.2
1040
20.0
1040
0.0
1002
{
1002
}
1001
GENIUS_GENODEF_13
1002
{
1000
HIER
1070
     0
1002
}
1002
{
1000
MANEDIT
1070
     0
1002
}
1002
{
1000
NOSEL
1070
     0
1002
}
1002
{
1000
BEHIND
1070
     0
1002
}
1002
{
1000
OTHER
1070
     0
1002
}
1002
{
1000
REACTOR
1002
}
1001
GENIUS_GENOBJ-N-CHA_13
1002
{
1000
OWNER
1000
GEN
1002
}
  0
LINE
  5
2947
  8
0
  6
CONTINUOUS
 10
65.96647957400592
 20
160.9938023128456
 30
0.0
 11
66.16647957400573
 21
161.1938023128454
 31
0.0
1001
GENIUS_GENFIL_13
1070
     0
1040
0.2
1040
0.2
1040
20.0
1040
0.0
1002
{
1002
}
1001
GENIUS_GENODEF_13
1002
{
1000
HIER
1070
     0
1002
}
1002
{
1000
MANEDIT
1070
     0
1002
}
1002
{
1000
NOSEL
1070
     0
1002
}
1002
{
1000
BEHIND
1070
     0
1002
}
1002
{
1000
OTHER
1070
     0
1002
}
1002
{
1000
REACTOR
1002
}
1001
GENIUS_GENOBJ-N-CHA_13
1002
{
1000
OWNER
1000
GEN
1002
}
  0
LINE
  5
2948
  8
0
 10
250.8270611613275
 20
315.4334424162359
 30
0.0
 11
264.0313444715707
 21
315.4334424162359
 31
0.0
1001
GRPNAME
1000
PASTME6F
  0
LINE
  5
2949
  8
0
 10
250.8270611613275
 20
351.2291591059928
 30
0.0
 11
264.0313444715707
 21
351.2291591059928
 31
0.0
1001
GRPNAME
1000
PASTME6F
  0
LINE
  5
294A
  8
0
 10
248.4292028164491
 20
317.8313007611146
 30
0.0
 11
248.4292028164491
 21
348.8313007611144
 31
0.0
1001
GRPNAME
1000
PASTME6F
  0
LINE
  5
294B
  8
0
 10
250.8270611613275
 20
315.4334424162359
 30
0.0
 11
248.4292028164491
 21
317.8313007611146
 31
0.0
1001
GRPNAME
1000
PASTME6F
  0
LINE
  5
294C
  8
0
 10
248.4292028164491
 20
348.8313007611144
 30
0.0
 11
250.8270611613275
 21
351.2291591059928
 31
0.0
1001
GRPNAME
1000
PASTME6F
  0
LINE
  5
294D
  8
0
 10
264.0313444715707
 20
315.4334424162359
 30
0.0
 11
265.2753085159202
 21
316.6774064605857
 31
0.0
1001
GRPNAME
1000
PASTME6F
  0
LINE
  5
294E
  8
0
 10
265.2841501147982
 20
349.9763534627655
 30
0.0
 11
264.0313444715707
 21
351.2291591059928
 31
0.0
1001
GRPNAME
1000
PASTME6F
  0
LINE
  5
294F
  8
7
 10
198.3684357632665
 20
333.3313007611143
 30
0.0
 11
387.0102219540986
 21
333.3313007611143
 31
0.0
  0
LINE
  5
2950
  8
7
 10
291.4292028164491
 20
375.3779330027892
 30
0.0
 11
291.4292028164491
 21
291.2619404060397
 31
0.0
  0
LINE
  5
2951
  8
7
 10
52.66647957400528
 20
49.49245198879728
 30
0.0
 11
52.66647957400528
 21
258.9938566323826
 31
0.0
  0
LINE
  5
2952
  8
0
 10
70.56433791888367
 20
99.39166065772989
 30
0.0
 11
68.16647957400505
 21
96.99380231285139
 31
0.0
1001
GRPNAME
1000
PASTME6F
  0
LINE
  5
2953
  8
0
 10
70.56433791888367
 20
112.595943967973
 30
0.0
 11
68.16647957400528
 21
114.9938023128514
 31
0.0
1001
GRPNAME
1000
PASTME6F
  0
LINE
  5
2954
  8
0
 10
68.16647957400505
 20
96.99380231285139
 30
0.0
 11
37.16647957400505
 21
96.99380231285139
 31
0.0
1001
GRPNAME
1000
PASTME6F
  0
LINE
  5
2955
  8
0
 10
68.16647957400528
 20
114.9938023128514
 30
0.0
 11
37.16647957400528
 21
114.9938023128514
 31
0.0
1001
GRPNAME
1000
PASTME6F
  0
LINE
  5
2956
  8
0
 10
37.16647957400505
 20
96.99380231285139
 30
0.0
 11
34.76862122912667
 21
99.39166065772989
 31
0.0
1001
GRPNAME
1000
PASTME6F
  0
LINE
  5
2957
  8
0
 10
37.16647957400528
 20
114.9938023128514
 30
0.0
 11
34.76862122912667
 21
112.595943967973
 31
0.0
1001
GRPNAME
1000
PASTME6F
  0
LINE
  5
2958
  8
0
 10
34.76862122912667
 20
99.39166065772989
 30
0.0
 11
34.76862122912667
 21
112.595943967973
 31
0.0
1001
GRPNAME
1000
PASTME6F
  0
LINE
  5
2959
  8
0
 10
70.56433791888367
 20
99.39166065772989
 30
0.0
 11
70.56433791888367
 21
112.595943967973
 31
0.0
1001
GRPNAME
1000
PASTME6F
  0
LINE
  5
295A
  8
BEHIND
 10
43.66876268888973
 20
170.9938023128514
 30
0.0
 11
61.66419645912083
 21
170.9938023128514
 31
0.0
  0
LINE
  5
295B
  8
0
  6
CONTINUOUS
 10
278.4292028164482
 20
198.4938023128479
 30
0.0
 11
274.5149892540744
 21
194.5795887504741
 31
0.0
  0
ARC
  5
295C
  8
0
  6
CONTINUOUS
 10
275.9292028164477
 20
193.1653751881012
 30
0.0
 40
2.0
 50
135.0000000000098
 51
180.0
1001
GENIUS_GENODEF_13
1002
{
1000
HIER
1070
     0
1002
}
1002
{
1000
MANEDIT
1070
     0
1002
}
1002
{
1000
NOSEL
1070
     0
1002
}
1002
{
1000
BEHIND
1070
     0
1002
}
1002
{
1000
OTHER
1070
     0
1002
}
1002
{
1000
REACTOR
1002
}
1001
GENIUS_GENOBJ-N-FIL_13
1002
{
1000
OWNER
1000
GEN
1002
}
  0
LINE
  5
295D
  8
0
  6
CONTINUOUS
 10
273.9292028164468
 20
193.1653751881012
 30
0.0
 11
273.9292028164482
 21
180.4937423129617
 31
0.0
  0
LINE
  5
295E
  8
0
  6
CONTINUOUS
 10
304.4292028164496
 20
198.4938023128479
 30
0.0
 11
308.3434163788233
 21
194.5795887504741
 31
0.0
  0
ARC
  5
295F
  8
0
  6
CONTINUOUS
 10
306.92920281645
 20
193.1653751881012
 30
0.0
 40
2.0
 50
0.0
 51
44.99999999999021
1001
GENIUS_GENODEF_13
1002
{
1000
HIER
1070
     0
1002
}
1002
{
1000
MANEDIT
1070
     0
1002
}
1002
{
1000
NOSEL
1070
     0
1002
}
1002
{
1000
BEHIND
1070
     0
1002
}
1002
{
1000
OTHER
1070
     0
1002
}
1002
{
1000
REACTOR
1002
}
1001
GENIUS_GENOBJ-N-FIL_13
1002
{
1000
OWNER
1000
GEN
1002
}
  0
LINE
  5
2960
  8
0
  6
CONTINUOUS
 10
273.9292028164491
 20
180.4937423129617
 30
0.0
 11
277.9292028164487
 21
176.4937423129622
 31
0.0
  0
LINE
  5
2961
  8
0
  6
CONTINUOUS
 10
279.4292028164487
 20
206.9938023128465
 30
0.0
 11
291.4292028164491
 21
206.9938023128465
 31
0.0
  0
LINE
  5
2962
  8
0
  6
CONTINUOUS
 10
278.4292028164487
 20
205.9938023128465
 30
0.0
 11
278.4292028164487
 21
198.4938023128483
 31
0.0
  0
ARC
  5
2963
  8
0
  6
CONTINUOUS
 10
279.4292028164487
 20
205.9938023128465
 30
0.0
 40
1.0
 50
90.0
 51
180.0
1001
GENIUS_GENOBJ-N-FIL_13
1002
{
1000
OWNER
1000
GEN
1002
}
1001
GENIUS_GENODEF_13
1002
{
1000
HIER
1070
     0
1002
}
1002
{
1000
MANEDIT
1070
     0
1002
}
1002
{
1000
NOSEL
1070
     0
1002
}
1002
{
1000
BEHIND
1070
     0
1002
}
1002
{
1000
OTHER
1070
     0
1002
}
1002
{
1000
REACTOR
1002
}
  0
LINE
  5
2964
  8
0
  6
CONTINUOUS
 10
277.9292028164487
 20
176.4937423129622
 30
0.0
 11
277.9292028164487
 21
161.1938023128454
 31
0.0
  0
LINE
  5
2965
  8
0
  6
CONTINUOUS
 10
303.4292028164496
 20
206.993802312846
 30
0.0
 11
291.4292028164491
 21
206.993802312847
 31
0.0
  0
LINE
  5
2966
  8
0
  6
CONTINUOUS
 10
304.4292028164496
 20
205.993802312846
 30
0.0
 11
304.4292028164496
 21
198.4938023128479
 31
0.0
  0
ARC
  5
2967
  8
0
  6
CONTINUOUS
 10
303.4292028164496
 20
205.993802312846
 30
0.0
 40
1.0
 50
0.0
 51
90.0
1001
GENIUS_GENOBJ-N-FIL_13
1002
{
1000
OWNER
1000
GEN
1002
}
1001
GENIUS_GENODEF_13
1002
{
1000
HIER
1070
     0
1002
}
1002
{
1000
MANEDIT
1070
     0
1002
}
1002
{
1000
NOSEL
1070
     0
1002
}
1002
{
1000
BEHIND
1070
     0
1002
}
1002
{
1000
OTHER
1070
     0
1002
}
1002
{
1000
REACTOR
1002
}
  0
LINE
  5
2968
  8
0
  6
CONTINUOUS
 10
308.9292028164496
 20
180.4937423129617
 30
0.0
 11
304.92920281645
 21
176.4937423129617
 31
0.0
  0
LINE
  5
2969
  8
0
  6
CONTINUOUS
 10
308.9292028164509
 20
193.1653751881012
 30
0.0
 11
308.9292028164496
 21
180.4937423129617
 31
0.0
  0
LINE
  5
296A
  8
0
  6
CONTINUOUS
 10
304.92920281645
 20
176.4937423129617
 30
0.0
 11
304.92920281645
 21
161.1938023128454
 31
0.0
  0
LINE
  5
296B
  8
0
  6
CONTINUOUS
 10
278.4292028164487
 20
198.4938023128483
 30
0.0
 11
304.4292028164496
 21
198.4938023128483
 31
0.0
  0
LINE
  5
296C
  8
0
  6
CONTINUOUS
 10
277.9292028164487
 20
176.4937423129622
 30
0.0
 11
304.92920281645
 21
176.4937423129617
 31
0.0
  0
LINE
  5
296D
  8
0
  6
CONTINUOUS
 10
278.1292028164485
 20
160.9938023128408
 30
0.0
 11
291.4292028164491
 21
160.9938023128466
 31
0.0
  0
LINE
  5
296E
  8
0
  6
CONTINUOUS
 10
278.1292028164485
 20
160.9938023128408
 30
0.0
 11
277.9292028164487
 21
161.1938023128406
 31
0.0
1001
GENIUS_GENFIL_13
1070
     0
1040
0.2
1040
0.2
1040
20.0
1040
0.0
1002
{
1002
}
1001
GENIUS_GENODEF_13
1002
{
1000
HIER
1070
     0
1002
}
1002
{
1000
MANEDIT
1070
     0
1002
}
1002
{
1000
NOSEL
1070
     0
1002
}
1002
{
1000
BEHIND
1070
     0
1002
}
1002
{
1000
OTHER
1070
     0
1002
}
1002
{
1000
REACTOR
1002
}
1001
GENIUS_GENOBJ-N-CHA_13
1002
{
1000
OWNER
1000
GEN
1002
}
  0
LINE
  5
296F
  8
0
  6
CONTINUOUS
 10
304.7292028164497
 20
160.9938023128408
 30
0.0
 11
291.4292028164491
 21
160.9938023128466
 31
0.0
  0
LINE
  5
2970
  8
0
  6
CONTINUOUS
 10
304.7292028164497
 20
160.9938023128408
 30
0.0
 11
304.9292028164496
 21
161.1938023128406
 31
0.0
1001
GENIUS_GENFIL_13
1070
     0
1040
0.2
1040
0.2
1040
20.0
1040
0.0
1002
{
1002
}
1001
GENIUS_GENODEF_13
1002
{
1000
HIER
1070
     0
1002
}
1002
{
1000
MANEDIT
1070
     0
1002
}
1002
{
1000
NOSEL
1070
     0
1002
}
1002
{
1000
BEHIND
1070
     0
1002
}
1002
{
1000
OTHER
1070
     0
1002
}
1002
{
1000
REACTOR
1002
}
1001
GENIUS_GENOBJ-N-CHA_13
1002
{
1000
OWNER
1000
GEN
1002
}
  0
LINE
  5
2971
  8
0
  6
CONTINUOUS
 10
39.66647957400437
 20
198.4938023128525
 30
0.0
 11
35.75226601163058
 21
194.5795887504787
 31
0.0
  0
ARC
  5
2972
  8
0
  6
CONTINUOUS
 10
37.16647957400392
 20
193.1653751881059
 30
0.0
 40
2.0
 50
135.0000000000098
 51
180.0
1001
GENIUS_GENODEF_13
1002
{
1000
HIER
1070
     0
1002
}
1002
{
1000
MANEDIT
1070
     0
1002
}
1002
{
1000
NOSEL
1070
     0
1002
}
1002
{
1000
BEHIND
1070
     0
1002
}
1002
{
1000
OTHER
1070
     0
1002
}
1002
{
1000
REACTOR
1002
}
1001
GENIUS_GENOBJ-N-FIL_13
1002
{
1000
OWNER
1000
GEN
1002
}
  0
LINE
  5
2973
  8
0
  6
CONTINUOUS
 10
35.16647957400301
 20
193.1653751881059
 30
0.0
 11
35.16647957400437
 21
180.4937423129664
 31
0.0
  0
LINE
  5
2974
  8
0
  6
CONTINUOUS
 10
65.66647957400573
 20
198.4938023128525
 30
0.0
 11
69.58069313637952
 21
194.5795887504787
 31
0.0
  0
ARC
  5
2975
  8
0
  6
CONTINUOUS
 10
68.16647957400619
 20
193.1653751881059
 30
0.0
 40
2.0
 50
0.0
 51
44.99999999999021
1001
GENIUS_GENODEF_13
1002
{
1000
HIER
1070
     0
1002
}
1002
{
1000
MANEDIT
1070
     0
1002
}
1002
{
1000
NOSEL
1070
     0
1002
}
1002
{
1000
BEHIND
1070
     0
1002
}
1002
{
1000
OTHER
1070
     0
1002
}
1002
{
1000
REACTOR
1002
}
1001
GENIUS_GENOBJ-N-FIL_13
1002
{
1000
OWNER
1000
GEN
1002
}
  0
LINE
  5
2976
  8
0
  6
CONTINUOUS
 10
35.16647957400528
 20
180.4937423129664
 30
0.0
 11
39.16647957400482
 21
176.4937423129668
 31
0.0
  0
LINE
  5
2977
  8
0
  6
CONTINUOUS
 10
40.66647957400482
 20
206.9938023128512
 30
0.0
 11
52.66647957400528
 21
206.9938023128512
 31
0.0
  0
LINE
  5
2978
  8
0
  6
CONTINUOUS
 10
39.66647957400482
 20
205.9938023128512
 30
0.0
 11
39.66647957400482
 21
198.493802312853
 31
0.0
  0
ARC
  5
2979
  8
0
  6
CONTINUOUS
 10
40.66647957400482
 20
205.9938023128512
 30
0.0
 40
1.0
 50
90.0
 51
180.0
1001
GENIUS_GENOBJ-N-FIL_13
1002
{
1000
OWNER
1000
GEN
1002
}
1001
GENIUS_GENODEF_13
1002
{
1000
HIER
1070
     0
1002
}
1002
{
1000
MANEDIT
1070
     0
1002
}
1002
{
1000
NOSEL
1070
     0
1002
}
1002
{
1000
BEHIND
1070
     0
1002
}
1002
{
1000
OTHER
1070
     0
1002
}
1002
{
1000
REACTOR
1002
}
  0
LINE
  5
297A
  8
0
  6
CONTINUOUS
 10
39.16647957400482
 20
176.4937423129668
 30
0.0
 11
39.16647957400482
 21
161.1938023128501
 31
0.0
  0
LINE
  5
297B
  8
0
  6
CONTINUOUS
 10
64.66647957400573
 20
206.9938023128507
 30
0.0
 11
52.66647957400528
 21
206.9938023128516
 31
0.0
  0
LINE
  5
297C
  8
0
  6
CONTINUOUS
 10
65.66647957400573
 20
205.9938023128507
 30
0.0
 11
65.66647957400573
 21
198.4938023128525
 31
0.0
  0
ARC
  5
297D
  8
0
  6
CONTINUOUS
 10
64.66647957400573
 20
205.9938023128507
 30
0.0
 40
1.0
 50
0.0
 51
90.0
1001
GENIUS_GENOBJ-N-FIL_13
1002
{
1000
OWNER
1000
GEN
1002
}
1001
GENIUS_GENODEF_13
1002
{
1000
HIER
1070
     0
1002
}
1002
{
1000
MANEDIT
1070
     0
1002
}
1002
{
1000
NOSEL
1070
     0
1002
}
1002
{
1000
BEHIND
1070
     0
1002
}
1002
{
1000
OTHER
1070
     0
1002
}
1002
{
1000
REACTOR
1002
}
  0
LINE
  5
297E
  8
0
  6
CONTINUOUS
 10
70.16647957400573
 20
180.4937423129664
 30
0.0
 11
66.16647957400619
 21
176.4937423129664
 31
0.0
  0
LINE
  5
297F
  8
0
  6
CONTINUOUS
 10
70.1664795740071
 20
193.1653751881059
 30
0.0
 11
70.16647957400573
 21
180.4937423129664
 31
0.0
  0
LINE
  5
2980
  8
0
  6
CONTINUOUS
 10
66.16647957400619
 20
176.4937423129664
 30
0.0
 11
66.16647957400619
 21
161.1938023128501
 31
0.0
  0
LINE
  5
2981
  8
0
  6
CONTINUOUS
 10
39.66647957400482
 20
198.493802312853
 30
0.0
 11
65.66647957400573
 21
198.493802312853
 31
0.0
  0
LINE
  5
2982
  8
0
  6
CONTINUOUS
 10
39.16647957400482
 20
176.4937423129668
 30
0.0
 11
66.16647957400619
 21
176.4937423129664
 31
0.0
  0
LINE
  5
2983
  8
0
 10
332.0313444715707
 20
315.4334424162359
 30
0.0
 11
318.8270611613275
 21
315.4334424162359
 31
0.0
1001
GRPNAME
1000
PASTME6F
  0
LINE
  5
2984
  8
0
 10
332.0313444715707
 20
351.2291591059928
 30
0.0
 11
318.8270611613275
 21
351.2291591059928
 31
0.0
1001
GRPNAME
1000
PASTME6F
  0
LINE
  5
2985
  8
0
 10
334.4292028164491
 20
317.8313007611146
 30
0.0
 11
334.4292028164491
 21
348.8313007611144
 31
0.0
1001
GRPNAME
1000
PASTME6F
  0
LINE
  5
2986
  8
0
 10
332.0313444715707
 20
315.4334424162359
 30
0.0
 11
334.4292028164491
 21
317.8313007611146
 31
0.0
1001
GRPNAME
1000
PASTME6F
  0
LINE
  5
2987
  8
0
 10
334.4292028164491
 20
348.8313007611144
 30
0.0
 11
332.0313444715707
 21
351.2291591059928
 31
0.0
1001
GRPNAME
1000
PASTME6F
  0
LINE
  5
2988
  8
0
 10
318.8270611613275
 20
315.4334424162359
 30
0.0
 11
317.5830971169779
 21
316.6774064605855
 31
0.0
1001
GRPNAME
1000
PASTME6F
  0
LINE
  5
2989
  8
0
 10
317.5742555181001
 20
349.9763534627654
 30
0.0
 11
318.8270611613275
 21
351.2291591059928
 31
0.0
1001
GRPNAME
1000
PASTME6F
  0
LINE
  5
298A
  8
7
 10
70.66118893736075
 20
139.9938023128514
 30
0.0
 11
34.67177021064981
 21
139.9938023128514
 31
0.0
  0
LINE
  5
298B
  8
0
 10
316.4292028164491
 20
139.9938023128512
 30
0.0
 11
316.4292028164491
 21
124.2438023128512
 31
0.0
  0
LINE
  5
298C
  8
0
 10
331.7039942023812
 20
121.5185936987832
 30
0.0
 11
319.154411430517
 21
121.5185936987832
 31
0.0
  0
LINE
  5
298D
  8
0
 10
334.4292028164491
 20
124.2438023128512
 30
0.0
 11
331.7039942023812
 21
121.5185936987832
 31
0.0
  0
LINE
  5
298E
  8
0
 10
316.4292028164491
 20
124.2438023128512
 30
0.0
 11
319.154411430517
 21
121.5185936987832
 31
0.0
  0
LINE
  5
298F
  8
0
 10
334.4292028164491
 20
139.9938023128512
 30
0.0
 11
334.4292028164491
 21
124.2438023128512
 31
0.0
  0
LINE
  5
2990
  8
0
 10
316.4292028164491
 20
139.9938023128511
 30
0.0
 11
316.4292028164491
 21
155.7438023128512
 31
0.0
  0
LINE
  5
2991
  8
0
 10
331.7039942023812
 20
158.4690109269191
 30
0.0
 11
319.154411430517
 21
158.4690109269191
 31
0.0
  0
LINE
  5
2992
  8
0
 10
334.4292028164491
 20
155.7438023128512
 30
0.0
 11
331.7039942023812
 21
158.4690109269191
 31
0.0
  0
LINE
  5
2993
  8
0
 10
316.4292028164491
 20
155.7438023128512
 30
0.0
 11
319.154411430517
 21
158.4690109269191
 31
0.0
  0
LINE
  5
2994
  8
0
 10
334.4292028164491
 20
139.9938023128512
 30
0.0
 11
334.4292028164491
 21
155.7438023128512
 31
0.0
  0
LINE
  5
2995
  8
0
 10
248.4292028164491
 20
139.9938023128512
 30
0.0
 11
248.4292028164491
 21
124.2438023128512
 31
0.0
  0
LINE
  5
2996
  8
0
 10
263.7039942023812
 20
121.5185936987832
 30
0.0
 11
251.154411430517
 21
121.5185936987832
 31
0.0
  0
LINE
  5
2997
  8
0
 10
266.4292028164491
 20
124.2438023128512
 30
0.0
 11
263.7039942023812
 21
121.5185936987832
 31
0.0
  0
LINE
  5
2998
  8
0
 10
248.4292028164491
 20
124.2438023128512
 30
0.0
 11
251.154411430517
 21
121.5185936987832
 31
0.0
  0
LINE
  5
2999
  8
0
 10
266.4292028164491
 20
139.9938023128512
 30
0.0
 11
266.4292028164491
 21
124.2438023128512
 31
0.0
  0
LINE
  5
299A
  8
0
 10
248.4292028164491
 20
139.9938023128511
 30
0.0
 11
248.4292028164491
 21
155.7438023128512
 31
0.0
  0
LINE
  5
299B
  8
0
 10
263.7039942023812
 20
158.4690109269191
 30
0.0
 11
251.154411430517
 21
158.4690109269191
 31
0.0
  0
LINE
  5
299C
  8
0
 10
266.4292028164491
 20
155.7438023128512
 30
0.0
 11
263.7039942023812
 21
158.4690109269191
 31
0.0
  0
LINE
  5
299D
  8
0
 10
248.4292028164491
 20
155.7438023128512
 30
0.0
 11
251.154411430517
 21
158.4690109269191
 31
0.0
  0
LINE
  5
299E
  8
0
 10
266.4292028164491
 20
139.9938023128512
 30
0.0
 11
266.4292028164491
 21
155.7438023128512
 31
0.0
  0
LINE
  5
299F
  8
0
  6
CONTINUOUS
 10
36.66647957400528
 20
149.2314066198853
 30
0.0
 11
36.66647957400528
 21
130.7561980058174
 31
0.0
1001
GENIUS_GENODEF_13
1002
{
1000
HIER
1070
     0
1002
}
1002
{
1000
MANEDIT
1070
     0
1002
}
1002
{
1000
NOSEL
1070
     0
1002
}
1002
{
1000
BEHIND
1070
     0
1002
}
1002
{
1000
REACTOR
1002
}
1001
GENIUS_GENOBJ-N-CEN_13
1002
{
1000
OWNER
1000
GEN
1002
}
  0
LINE
  5
29A0
  8
0
  6
CONTINUOUS
 10
36.66647957400528
 20
130.7561980058174
 30
0.0
 11
52.66647957400528
 21
121.5185936987835
 31
0.0
1001
GENIUS_GENODEF_13
1002
{
1000
HIER
1070
     0
1002
}
1002
{
1000
MANEDIT
1070
     0
1002
}
1002
{
1000
NOSEL
1070
     0
1002
}
1002
{
1000
BEHIND
1070
     0
1002
}
1002
{
1000
REACTOR
1002
}
1001
GENIUS_GENOBJ-N-CEN_13
1002
{
1000
OWNER
1000
GEN
1002
}
  0
LINE
  5
29A1
  8
0
  6
CONTINUOUS
 10
52.66647957400528
 20
121.5185936987835
 30
0.0
 11
68.66647957400528
 21
130.7561980058174
 31
0.0
1001
GENIUS_GENODEF_13
1002
{
1000
HIER
1070
     0
1002
}
1002
{
1000
MANEDIT
1070
     0
1002
}
1002
{
1000
NOSEL
1070
     0
1002
}
1002
{
1000
BEHIND
1070
     0
1002
}
1002
{
1000
REACTOR
1002
}
1001
GENIUS_GENOBJ-N-CEN_13
1002
{
1000
OWNER
1000
GEN
1002
}
  0
LINE
  5
29A2
  8
0
  6
CONTINUOUS
 10
68.66647957400528
 20
130.7561980058174
 30
0.0
 11
68.66647957400528
 21
149.2314066198856
 31
0.0
1001
GENIUS_GENODEF_13
1002
{
1000
HIER
1070
     0
1002
}
1002
{
1000
MANEDIT
1070
     0
1002
}
1002
{
1000
NOSEL
1070
     0
1002
}
1002
{
1000
BEHIND
1070
     0
1002
}
1002
{
1000
REACTOR
1002
}
1001
GENIUS_GENOBJ-N-CEN_13
1002
{
1000
OWNER
1000
GEN
1002
}
  0
LINE
  5
29A3
  8
0
  6
CONTINUOUS
 10
68.66647957400528
 20
149.2314066198856
 30
0.0
 11
52.66647957400528
 21
158.4690109269195
 31
0.0
1001
GENIUS_GENODEF_13
1002
{
1000
HIER
1070
     0
1002
}
1002
{
1000
MANEDIT
1070
     0
1002
}
1002
{
1000
NOSEL
1070
     0
1002
}
1002
{
1000
BEHIND
1070
     0
1002
}
1002
{
1000
REACTOR
1002
}
1001
GENIUS_GENOBJ-N-CEN_13
1002
{
1000
OWNER
1000
GEN
1002
}
  0
LINE
  5
29A4
  8
0
  6
CONTINUOUS
 10
52.66647957400528
 20
158.4690109269195
 30
0.0
 11
36.66647957400528
 21
149.2314066198853
 31
0.0
1001
GENIUS_GENODEF_13
1002
{
1000
HIER
1070
     0
1002
}
1002
{
1000
MANEDIT
1070
     0
1002
}
1002
{
1000
NOSEL
1070
     0
1002
}
1002
{
1000
BEHIND
1070
     0
1002
}
1002
{
1000
REACTOR
1002
}
1001
GENIUS_GENOBJ-N-CEN_13
1002
{
1000
OWNER
1000
GEN
1002
}
  0
CIRCLE
  5
29A5
  8
0
  6
CONTINUOUS
 10
52.66647957400528
 20
139.9938023128514
 30
0.0
 40
15.75
  0
CIRCLE
  5
29A6
  8
0
 10
52.66647957400505
 20
139.9938023128512
 30
0.0
 40
6.500546954623674
  0
CIRCLE
  5
29A7
  8
0
 10
52.66647957400505
 20
139.9938023128512
 30
0.0
 40
10.25887470655383
  0
CIRCLE
  5
29A8
  8
0
 10
52.66647957400505
 20
139.9938023128512
 30
0.0
 40
9.060972168732901
  0
CIRCLE
  5
29A9
  8
0
 10
52.66647957400505
 20
139.9938023128512
 30
0.0
 40
7.552980314443869
  0
CIRCLE
  5
29AA
  8
0
 10
52.66647957400505
 20
139.9938023128512
 30
0.0
 40
6.750034936408412
  0
LINE
  5
29AB
  8
0
 10
286.029202816449
 20
206.9938023128465
 30
0.0
 11
286.029202816449
 21
213.9938566323831
 31
0.0
  0
LINE
  5
29AC
  8
0
 10
296.8292028164492
 20
206.9938023128465
 30
0.0
 11
296.8292028164492
 21
213.9938566323831
 31
0.0
  0
LINE
  5
29AD
  8
0
 10
47.26647957400519
 20
206.9938023128516
 30
0.0
 11
47.26647957400519
 21
213.9938566323863
 31
0.0
  0
LINE
  5
29AE
  8
0
 10
58.06647957400537
 20
206.9938023128516
 30
0.0
 11
58.06647957400537
 21
213.9938566323863
 31
0.0
  0
ARC
  5
29AF
  8
0
 10
50.62751667124144
 20
222.1973620841559
 30
0.0
 40
30.91919402524992
 50
78.72967692071798
 51
86.21889213639939
  0
LINE
  5
29B0
  8
0
 10
39.666479573998
 20
254.9938566323863
 30
0.0
 11
65.66647957400892
 21
254.993856632379
 31
0.0
  0
LINE
  5
29B1
  8
0
 10
30.166479573998
 20
213.9938566323863
 30
0.0
 11
75.1664795739971
 21
213.9938566323863
 31
0.0
  0
LINE
  5
29B2
  8
0
 10
28.166479573998
 20
221.7355263831887
 30
0.0
 11
77.1664795739971
 21
221.7355263831887
 31
0.0
  0
ARC
  5
29B3
  8
0
 10
52.71130489262885
 20
227.1718155535123
 30
0.0
 40
3.704509570427573
 50
269.3066925052582
 51
329.9640267076166
  0
LINE
  5
29B4
  8
0
 10
21.666479573998
 20
247.4900102509309
 30
0.0
 11
21.666479573998
 21
232.9938566323881
 31
0.0
  0
LINE
  5
29B5
  8
0
 10
22.44144469507046
 20
232.9938566323881
 30
0.0
 11
22.44144469507046
 21
249.5738541725495
 31
0.0
  0
LINE
  5
29B6
  8
0
 10
45.83851547407085
 20
250.7149988313704
 30
0.0
 11
45.83851547407085
 21
232.9938566323881
 31
0.0
  0
LINE
  5
29B7
  8
0
 10
31.10445895118391
 20
232.9938566323881
 30
0.0
 11
31.10445895118391
 21
250.7149988313704
 31
0.0
  0
ARC
  5
29B8
  8
0
 10
30.31302866505939
 20
224.1117540883907
 30
0.0
 40
0.5000000000001373
 50
246.2367264954113
 51
357.253232453353
1001
GENIUS_GENODEF_13
1002
{
1000
HIER
1070
     0
1002
}
1002
{
1000
MANEDIT
1070
     0
1002
}
1002
{
1000
NOSEL
1070
     0
1002
}
1002
{
1000
BEHIND
1070
     0
1002
}
1002
{
1000
REACTOR
1002
}
1001
GENIUS_GENOBJ-N-FIL_13
1002
{
1000
OWNER
1000
GEN
1002
}
  0
ARC
  5
29B9
  8
0
 10
30.166479573998
 20
215.9938566323863
 30
0.0
 40
2.0
 50
180.0
 51
270.0
1001
GENIUS_GENODEF_13
1002
{
1000
HIER
1070
     0
1002
}
1002
{
1000
MANEDIT
1070
     0
1002
}
1002
{
1000
NOSEL
1070
     0
1002
}
1002
{
1000
BEHIND
1070
     0
1002
}
1002
{
1000
REACTOR
1002
}
1001
GENIUS_GENOBJ-N-FIL_13
1002
{
1000
OWNER
1000
GEN
1002
}
  0
LINE
  5
29BA
  8
0
 10
28.166479573998
 20
221.7355263831887
 30
0.0
 11
28.166479573998
 21
215.9938566323854
 31
0.0
  0
LINE
  5
29BB
  8
0
 10
28.166479573998
 20
221.7355263831887
 30
0.0
 11
21.666479573998
 21
232.9938566323881
 31
0.0
  0
ARC
  5
29BC
  8
0
 10
33.55491604026531
 20
230.977118974959
 30
0.0
 40
8.092139528442901
 50
218.3219467238784
 51
244.8164215542301
  0
ARC
  5
29BD
  8
0
 10
59.01732612249259
 20
252.6377700098025
 30
0.0
 40
41.51720649287704
 50
208.2390387289535
 51
219.9850051421011
  0
LINE
  5
29BE
  8
0
 10
32.10445895118391
 20
233.0050186581393
 30
0.0
 11
44.83851547407085
 21
232.9938566323854
 31
0.0
  0
ARC
  5
29BF
  8
0
 10
-149.6452764282202
 20
232.7455952493571
 30
0.0
 40
180.6652985045642
 50
357.2532324534187
 51
0.0787330719278605
  0
ARC
  5
29C0
  8
0
 10
52.62165425538194
 20
227.1718155535123
 30
0.0
 40
3.704509570427561
 50
210.0359732923834
 51
270.6933074947418
  0
ARC
  5
29C1
  8
0
 10
61.98529213353743
 20
235.8448897950188
 30
0.0
 40
16.39654800819768
 50
190.0134925743618
 51
219.9445765225451
  0
ARC
  5
29C2
  8
0
 10
39.666479573998
 20
214.9938566323888
 30
0.0
 40
39.99999999999841
 50
90.0
 51
111.8037479893856
  0
ARC
  5
29C3
  8
0
 10
27.21950790066239
 20
247.7798558263318
 30
0.0
 40
4.869076824715424
 50
37.07163361014624
 51
88.33534575517591
  0
ARC
  5
29C4
  8
0
 10
26.66647957399778
 20
247.4900102509309
 30
0.0
 40
4.999999999999826
 50
111.803747989381
 51
180.0
1001
GENIUS_GENODEF_13
1002
{
1000
HIER
1070
     0
1002
}
1002
{
1000
MANEDIT
1070
     0
1002
}
1002
{
1000
NOSEL
1070
     0
1002
}
1002
{
1000
BEHIND
1070
     0
1002
}
1002
{
1000
REACTOR
1002
}
1001
GENIUS_GENOBJ-N-FIL_13
1002
{
1000
OWNER
1000
GEN
1002
}
  0
ARC
  5
29C5
  8
0
 10
29.01512841160365
 20
244.5245036836342
 30
0.0
 40
8.289104774638442
 50
101.5112441720059
 51
142.4715634063257
  0
LINE
  5
29C6
  8
0
 10
32.10445895118391
 20
250.7149988313704
 30
0.0
 11
44.83851547407085
 21
250.7149988313704
 31
0.0
  0
ARC
  5
29C7
  8
0
 10
54.70544247676969
 20
222.1973620841525
 30
0.0
 40
30.91919402525333
 50
93.78110786360082
 51
101.2703230792818
  0
ARC
  5
29C8
  8
0
 10
49.02380744461016
 20
248.8437160666506
 30
0.0
 40
3.694290746966676
 50
95.61023783028725
 51
149.5667841226169
  0
LINE
  5
29C9
  8
0
 10
83.666479573998
 20
247.49001025093
 30
0.0
 11
83.666479573998
 21
232.9938566323881
 31
0.0
  0
LINE
  5
29CA
  8
0
 10
74.22850019682664
 20
232.9938566323881
 30
0.0
 11
74.22850019682664
 21
250.7149988313704
 31
0.0
  0
LINE
  5
29CB
  8
0
 10
82.8915144529401
 20
232.9938566323881
 30
0.0
 11
82.8915144529401
 21
249.5738541725495
 31
0.0
  0
LINE
  5
29CC
  8
0
 10
59.49444367394062
 20
250.7149988313704
 30
0.0
 11
59.49444367394062
 21
232.9938566323881
 31
0.0
  0
LINE
  5
29CD
  8
0
 10
77.1664795739971
 20
221.7355263831878
 30
0.0
 11
83.666479573998
 21
232.9938566323881
 31
0.0
  0
ARC
  5
29CE
  8
0
 10
46.3156330255116
 20
252.6377700098075
 30
0.0
 40
41.51720649288583
 50
320.0149948579
 51
331.7609612710451
  0
ARC
  5
29CF
  8
0
 10
75.16647957399721
 20
215.9938566323863
 30
0.0
 40
2.0
 50
269.9999999999968
 51
0.0
1001
GENIUS_GENODEF_13
1002
{
1000
HIER
1070
     0
1002
}
1002
{
1000
MANEDIT
1070
     0
1002
}
1002
{
1000
NOSEL
1070
     0
1002
}
1002
{
1000
BEHIND
1070
     0
1002
}
1002
{
1000
REACTOR
1002
}
1001
GENIUS_GENOBJ-N-FIL_13
1002
{
1000
OWNER
1000
GEN
1002
}
  0
LINE
  5
29D0
  8
0
 10
73.31310764605041
 20
232.9938566323881
 30
0.0
 11
60.49444367394062
 21
232.9938566323881
 31
0.0
  0
ARC
  5
29D1
  8
0
 10
43.34766701447654
 20
235.8448897950171
 30
0.0
 40
16.39654800819415
 50
320.0554234774524
 51
349.9865074256933
  0
LINE
  5
29D2
  8
0
 10
77.1664795739971
 20
221.7355263831878
 30
0.0
 11
77.1664795739971
 21
215.9938566323854
 31
0.0
  0
ARC
  5
29D3
  8
0
 10
254.9782355762308
 20
232.7455952493591
 30
0.0
 40
180.6652985045639
 50
179.9212669280768
 51
182.7467675465875
  0
ARC
  5
29D4
  8
0
 10
71.77804310774627
 20
230.977118974959
 30
0.0
 40
8.092139528442887
 50
295.1835784457706
 51
321.6780532761216
  0
ARC
  5
29D5
  8
0
 10
75.01993048295208
 20
224.1117540883906
 30
0.0
 40
0.5000000000000417
 50
182.7467675466345
 51
293.763273504594
1001
GENIUS_GENODEF_13
1002
{
1000
HIER
1070
     0
1002
}
1002
{
1000
MANEDIT
1070
     0
1002
}
1002
{
1000
NOSEL
1070
     0
1002
}
1002
{
1000
BEHIND
1070
     0
1002
}
1002
{
1000
REACTOR
1002
}
1001
GENIUS_GENOBJ-N-FIL_13
1002
{
1000
OWNER
1000
GEN
1002
}
  0
ARC
  5
29D6
  8
0
 10
65.6664795739971
 20
214.9938566323873
 30
0.0
 40
39.99999999999903
 50
68.19625201061436
 51
90.0
  0
ARC
  5
29D7
  8
0
 10
76.31783073640804
 20
244.5245036836342
 30
0.0
 40
8.289104774638432
 50
37.52843659367432
 51
78.48875582799408
  0
LINE
  5
29D8
  8
0
 10
73.31310764605041
 20
250.7149988313695
 30
0.0
 11
60.49444367394062
 21
250.7149988313704
 31
0.0
  0
ARC
  5
29D9
  8
0
 10
56.3091517034004
 20
248.8437160666506
 30
0.0
 40
3.69429074696669
 50
30.43321587738312
 51
84.38976216971281
  0
ARC
  5
29DA
  8
0
 10
78.11345124734919
 20
247.7798558263318
 30
0.0
 40
4.869076824715402
 50
91.66465424482277
 51
142.9283663898537
  0
ARC
  5
29DB
  8
0
 10
78.66647957399834
 20
247.4900102509301
 30
0.0
 40
4.999999999999716
 50
0.0
 51
68.19625201061989
1001
GENIUS_GENODEF_13
1002
{
1000
HIER
1070
     0
1002
}
1002
{
1000
MANEDIT
1070
     0
1002
}
1002
{
1000
NOSEL
1070
     0
1002
}
1002
{
1000
BEHIND
1070
     0
1002
}
1002
{
1000
REACTOR
1002
}
1001
GENIUS_GENOBJ-N-FIL_13
1002
{
1000
OWNER
1000
GEN
1002
}
  0
LINE
  5
29DC
  8
0
 10
266.9292028164436
 20
221.7355263831846
 30
0.0
 11
315.9292028164427
 21
221.7355263831846
 31
0.0
  0
LINE
  5
29DD
  8
0
 10
268.9292028164436
 20
213.9938566323831
 30
0.0
 11
313.9292028164427
 21
213.9938566323831
 31
0.0
  0
LINE
  5
29DE
  8
0
 10
278.4292028164436
 20
254.9938566323831
 30
0.0
 11
304.4292028164546
 21
254.9938566323749
 31
0.0
  0
ARC
  5
29DF
  8
0
 10
278.1929401840372
 20
247.10130435304
 30
0.0
 40
5.951205005509391
 50
37.38880691368496
 51
97.21420027622548
  0
ARC
  5
29E0
  8
0
 10
278.3232758371805
 20
225.9870736739227
 30
0.0
 40
2.565357953936887
 50
240.6774080382692
 51
316.523877554376
  0
LINE
  5
29E1
  8
0
 10
261.6828792870392
 20
230.8224252890591
 30
0.0
 11
261.6828792870401
 21
250.8013634506074
 31
0.0
  0
LINE
  5
29E2
  8
0
 10
269.8671821936459
 20
232.993856632384
 30
0.0
 11
269.867182193645
 21
250.7149988313663
 31
0.0
  0
ARC
  5
29E3
  8
0
 10
268.9292028164435
 20
215.9938566323831
 30
0.0
 40
1.999999999999943
 50
180.0
 51
270.0000000000032
1001
GENIUS_GENODEF_13
1002
{
1000
HIER
1070
     0
1002
}
1002
{
1000
MANEDIT
1070
     0
1002
}
1002
{
1000
NOSEL
1070
     0
1002
}
1002
{
1000
BEHIND
1070
     0
1002
}
1002
{
1000
REACTOR
1002
}
1001
GENIUS_GENOBJ-N-FIL_13
1002
{
1000
OWNER
1000
GEN
1002
}
  0
LINE
  5
29E4
  8
0
 10
263.0950497587673
 20
232.9938566323849
 30
0.0
 11
268.8671821936296
 21
232.9938566323849
 31
0.0
  0
LINE
  5
29E5
  8
0
 10
266.9292028164436
 20
221.7355263831846
 30
0.0
 11
261.6828792870392
 21
230.8224252890582
 31
0.0
  0
LINE
  5
29E6
  8
0
 10
266.9292028164436
 20
221.7355263831846
 30
0.0
 11
266.9292028164436
 21
215.9938566323822
 31
0.0
  0
ARC
  5
29E7
  8
0
 10
282.6578006586452
 20
235.5308310388424
 30
0.0
 40
13.03979140386123
 50
191.2188087997439
 51
244.6115597288426
  0
LINE
  5
29E8
  8
0
 10
262.9509755410008
 20
250.7149988313663
 30
0.0
 11
268.8671821936296
 21
250.7149988313663
 31
0.0
  0
ARC
  5
29E9
  8
0
 10
278.4292028164436
 20
214.9938566323817
 30
0.0
 40
40.00000000000136
 50
90.0
 51
111.8037479893843
  0
ARC
  5
29EA
  8
0
 10
265.4292028164426
 20
247.4900102509282
 30
0.0
 40
4.999999999998328
 50
111.8037479893809
 51
138.5267245313354
1001
GENIUS_GENODEF_13
1002
{
1000
HIER
1070
     0
1002
}
1002
{
1000
MANEDIT
1070
     0
1002
}
1002
{
1000
NOSEL
1070
     0
1002
}
1002
{
1000
BEHIND
1070
     0
1002
}
1002
{
1000
REACTOR
1002
}
1001
GENIUS_GENOBJ-N-FIL_13
1002
{
1000
OWNER
1000
GEN
1002
}
  0
ARC
  5
29EB
  8
0
 10
276.8321732056373
 20
241.3522413127247
 30
0.0
 40
11.66928995911952
 50
86.98674223133838
 51
126.6456998178236
  0
LINE
  5
29EC
  8
0
 10
321.1755263458626
 20
230.8224252890591
 30
0.0
 11
321.1755263458626
 21
250.8013634506074
 31
0.0
  0
LINE
  5
29ED
  8
0
 10
282.9213704980957
 20
250.7149988313663
 30
0.0
 11
282.9213704980966
 21
232.9938566323849
 31
0.0
  0
LINE
  5
29EE
  8
0
 10
299.9370351348061
 20
250.7149988313663
 30
0.0
 11
299.9370351348061
 21
232.9938566323849
 31
0.0
  0
LINE
  5
29EF
  8
0
 10
312.9912234392568
 20
232.993856632384
 30
0.0
 11
312.9912234392568
 21
250.7149988313663
 31
0.0
  0
ARC
  5
29F0
  8
0
 10
304.5351297957213
 20
225.9870736739227
 30
0.0
 40
2.565357953936903
 50
223.4761224456235
 51
299.3225919617305
  0
LINE
  5
29F1
  8
0
 10
283.9213704980812
 20
232.9938566323849
 30
0.0
 11
298.9370351348061
 21
232.9938566323849
 31
0.0
  0
ARC
  5
29F2
  8
0
 10
259.1748072313196
 20
235.5891466472714
 30
0.0
 40
23.88796343861021
 50
331.5850581069333
 51
353.7628312294631
  0
ARC
  5
29F3
  8
0
 10
323.683598401582
 20
235.5891466472715
 30
0.0
 40
23.88796343861022
 50
186.2371687705372
 51
208.4149418930672
  0
ARC
  5
29F4
  8
0
 10
313.9292028164427
 20
215.9938566323831
 30
0.0
 40
2.0
 50
270.0
 51
0.0
1001
GENIUS_GENODEF_13
1002
{
1000
HIER
1070
     0
1002
}
1002
{
1000
MANEDIT
1070
     0
1002
}
1002
{
1000
NOSEL
1070
     0
1002
}
1002
{
1000
BEHIND
1070
     0
1002
}
1002
{
1000
REACTOR
1002
}
1001
GENIUS_GENOBJ-N-FIL_13
1002
{
1000
OWNER
1000
GEN
1002
}
  0
LINE
  5
29F5
  8
0
 10
319.6417283119572
 20
232.9938566323849
 30
0.0
 11
313.9912234392568
 21
232.9938566323849
 31
0.0
  0
ARC
  5
29F6
  8
0
 10
300.2006049742565
 20
235.5308310388424
 30
0.0
 40
13.03979140386123
 50
295.3884402711573
 51
348.7811912002558
  0
LINE
  5
29F7
  8
0
 10
315.9292028164427
 20
221.7355263831846
 30
0.0
 11
315.9292028164427
 21
215.9938566323813
 31
0.0
  0
LINE
  5
29F8
  8
0
 10
315.9292028164427
 20
221.7355263831846
 30
0.0
 11
321.1755263458626
 21
230.8224252890845
 31
0.0
  0
ARC
  5
29F9
  8
0
 10
304.6654654488657
 20
247.1013043530396
 30
0.0
 40
5.951205005509814
 50
82.78579972377723
 51
142.6111930863149
  0
LINE
  5
29FA
  8
0
 10
283.9213704980812
 20
250.7149988313663
 30
0.0
 11
298.9370351348061
 21
250.7149988313663
 31
0.0
  0
LINE
  5
29FB
  8
0
 10
319.9074300918855
 20
250.7149988313663
 30
0.0
 11
313.9912234392568
 21
250.7149988313663
 31
0.0
  0
ARC
  5
29FC
  8
0
 10
304.4292028164425
 20
214.9938566323817
 30
0.0
 40
40.00000000000134
 50
68.19625201061567
 51
89.99999999999969
  0
ARC
  5
29FD
  8
0
 10
306.0262324272653
 20
241.3522413127247
 30
0.0
 40
11.66928995911953
 50
53.35430018217581
 51
93.01325776866108
  0
ARC
  5
29FE
  8
0
 10
317.4292028164593
 20
247.4900102509285
 30
0.0
 40
4.99999999999799
 50
41.47327546866229
 51
68.19625201061902
1001
GENIUS_GENODEF_13
1002
{
1000
HIER
1070
     0
1002
}
1002
{
1000
MANEDIT
1070
     0
1002
}
1002
{
1000
NOSEL
1070
     0
1002
}
1002
{
1000
BEHIND
1070
     0
1002
}
1002
{
1000
REACTOR
1002
}
1001
GENIUS_GENOBJ-N-FIL_13
1002
{
1000
OWNER
1000
GEN
1002
}
  0
POLYLINE
  5
29FF
  8
0
 66
     1
 10
0.0
 20
0.0
 30
0.0
 70
     1
  0
VERTEX
  5
2A0A
  8
0
 10
298.450844441797
 20
363.5142498922505
 30
0.0
 42
0.1147433684531263
  0
VERTEX
  5
2A0B
  8
0
 10
284.4075611911012
 20
363.5142498922505
 30
0.0
 42
0.3169980516087132
  0
VERTEX
  5
2A0C
  8
0
 10
282.8736431831212
 20
361.7945288763931
 30
0.0
 42
-0.5034443575988989
  0
VERTEX
  5
2A0D
  8
0
 10
271.0472624497779
 20
354.9665647764587
 30
0.0
 42
0.3169980516087056
  0
VERTEX
  5
2A0E
  8
0
 10
268.790981358633
 20
354.4980133221543
 30
0.0
 42
0.1147433684531285
  0
VERTEX
  5
2A0F
  8
0
 10
261.7693397332851
 20
342.3361732745107
 30
0.0
 42
0.3169980516087055
  0
VERTEX
  5
2A10
  8
0
 10
262.4917028164491
 20
340.1479008043489
 30
0.0
 42
-0.5034443575988864
  0
VERTEX
  5
2A11
  8
0
 10
262.4917028164491
 20
326.4919726044791
 30
0.0
 42
0.3169980516087206
  0
VERTEX
  5
2A12
  8
0
 10
261.7693397332851
 20
324.3037001343173
 30
0.0
 42
0.1147433684531274
  0
VERTEX
  5
2A13
  8
0
 10
268.790981358633
 20
312.1418600866746
 30
0.0
 42
0.3169980516087066
  0
VERTEX
  5
2A14
  8
0
 10
271.0472624497779
 20
311.6733086323693
 30
0.0
 42
-0.503444357598898
  0
VERTEX
  5
2A15
  8
0
 10
282.8736431831212
 20
304.8453445324349
 30
0.0
 42
0.316998051608725
  0
VERTEX
  5
2A16
  8
0
 10
284.4075611911012
 20
303.1256235165774
 30
0.0
 42
0.1147433684531251
  0
VERTEX
  5
2A17
  8
0
 10
298.450844441797
 20
303.1256235165774
 30
0.0
 42
0.3169980516087174
  0
VERTEX
  5
2A18
  8
0
 10
299.984762449777
 20
304.8453445324349
 30
0.0
 42
-0.503444357598898
  0
VERTEX
  5
2A19
  8
0
 10
311.8111431831203
 20
311.6733086323693
 30
0.0
 42
0.3169980516087068
  0
VERTEX
  5
2A1A
  8
0
 10
314.0674242742652
 20
312.1418600866746
 30
0.0
 42
0.1147433684531273
  0
VERTEX
  5
2A1B
  8
0
 10
321.0890658996132
 20
324.3037001343173
 30
0.0
 42
0.3169980516087207
  0
VERTEX
  5
2A1C
  8
0
 10
320.3667028164491
 20
326.4919726044791
 30
0.0
 42
-0.5034443575988866
  0
VERTEX
  5
2A1D
  8
0
 10
320.3667028164491
 20
340.1479008043489
 30
0.0
 42
0.3169980516087057
  0
VERTEX
  5
2A1E
  8
0
 10
321.0890658996132
 20
342.3361732745107
 30
0.0
 42
0.1147433684531281
  0
VERTEX
  5
2A1F
  8
0
 10
314.0674242742652
 20
354.4980133221543
 30
0.0
 42
0.3169980516087061
  0
VERTEX
  5
2A20
  8
0
 10
311.8111431831203
 20
354.9665647764587
 30
0.0
 42
-0.5034443575988988
  0
VERTEX
  5
2A21
  8
0
 10
299.984762449777
 20
361.7945288763931
 30
0.0
 42
0.3169980516087095
  0
SEQEND
  5
2A22
  8
0
  0
CIRCLE
  5
2A00
  8
0
 10
291.4292028164491
 20
333.3199367044144
 30
0.0
 40
11.0
  0
VIEWPORT
  5
22
 67
     1
  8
0
 10
5.269134197284911
 20
5.545311567251436
 30
0.0
 40
11.13808705479925
 41
12.32365374410561
 68
     1
 69
     1
1001
GENIUS_GENSCREG_15
1000
PF
1040
1.0
1000
DF
1040
1.0
1000
MIN
1011
-0.2999093301147138
1021
-0.6165153048013714
1031
0.0
1021
-0.6165153048013714
1031
0.0
1000
MAX
1011
10.83817772468454
1021
11.70713843930424
1031
0.0
1021
11.70713843930424
1031
0.0
1000
FLAGS
1070
     4
1001
GENIUS_GENODEF_13
1002
{
1000
HIER
1070
     0
1002
}
1002
{
1000
MANEDIT
1070
     0
1002
}
1002
{
1000
NOSEL
1070
     0
1002
}
1002
{
1000
BEHIND
1070
     0
1002
}
1002
{
1000
OTHER
1070
     0
1002
}
1002
{
1000
REACTOR
1002
}
1001
GENIUS_GENOBJ-N-SDF_13
1002
{
1000
OWNER
1000
GEN
1002
}
1001
ACAD
1000
MVIEW
1002
{
1070
    16
1010
0.0
1020
0.0
1030
0.0
1020
0.0
1030
0.0
1010
0.0
1020
0.0
1030
1.0
1020
0.0
1030
1.0
1040
0.0
1040
12.32365374410561
1040
5.269134197284911
1040
5.545311567251436
1040
50.0
1040
0.0
1040
0.0
1070
     0
1070
   100
1070
     0
1070
     1
1070
     0
1070
     0
1070
     0
1070
     0
1040
0.0
1040
0.0
1040
0.0
1040
1.0
1040
1.0
1040
10.0
1040
10.0
1070
     0
1002
{
1002
}
1002
}
  0
ENDSEC
  0
EOF
