  0
SECTION
  2
HEADER
  9
$ACADVER
  1
AC1009
  9
$DWGCODEPAGE
  3
ansi_932
  9
$INSBASE
 10
0.0
 20
0.0
 30
0.0
  9
$EXTMIN
 10
0.0000064909936555
 20
0.0000066982815952
 30
0.0
  9
$EXTMAX
 10
229.3158608337244
 20
294.685137894783
 30
0.0
  9
$LIMMIN
 10
0.0
 20
0.0
  9
$LIMMAX
 10
420.0
 20
420.0
  9
$ORTHOMODE
 70
     0
  9
$REGENMODE
 70
     1
  9
$FILLMODE
 70
     1
  9
$QTEXTMODE
 70
     0
  9
$MIRRTEXT
 70
     0
  9
$DRAGMODE
 70
     2
  9
$LTSCALE
 40
10.0
  9
$OSMODE
 70
   549
  9
$ATTMODE
 70
     1
  9
$TEXTSIZE
 40
1.0
  9
$TRACEWID
 40
1.0
  9
$TEXTSTYLE
  7
STANDARD
  9
$CLAYER
  8
0
  9
$CELTYPE
  6
BYLAYER
  9
$CECOLOR
 62
   256
  9
$DIMSCALE
 40
1.0
  9
$DIMASZ
 40
2.5
  9
$DIMEXO
 40
1.0
  9
$DIMDLI
 40
7.0
  9
$DIMRND
 40
0.0
  9
$DIMDLE
 40
0.0
  9
$DIMEXE
 40
1.0
  9
$DIMTP
 40
0.1
  9
$DIMTM
 40
0.1
  9
$DIMTXT
 40
3.0
  9
$DIMCEN
 40
0.0
  9
$DIMTSZ
 40
0.0
  9
$DIMTOL
 70
     0
  9
$DIMLIM
 70
     0
  9
$DIMTIH
 70
     0
  9
$DIMTOH
 70
     0
  9
$DIMSE1
 70
     0
  9
$DIMSE2
 70
     0
  9
$DIMTAD
 70
     3
  9
$DIMZIN
 70
     8
  9
$DIMBLK
  1
OPEN
  9
$DIMASO
 70
     1
  9
$DIMSHO
 70
     1
  9
$DIMPOST
  1

  9
$DIMAPOST
  1
"
  9
$DIMALT
 70
     0
  9
$DIMALTD
 70
     2
  9
$DIMALTF
 40
0.0393701
  9
$DIMLFAC
 40
1.0
  9
$DIMTOFL
 70
     1
  9
$DIMTVP
 40
0.0
  9
$DIMTIX
 70
     0
  9
$DIMSOXD
 70
     0
  9
$DIMSAH
 70
     0
  9
$DIMBLK1
  1

  9
$DIMBLK2
  1

  9
$DIMSTYLE
  2
AM_JIS
  9
$DIMCLRD
 70
   256
  9
$DIMCLRE
 70
   256
  9
$DIMCLRT
 70
     2
  9
$DIMTFAC
 40
0.71
  9
$DIMGAP
 40
1.0
  9
$LUNITS
 70
     2
  9
$LUPREC
 70
     2
  9
$SKETCHINC
 40
1.0
  9
$FILLETRAD
 40
2.5
  9
$AUNITS
 70
     0
  9
$AUPREC
 70
     0
  9
$MENU
  1
.
  9
$ELEVATION
 40
0.0
  9
$PELEVATION
 40
0.0
  9
$THICKNESS
 40
0.0
  9
$LIMCHECK
 70
     0
  9
$CHAMFERA
 40
2.5
  9
$CHAMFERB
 40
2.5
  9
$SKPOLY
 70
     1
  9
$TDCREATE
 40
2457177.646626285
  9
$TDUPDATE
 40
2460346.642399873
  9
$TDINDWG
 40
0.0061140509
  9
$TDUSRTIMER
 40
0.0061138889
  9
$USRTIMER
 70
     1
  9
$ANGBASE
 50
0.0
  9
$ANGDIR
 70
     0
  9
$PDMODE
 70
     0
  9
$PDSIZE
 40
0.0
  9
$PLINEWID
 40
0.0
  9
$COORDS
 70
     0
  9
$SPLFRAME
 70
     0
  9
$SPLINETYPE
 70
     6
  9
$SPLINESEGS
 70
     8
  9
$ATTDIA
 70
     1
  9
$ATTREQ
 70
     1
  9
$HANDLING
 70
     1
  9
$HANDSEED
  5
A2E1
  9
$SURFTAB1
 70
     6
  9
$SURFTAB2
 70
     6
  9
$SURFTYPE
 70
     6
  9
$SURFU
 70
     6
  9
$SURFV
 70
     6
  9
$UCSNAME
  2

  9
$UCSORG
 10
0.0
 20
0.0
 30
0.0
  9
$UCSXDIR
 10
1.0
 20
0.0
 30
0.0
  9
$UCSYDIR
 10
0.0
 20
1.0
 30
0.0
  9
$PUCSNAME
  2

  9
$PUCSORG
 10
0.0
 20
0.0
 30
0.0
  9
$PUCSXDIR
 10
1.0
 20
0.0
 30
0.0
  9
$PUCSYDIR
 10
0.0
 20
1.0
 30
0.0
  9
$USERI1
 70
     0
  9
$USERI2
 70
     0
  9
$USERI3
 70
     0
  9
$USERI4
 70
     0
  9
$USERI5
 70
     0
  9
$USERR1
 40
0.0
  9
$USERR2
 40
0.0
  9
$USERR3
 40
0.0
  9
$USERR4
 40
0.0
  9
$USERR5
 40
0.0
  9
$WORLDVIEW
 70
     1
  9
$SHADEDGE
 70
     3
  9
$SHADEDIF
 70
    70
  9
$TILEMODE
 70
     1
  9
$MAXACTVP
 70
    48
  9
$PLIMCHECK
 70
     0
  9
$PEXTMIN
 10
1.000000000000000E+20
 20
1.000000000000000E+20
 30
1.000000000000000E+20
  9
$PEXTMAX
 10
-1.000000000000000E+20
 20
-1.000000000000000E+20
 30
-1.000000000000000E+20
  9
$PLIMMIN
 10
-0.2500002402958907
 20
-0.2499999962453767
  9
$PLIMMAX
 10
10.74999951940822
 20
8.249999763458732
  9
$UNITMODE
 70
     0
  9
$VISRETAIN
 70
     1
  9
$PLINEGEN
 70
     0
  9
$PSLTSCALE
 70
     1
  0
ENDSEC
  0
SECTION
  2
TABLES
  0
TABLE
  2
VPORT
 70
     1
  0
VPORT
  2
*ACTIVE
 70
     0
 10
0.0
 20
0.0
 11
1.0
 21
1.0
 12
210.0
 22
210.0
 13
0.0
 23
0.0
 14
2.5
 24
2.5
 15
10.0
 25
10.0
 16
0.0
 26
0.0
 36
1.0
 17
0.0
 27
0.0
 37
0.0
 40
423.2589718719689
 41
2.05293551491819
 42
50.0
 43
0.0
 44
0.0
 50
0.0
 51
0.0
 71
     0
 72
   100
 73
     1
 74
     3
 75
     0
 76
     0
 77
     0
 78
     0
  0
ENDTAB
  0
TABLE
  2
LTYPE
 70
    22
  0
LTYPE
  2
CONTINUOUS
 70
     0
  3
Solid line
 72
    65
 73
     0
 40
0.0
  0
LTYPE
  2
HIDDEN
 70
     0
  3
__ __ __ __ __ __ __ __ __ __ __ __ __ __ __ __
 72
    65
 73
     2
 40
0.375
 49
0.25
 49
-0.125
  0
LTYPE
  2
PHANTOM2
 70
     0
  3
___ _ _ ___ _ _ ___ _ _ ___ _ _ ___ _ _ ___ _ _
 72
    65
 73
     6
 40
1.25
 49
0.625
 49
-0.125
 49
0.125
 49
-0.125
 49
0.125
 49
-0.125
  0
LTYPE
  2
CENTER
 70
     0
  3
____ _ ____ _ ____ _ ____ _ ____ _ ____ _ ____ 
 72
    65
 73
     4
 40
2.0
 49
1.25
 49
-0.25
 49
0.25
 49
-0.25
  0
LTYPE
  2
ACJISTGB
 70
     0
  3
__ . . __ . .
 72
    65
 73
     6
 40
9.0
 49
4.0
 49
-1.0
 49
1.0
 49
-1.0
 49
1.0
 49
-1.0
  0
LTYPE
  2
ACJISTGL
 70
     0
  3
_ _ _ _ _
 72
    65
 73
     2
 40
3.0
 49
2.0
 49
-1.0
  0
LTYPE
  2
ACISOWELD
 70
     0
  3
_ _ _ _ _
 72
    65
 73
     2
 40
2.0
 49
2.0
 49
-1.0
  0
LTYPE
  2
ACISOTGB
 70
     0
  3
__ . . __ . .
 72
    65
 73
     6
 40
9.0
 49
4.0
 49
-1.0
 49
1.0
 49
-1.0
 49
1.0
 49
-1.0
  0
LTYPE
  2
ACISOTGL
 70
     0
  3
_ _ _ _ _
 72
    65
 73
     2
 40
3.0
 49
2.0
 49
-1.0
  0
LTYPE
  2
AM_ISO02W050
 70
     0
  3
__ __ __ __ __ __ __ __ __ __ __ __ __ __ __
 72
    65
 73
     2
 40
7.5
 49
6.0
 49
-1.5
  0
LTYPE
  2
AM_ISO08W050
 70
     0
  3
____ . ____ . ____ . ____ . ____ . ____ . ____
 72
    65
 73
     4
 40
18.0
 49
12.0
 49
-1.5
 49
3.0
 49
-1.5
  0
LTYPE
  2
AM_ISO09W050
 70
     0
  3
_____ . . _____ . . _____ . . ____ .. ____
 72
    65
 73
     6
 40
22.5
 49
12.0
 49
-1.5
 49
3.0
 49
-1.5
 49
3.0
 49
-1.5
  0
LTYPE
  2
AM_ISO02W050X2
 70
     0
  3
 _ _ _ _ _ _ _ _ _ _ _ _
 72
    65
 73
     2
 40
3.75
 49
3.0
 49
-0.75
  0
LTYPE
  2
AM_ISO08W050X2
 70
     0
  3
__ . __ . __ . __ . __ . __
 72
    65
 73
     4
 40
9.0
 49
6.0
 49
-0.75
 49
1.5
 49
-0.75
  0
LTYPE
  2
AMZIGZAG
 70
     0
  3
/\/-/\/-/\/-/\/-/\/-/\/
 72
    65
 73
     2
 40
11.0001
 49
0.0001
 49
-11.0
  0
LTYPE
  2
AMCONSTR
 70
     0
  3
_______________________
 72
    65
 73
     2
 40
9999.0
 49
9999.0
 49
0.0
  0
LTYPE
  2
CENTER2
 70
     0
  3
Center (.5x) ___ _ ___ _ ___ _ ___ _ ___ _ ___
 72
    65
 73
     4
 40
1.125
 49
0.75
 49
-0.125
 49
0.125
 49
-0.125
  0
LTYPE
  2
HIDDEN2
 70
     0
  3
Hidden (.5x) _ _ _ _ _ _ _ _ _ _ _ _ _ _ _ _ _
 72
    65
 73
     2
 40
0.1875
 49
0.125
 49
-0.0625
  0
LTYPE
  2
ACJISWELD
 70
     0
  3
_ _ _ _ _
 72
    65
 73
     2
 40
2.0
 49
2.0
 49
-1.0
  0
LTYPE
  2
AMZIGZAG2
 70
     0
  3
/\/-/\/-/\/-/\/-/\/-/\/
 72
    65
 73
     2
 40
0.4401
 49
0.0001
 49
-0.44
  0
LTYPE
  2
ACANSTGB
 70
     0
  3
__ . . __ . .
 72
    65
 73
     6
 40
0.35433070866
 49
0.15748031496
 49
-0.03937007874
 49
0.03937007874
 49
-0.03937007874
 49
0.03937007874
 49
-0.03937007874
  0
LTYPE
  2
ACANSTGL
 70
     0
  3
_ _ _ _ _
 72
    65
 73
     2
 40
0.11811023622
 49
0.07874015748
 49
-0.03937007874
  0
ENDTAB
  0
TABLE
  2
LAYER
 70
     9
  0
LAYER
  2
0
 70
     0
 62
     7
  6
CONTINUOUS
  0
LAYER
  2
7
 70
     0
 62
     4
  6
CENTER2
  0
LAYER
  2
10
 70
     0
 62
     2
  6
CONTINUOUS
  0
LAYER
  2
DEFPOINTS
 70
     0
 62
     7
  6
CONTINUOUS
  0
LAYER
  2
AM_7
 70
     0
 62
     4
  6
CENTER2
  0
LAYER
  2
AM_0
 70
     0
 62
     7
  6
CONTINUOUS
  0
LAYER
  2
D002
 70
     0
 62
   152
  6
CONTINUOUS
  0
ENDTAB
  0
TABLE
  2
STYLE
 70
     8
  0
STYLE
  2
STANDARD
 70
     0
 40
0.0
 41
1.0
 50
0.0
 71
     0
 42
1.0
  3
ISOCP.SHX
  4
EXTFONT.SHX
  0
STYLE
  2
ACJISTS
 70
     0
 40
1.0
 41
1.0
 50
0.0
 71
     0
 42
3.5
  3
isocp.shx
  4
extfont.shx
  0
STYLE
  2
ACJISGDT
 70
     0
 40
0.0
 41
1.0
 50
0.0
 71
     0
 42
3.5
  3
amgdt.shx
  4
extfont.shx
  0
STYLE
  2
ACISOTS
 70
     0
 40
1.0
 41
1.0
 50
0.0
 71
     0
 42
1.0
  3
isocp.shx
  4
extfont.shx
  0
STYLE
  2
ACISOGDT
 70
     0
 40
0.0
 41
1.0
 50
0.0
 71
     0
 42
3.5
  3
amgdt.shx
  4
extfont.shx
  0
STYLE
  2

 70
     1
 40
0.0
 41
1.0
 50
0.0
 71
     0
 42
3.5
  3
ltypeshp.shx
  4

  0
STYLE
  2

 70
     1
 40
0.0
 41
1.0
 50
0.0
 71
     0
 42
4.0
  3
genltshp.shx
  4

  0
STYLE
  2
ACANSGDT
 70
     0
 40
0.0
 41
1.0
 50
0.0
 71
     0
 42
4.0
  3
amgdt.shx
  4

  0
ENDTAB
  0
TABLE
  2
VIEW
 70
     3
  0
VIEW
  2
AMDTVIEW1
 70
     0
 40
329.0721649484536
 10
210.0
 20
164.5360824742268
 41
420.0
 11
0.0
 21
0.0
 31
1.0
 12
0.0
 22
0.0
 32
0.0
 42
50.0
 43
0.0
 44
0.0
 50
0.0
 71
     0
  0
VIEW
  2
AMDTVIEW2
 70
     0
 40
329.0721649484536
 10
210.0
 20
164.5360824742268
 41
420.0
 11
0.0
 21
0.0
 31
1.0
 12
0.0
 22
0.0
 32
0.0
 42
50.0
 43
0.0
 44
0.0
 50
0.0
 71
     0
  0
VIEW
  2
AMDTVIEW3
 70
     0
 40
329.0721649484536
 10
210.0
 20
164.5360824742268
 41
420.0
 11
0.0
 21
0.0
 31
1.0
 12
0.0
 22
0.0
 32
0.0
 42
50.0
 43
0.0
 44
0.0
 50
0.0
 71
     0
  0
ENDTAB
  0
TABLE
  2
UCS
 70
     0
  0
ENDTAB
  0
TABLE
  2
APPID
 70
    65
  0
APPID
  2
ACAD
 70
     0
  0
APPID
  2
AD_DRAW
 70
     0
  0
APPID
  2
DESIGNERASSEMBLIES
 70
     0
  0
APPID
  2
MCAD_NO_VIS
 70
     0
  0
APPID
  2
ASURF_PCURVE_APPNAME
 70
     0
  0
APPID
  2
ACAD_TEMP_GRAPHIC
 70
     0
  0
APPID
  2
ACATTRIBSERVICES
 70
     0
  0
APPID
  2
ACADM_DIM_EDIT
 70
     0
  0
APPID
  2
GENIUS_GENDIM_13
 70
     0
  0
APPID
  2
GENIUS_GENDTOL_13
 70
     0
  0
APPID
  2
GENIUS_GE3DTOL_13
 70
     0
  0
APPID
  2
AMG_3D2D_5_0
 70
     0
  0
APPID
  2
AMDT_DM_ADJ
 70
     0
  0
APPID
  2
ACAD_PSEXT
 70
     0
  0
APPID
  2
ACAD_DSTYLE_DIMTEXT_FILL
 70
     0
  0
APPID
  2
ACAECLAYERSTANDARD
 70
     0
  0
APPID
  2
GENIUS_GENREC_14
 70
     0
  0
APPID
  2
GENIUS_GENODEF_13
 70
     0
  0
APPID
  2
GENIUS_GENOBJ-N-REC_13
 70
     0
  0
APPID
  2
DCO15
 70
     0
  0
APPID
  2
ACAD_DSTYLE_DIMJAG
 70
     0
  0
APPID
  2
ACAD_DSTYLE_DIMTALN
 70
     0
  0
APPID
  2
ACAD_MLEADERVER
 70
     0
  0
APPID
  2
GENIUS_GENSCREG_15
 70
     0
  0
APPID
  2
GENIUS_GENOBJ-N-SDF_13
 70
     0
  0
APPID
  2
ACAD_NAV_VCDISPLAY
 70
     0
  0
APPID
  2
ACAD_EXEMPT_FROM_CAD_STAND
 70
     0
  0
APPID
  2
ACCMTRANSPARENCY
 70
     0
  0
APPID
  2
GENIUS_GENOBJ-N-CEN_13
 70
     0
  0
APPID
  2
GENIUS_GENOBJ-N-FIL_13
 70
     0
  0
APPID
  2
GENIUS_GENCEN_19
 70
     0
  0
APPID
  2
ACAD_DSTYLE_DIMBREAK
 70
     0
  0
APPID
  2
PLOTTRANSPARENCY
 70
     0
  0
APPID
  2
HC_SUPERPART
 70
     0
  0
APPID
  2
HC_SP4BLOCK
 70
     0
  0
APPID
  2
HC_XDATA_SPRING
 70
     0
  0
APPID
  2
HCCAD_FRAME
 70
     0
  0
APPID
  2
GENIUS_GENOLIS_13
 70
     0
  0
APPID
  2
GENIUS_GENOENT_13
 70
     0
  0
APPID
  2
GENIUS_GENOREF_13
 70
     0
  0
APPID
  2
GENIUS_GENOBJ-N-TIT_13
 70
     0
  0
APPID
  2
GENIUS_GENOBJ-N-ZOO_13
 70
     0
  0
APPID
  2
GENIUS_GENTITLE_13
 70
     0
  0
APPID
  2
GENIUS_GENSYMENT_13
 70
     0
  0
APPID
  2
GENIUS_GENSCSYM_13
 70
     0
  0
APPID
  2
GENIUS_GENOBJ-N-REV_13
 70
     0
  0
APPID
  2
GENIUS_GENOBJ-N-RSSYM_13
 70
     0
  0
APPID
  2
GENIUS_GENREV_15
 70
     0
  0
APPID
  2
HRA
 70
     0
  0
APPID
  2
HTIT
 70
     0
  0
APPID
  2
GENIUS_GENZOO_17
 70
     0
  0
APPID
  2
GENIUS_GENOBJ-N-CRS_13
 70
     0
  0
APPID
  2
GENIUS_GENCRS_20
 70
     0
  0
APPID
  2
GENIUS_GENOBJ-N-CRC_13
 70
     0
  0
APPID
  2
GENIUS_GENCRC_14
 70
     0
  0
APPID
  2
GENIUS_GENFIL_13
 70
     0
  0
APPID
  2
GENIUS_GENOBJ-N-CHA_13
 70
     0
  0
APPID
  2
GENIUS_GENHATCH_13
 70
     0
  0
APPID
  2
GENIUS_GENOBJ-N-HTC_13
 70
     0
  0
APPID
  2
GENIUS_GENOBJ-N-DIM_13
 70
     0
  0
APPID
  2
GENIUS_GENOBJ-N-DIMLI_13
 70
     0
  0
APPID
  2
GENIUS_GENOBJ-N-FITL_13
 70
     0
  0
APPID
  2
GENIUS_GENFITL_13
 70
     0
  0
APPID
  2
GENLAYCOLOR
 70
     0
  0
APPID
  2
ACADANNOTATIVE
 70
     0
  0
ENDTAB
  0
TABLE
  2
DIMSTYLE
 70
    23
  0
DIMSTYLE
  2
STANDARD
 70
     0
  3

  4

  5

  6

  7

 40
1.0
 41
2.5
 42
0.625
 43
3.75
 44
1.25
 45
0.0
 46
0.0
 47
0.0
 48
0.0
140
2.5
141
2.5
142
0.0
143
0.0394
144
1.0
145
0.0
146
1.0
147
0.625
 71
     0
 72
     0
 73
     0
 74
     0
 75
     0
 76
     0
 77
     1
 78
     8
170
     0
171
     4
172
     1
173
     0
174
     0
175
     0
176
     0
177
     0
178
     0
  0
DIMSTYLE
  2
AM_JIS
 70
     0
  3

  4
"
  5
OPEN
  6

  7

 40
1.0
 41
2.5
 42
1.0
 43
7.0
 44
1.0
 45
0.0
 46
0.0
 47
0.1
 48
0.1
140
3.0
141
0.0
142
0.0
143
0.0393701
144
1.0
145
0.0
146
0.71
147
1.0
 71
     0
 72
     0
 73
     0
 74
     0
 75
     0
 76
     0
 77
     3
 78
     8
170
     0
171
     2
172
     1
173
     0
174
     0
175
     0
176
   256
177
   256
178
     2
  0
DIMSTYLE
  2
AM_JIS$3
 70
     0
  3

  4
"
  5
OPEN
  6

  7

 40
1.0
 41
2.5
 42
1.0
 43
10.0
 44
1.0
 45
0.0
 46
0.0
 47
0.1
 48
0.1
140
3.0
141
0.0
142
0.0
143
0.0393701
144
1.0
145
0.0
146
0.71
147
1.0
 71
     0
 72
     0
 73
     0
 74
     0
 75
     0
 76
     0
 77
     3
 78
     8
170
     0
171
     2
172
     1
173
     0
174
     0
175
     0
176
   256
177
   256
178
     2
  0
DIMSTYLE
  2
AM_JIS$4
 70
     0
  3

  4
"
  5

  6
OPEN30
  7
OPEN
 40
1.0
 41
2.5
 42
1.0
 43
10.0
 44
1.0
 45
0.0
 46
0.0
 47
0.1
 48
0.1
140
3.0
141
0.0
142
0.0
143
0.0393701
144
1.0
145
0.0
146
0.71
147
1.0
 71
     0
 72
     0
 73
     0
 74
     0
 75
     0
 76
     0
 77
     3
 78
     8
170
     0
171
     2
172
     1
173
     1
174
     0
175
     0
176
   256
177
   256
178
     2
  0
DIMSTYLE
  2
AM_JIS$6
 70
     0
  3

  4
"
  5
OPEN30
  6
OPEN30
  7
OPEN30
 40
1.0
 41
2.5
 42
1.0
 43
10.0
 44
1.0
 45
0.0
 46
0.0
 47
0.1
 48
0.1
140
3.5
141
0.0
142
0.0
143
0.0393701
144
1.0
145
0.0
146
0.71
147
1.5
 71
     0
 72
     0
 73
     0
 74
     0
 75
     0
 76
     0
 77
     0
 78
     8
170
     0
171
     2
172
     1
173
     0
174
     0
175
     0
176
   256
177
   256
178
     2
  0
DIMSTYLE
  2
AM_JIS$7
 70
     0
  3

  4
"
  5
OPEN30
  6

  7

 40
1.0
 41
2.5
 42
1.0
 43
10.0
 44
1.0
 45
0.0
 46
0.0
 47
0.1
 48
0.1
140
3.0
141
0.0
142
0.0
143
0.0393701
144
1.0
145
0.0
146
0.71
147
1.0
 71
     0
 72
     0
 73
     0
 74
     0
 75
     0
 76
     0
 77
     3
 78
     8
170
     0
171
     2
172
     1
173
     0
174
     0
175
     0
176
   256
177
   256
178
     2
  0
DIMSTYLE
  2
AM_JIS$SF
 70
     0
  3

  4
"
  5
OPEN
  6

  7

 40
1.0
 41
2.5
 42
1.0
 43
7.0
 44
1.0
 45
0.0
 46
0.0
 47
0.1
 48
0.1
140
3.5
141
0.0
142
0.0
143
0.0393701
144
1.0
145
0.0
146
0.71
147
1.5
 71
     0
 72
     0
 73
     0
 74
     0
 75
     1
 76
     1
 77
     3
 78
     8
170
     0
171
     2
172
     1
173
     0
174
     0
175
     0
176
   256
177
   256
178
     2
  0
DIMSTYLE
  2
AM_JIS$SH
 70
     0
  3

  4
"
  5

  6
GENAXEH
  7
OPEN
 40
1.0
 41
2.5
 42
1.0
 43
7.0
 44
1.0
 45
0.0
 46
0.0
 47
0.1
 48
0.1
140
3.5
141
0.0
142
0.0
143
0.0393701
144
2.0
145
0.0
146
0.71
147
1.5
 71
     0
 72
     0
 73
     0
 74
     0
 75
     1
 76
     1
 77
     3
 78
     8
170
     0
171
     2
172
     1
173
     1
174
     0
175
     0
176
   256
177
   256
178
     2
  0
DIMSTYLE
  2
AM_ISO
 70
     0
  3

  4
"
  5

  6

  7

 40
1.0
 41
2.5
 42
1.0
 43
10.0
 44
1.0
 45
0.0
 46
0.0
 47
0.1
 48
0.1
140
3.5
141
0.0
142
0.0
143
0.0393701
144
1.0
145
0.0
146
0.71
147
1.5
 71
     0
 72
     0
 73
     0
 74
     0
 75
     0
 76
     0
 77
     1
 78
     8
170
     0
171
     2
172
     1
173
     0
174
     0
175
     0
176
   256
177
   256
178
     2
  0
DIMSTYLE
  2
AM_ISO$3
 70
     0
  3

  4
"
  5

  6

  7

 40
1.0
 41
2.5
 42
1.0
 43
10.0
 44
1.0
 45
0.0
 46
0.0
 47
0.1
 48
0.1
140
3.5
141
0.0
142
0.0
143
0.0393701
144
1.0
145
0.0
146
0.71
147
1.5
 71
     0
 72
     0
 73
     0
 74
     1
 75
     0
 76
     0
 77
     1
 78
     8
170
     0
171
     2
172
     0
173
     0
174
     0
175
     0
176
   256
177
   256
178
     2
  0
DIMSTYLE
  2
AM_ISO$4
 70
     0
  3

  4
"
  5

  6

  7

 40
1.0
 41
2.5
 42
1.0
 43
10.0
 44
1.0
 45
0.0
 46
0.0
 47
0.1
 48
0.1
140
3.5
141
0.0
142
0.0
143
0.0393701
144
1.0
145
0.0
146
0.71
147
1.5
 71
     0
 72
     0
 73
     0
 74
     1
 75
     0
 76
     0
 77
     1
 78
     8
170
     0
171
     2
172
     0
173
     0
174
     0
175
     0
176
   256
177
   256
178
     2
  0
DIMSTYLE
  2
AM_ISO$6
 70
     0
  3

  4
"
  5

  6

  7

 40
1.0
 41
2.5
 42
1.0
 43
10.0
 44
1.0
 45
0.0
 46
0.0
 47
0.1
 48
0.1
140
3.5
141
0.0
142
0.0
143
0.0393701
144
1.0
145
0.0
146
0.71
147
1.5
 71
     0
 72
     0
 73
     0
 74
     0
 75
     0
 76
     0
 77
     0
 78
     8
170
     0
171
     2
172
     1
173
     0
174
     0
175
     0
176
   256
177
   256
178
     2
  0
DIMSTYLE
  2
AM_ISO$7
 70
     0
  3

  4
"
  5

  6

  7

 40
1.0
 41
2.5
 42
1.0
 43
10.0
 44
1.0
 45
0.0
 46
0.0
 47
0.1
 48
0.1
140
5.0
141
0.0
142
0.0
143
0.0393701
144
1.0
145
0.0
146
0.71
147
1.5
 71
     0
 72
     0
 73
     0
 74
     0
 75
     0
 76
     0
 77
     1
 78
     8
170
     0
171
     2
172
     1
173
     0
174
     0
175
     0
176
   256
177
   256
178
     2
  0
DIMSTYLE
  2
AM_ISO$SF
 70
     0
  3

  4
"
  5

  6

  7

 40
1.0
 41
2.5
 42
1.0
 43
10.0
 44
1.0
 45
0.0
 46
0.0
 47
0.1
 48
0.1
140
3.5
141
0.0
142
0.0
143
0.0393701
144
1.0
145
0.0
146
0.71
147
1.5
 71
     0
 72
     0
 73
     0
 74
     0
 75
     1
 76
     1
 77
     1
 78
     8
170
     0
171
     2
172
     1
173
     0
174
     0
175
     0
176
   256
177
   256
178
     2
  0
DIMSTYLE
  2
AM_ISO$SH
 70
     0
  3

  4
"
  5

  6
GENAXEH
  7

 40
1.0
 41
2.5
 42
1.0
 43
10.0
 44
1.0
 45
0.0
 46
0.0
 47
0.1
 48
0.1
140
3.5
141
0.0
142
0.0
143
0.0393701
144
2.0
145
0.0
146
0.71
147
1.5
 71
     0
 72
     0
 73
     0
 74
     0
 75
     1
 76
     1
 77
     1
 78
     8
170
     0
171
     2
172
     1
173
     1
174
     0
175
     0
176
   256
177
   256
178
     2
  0
DIMSTYLE
  2
AM_JIS$2
 70
     0
  3

  4
"
  5
OPEN
  6

  7

 40
1.0
 41
2.5
 42
1.0
 43
7.0
 44
1.0
 45
0.0
 46
0.0
 47
0.1
 48
0.1
140
3.0
141
0.0
142
0.0
143
0.0393701
144
1.0
145
0.0
146
0.71
147
1.0
 71
     0
 72
     0
 73
     0
 74
     0
 75
     0
 76
     0
 77
     3
 78
     8
170
     0
171
     2
172
     1
173
     0
174
     0
175
     0
176
   256
177
   256
178
     2
  0
DIMSTYLE
  2
AM_JIS$0
 70
     0
  3

  4
"
  5
OPEN
  6

  7

 40
1.0
 41
2.5
 42
1.0
 43
7.0
 44
1.0
 45
0.0
 46
0.0
 47
0.1
 48
0.1
140
3.0
141
0.0
142
0.0
143
0.0393701
144
1.0
145
0.0
146
0.71
147
1.0
 71
     0
 72
     0
 73
     0
 74
     0
 75
     0
 76
     0
 77
     3
 78
     8
170
     0
171
     2
172
     1
173
     0
174
     0
175
     0
176
   256
177
   256
178
     2
  0
DIMSTYLE
  2
AM_ANSI
 70
     0
  3

  4
mm
  5

  6

  7

 40
1.0
 41
0.12
 42
0.05
 43
0.5
 44
0.1
 45
0.0
 46
0.0
 47
0.1
 48
0.1
140
0.12
141
0.0
142
0.0
143
25.4
144
1.0
145
0.0
146
0.71
147
0.06
 71
     0
 72
     0
 73
     1
 74
     1
 75
     0
 76
     0
 77
     0
 78
     7
170
     0
171
     2
172
     0
173
     0
174
     0
175
     0
176
   256
177
   256
178
     2
  0
DIMSTYLE
  2
AM_ANSI$3
 70
     0
  3

  4
mm
  5

  6

  7

 40
1.0
 41
0.12
 42
0.05
 43
0.5
 44
0.1
 45
0.0
 46
0.0
 47
0.1
 48
0.1
140
0.12
141
0.0
142
0.0
143
25.4
144
1.0
145
0.0
146
0.71
147
0.06
 71
     0
 72
     0
 73
     1
 74
     1
 75
     0
 76
     0
 77
     0
 78
     7
170
     0
171
     2
172
     0
173
     0
174
     0
175
     0
176
   256
177
   256
178
     2
  0
DIMSTYLE
  2
AM_ANSI$4
 70
     0
  3

  4
mm
  5

  6

  7

 40
1.0
 41
0.12
 42
0.05
 43
0.5
 44
0.1
 45
0.0
 46
0.0
 47
0.1
 48
0.1
140
0.12
141
0.0
142
0.0
143
25.4
144
1.0
145
0.0
146
0.71
147
0.06
 71
     0
 72
     0
 73
     1
 74
     1
 75
     0
 76
     0
 77
     0
 78
     7
170
     0
171
     2
172
     0
173
     0
174
     0
175
     0
176
   256
177
   256
178
     2
  0
DIMSTYLE
  2
AM_ANSI$7
 70
     0
  3

  4
mm
  5

  6

  7

 40
1.0
 41
0.12
 42
0.05
 43
0.5
 44
0.1
 45
0.0
 46
0.0
 47
0.1
 48
0.1
140
0.12
141
0.0
142
0.0
143
25.4
144
1.0
145
0.0
146
0.71
147
0.06
 71
     0
 72
     0
 73
     1
 74
     1
 75
     0
 76
     0
 77
     0
 78
     7
170
     0
171
     2
172
     0
173
     0
174
     0
175
     0
176
   256
177
   256
178
     2
  0
DIMSTYLE
  2
AM_ANSI$SF
 70
     0
  3

  4
mm
  5

  6

  7

 40
1.0
 41
0.12
 42
0.05
 43
0.5
 44
0.1
 45
0.0
 46
0.0
 47
0.1
 48
0.1
140
0.12
141
0.0
142
0.0
143
25.4
144
1.0
145
0.0
146
0.71
147
0.06
 71
     0
 72
     0
 73
     1
 74
     1
 75
     1
 76
     1
 77
     0
 78
     7
170
     0
171
     2
172
     0
173
     0
174
     0
175
     0
176
   256
177
   256
178
     2
  0
DIMSTYLE
  2
AM_ANSI$SH
 70
     0
  3

  4
mm
  5

  6
GENAXEH
  7

 40
1.0
 41
0.12
 42
0.05
 43
0.5
 44
0.1
 45
0.0
 46
0.0
 47
0.1
 48
0.1
140
0.12
141
0.0
142
0.0
143
25.4
144
1.0
145
0.0
146
0.71
147
0.06
 71
     0
 72
     0
 73
     1
 74
     1
 75
     1
 76
     1
 77
     0
 78
     7
170
     0
171
     2
172
     0
173
     1
174
     0
175
     0
176
   256
177
   256
178
     2
  0
ENDTAB
  0
ENDSEC
  0
SECTION
  2
BLOCKS
  0
BLOCK
  8
0
  2
$MODEL_SPACE
 70
     0
 10
0.0
 20
0.0
 30
0.0
  3
$MODEL_SPACE
  1

  0
ENDBLK
  5
1C
  8
0
  0
BLOCK
 67
     1
  8
0
  2
$PAPER_SPACE
 70
     0
 10
0.0
 20
0.0
 30
0.0
  3
$PAPER_SPACE
  1

  0
ENDBLK
  5
19
 67
     1
  8
0
  0
BLOCK
  8
0
  2
_OPEN30
 70
     0
 10
0.0
 20
0.0
 30
0.0
  3
_OPEN30
  1

  0
LINE
  5
2EF
  8
0
  6
BYBLOCK
 62
     0
 10
-1.0
 20
0.26794919
 30
0.0
 11
0.0
 21
0.0
 31
0.0
  0
LINE
  5
2F0
  8
0
  6
BYBLOCK
 62
     0
 10
0.0
 20
0.0
 30
0.0
 11
-1.0
 21
-0.26794919
 31
0.0
  0
LINE
  5
2F1
  8
0
  6
BYBLOCK
 62
     0
 10
0.0
 20
0.0
 30
0.0
 11
-1.0
 21
0.0
 31
0.0
  0
ENDBLK
  5
2F3
  8
0
  0
BLOCK
  8
0
  2
GENAXEH
 70
     0
 10
0.0
 20
0.0
 30
0.0
  3
GENAXEH
  1

  0
LINE
  5
2F5
  8
0
 10
-1.0
 20
0.0
 30
0.0
 11
1.0
 21
0.0
 31
0.0
  0
ENDBLK
  5
2F7
  8
0
  0
BLOCK
  8
0
  2
_OPEN
 70
     0
 10
0.0
 20
0.0
 30
0.0
  3
_OPEN
  1

  0
LINE
  5
597
  8
0
  6
BYBLOCK
 62
     0
 10
-1.0
 20
0.1666666666666667
 30
0.0
 11
0.0
 21
0.0
 31
0.0
  0
LINE
  5
598
  8
0
  6
BYBLOCK
 62
     0
 10
-1.0
 20
-0.1666666666666667
 30
0.0
 11
0.0
 21
0.0
 31
0.0
  0
LINE
  5
599
  8
0
  6
BYBLOCK
 62
     0
 10
0.0
 20
0.0
 30
0.0
 11
-1.0
 21
0.0
 31
0.0
  0
ENDBLK
  5
59B
  8
0
  0
BLOCK
  8
0
  2
_TAGCIRCLE
 70
     2
 10
0.0
 20
0.0
 30
0.0
  3
_TAGCIRCLE
  1

  0
CIRCLE
  5
1151
  8
0
  6
BYBLOCK
 62
     0
 10
0.0
 20
0.0
 30
0.0
 40
4.0
  0
ATTDEF
  5
1152
  8
0
 62
     0
 10
-7.1
 20
-1.5
 30
0.0
 40
3.0
  1
タグ番号
 72
     1
 11
0.0
 21
-1.5
 31
0.0
  3
タグ番号を入力
  2
タグ番号
 70
     0
  0
ENDBLK
  5
1154
  8
0
  0
BLOCK
  8
0
  2
_ACMFILLED15
 70
     0
 10
0.0
 20
0.0
 30
0.0
  3
_ACMFILLED15
  1
Acad:XRef
  0
TRACE
  5
77F6
  8
AM_0
 62
     0
 10
-1.0
 20
0.1316524975873958
 30
0.0
 11
-1.0
 21
-0.1316524975873958
 31
0.0
 12
0.0
 22
0.0
 32
0.0
 13
0.0
 23
0.0
 33
0.0
  0
ENDBLK
  5
77F4
  8
0
  0
BLOCK
  8
0
  2
_ACMOPEN30
 70
     0
 10
0.0
 20
0.0
 30
0.0
  3
_ACMOPEN30
  1
Acad:XRef
  0
LINE
  5
7800
  8
AM_0
 62
     0
 10
-1.0
 20
0.0
 30
0.0
 11
0.0
 21
0.0
 31
0.0
  0
LINE
  5
7801
  8
AM_0
 62
     0
 10
-1.0
 20
-0.2679491924311227
 30
0.0
 11
0.0
 21
0.0
 31
0.0
  0
LINE
  5
7802
  8
AM_0
 62
     0
 10
-1.0
 20
0.2679491924311227
 30
0.0
 11
0.0
 21
0.0
 31
0.0
  0
ENDBLK
  5
77FF
  8
0
  0
BLOCK
  8
0
  2
_ACMFILLEDHALF
 70
     0
 10
0.0
 20
0.0
 30
0.0
  3
_ACMFILLEDHALF
  1

  0
TRACE
  5
780B
  8
0
 62
     0
 10
-0.8
 20
0.0
 30
0.0
 11
-1.0
 21
0.166666666
 31
0.0
 12
0.0
 22
0.0
 32
0.0
 13
0.0
 23
0.0
 33
0.0
  0
LINE
  5
780C
  8
0
 62
     0
 10
-1.0
 20
0.0
 30
0.0
 11
-0.8
 21
0.0
 31
0.0
  0
ENDBLK
  5
780D
  8
0
  0
BLOCK
  8
0
  2
_ACMOPEN15
 70
     0
 10
0.0
 20
0.0
 30
0.0
  3
_ACMOPEN15
  1
Acad:XRef
  0
LINE
  5
781A
  8
AM_0
 62
     0
 10
-1.0
 20
0.0
 30
0.0
 11
0.0
 21
0.0
 31
0.0
  0
LINE
  5
781B
  8
AM_0
 62
     0
 10
-1.0
 20
-0.1316524975873958
 30
0.0
 11
0.0
 21
0.0
 31
0.0
  0
LINE
  5
781C
  8
AM_0
 62
     0
 10
-1.0
 20
0.1316524975873958
 30
0.0
 11
0.0
 21
0.0
 31
0.0
  0
ENDBLK
  5
7819
  8
0
  0
BLOCK
  8
0
  2
*X14
 70
     1
 10
0.0
 20
0.0
 30
0.0
  3
*X14
  1
Acad:XRef
  0
TEXT
  5
A2DD
  8
0
 10
69.35713162405004
 20
206.638447727807
 30
0.0
 40
1.9
  1
凍結
  0
TEXT
  5
A2DE
  8
0
 10
69.3430314385213
 20
203.3143289894026
 30
0.0
 40
1.9
  1
予防
  0
ENDBLK
  5
A2E0
  8
0
  0
ENDSEC
  0
SECTION
  2
ENTITIES
  0
TEXT
  5
17AD
  8
10
 10
-1.499993509006345
 20
0.0000066982815952
 30
0.0
 40
10.0
  1
2024.02.01 ER2000 1台単独 露出型
 11
-1.499993509006345
 21
0.0000066982815952
 31
0.0
 73
     1
  0
LINE
  5
45F8
  8
0
 10
25.52186071078961
 20
289.8911378947829
 30
0.0
 11
125.5218607107896
 21
289.8911378947827
 31
0.0
  0
LINE
  5
45F9
  8
0
 10
25.52186071078961
 20
169.8911378947828
 30
0.0
 11
125.5218607107896
 21
169.8911378947828
 31
0.0
  0
ARC
  5
45FA
  8
0
 10
25.52186071078961
 20
281.8911378947829
 30
0.0
 40
8.0
 50
90.0
 51
180.0
  0
LINE
  5
45FB
  8
0
 10
21.27922002367029
 20
286.133778581902
 30
0.0
 11
29.52186071078961
 21
277.8911378947829
 31
0.0
  0
LINE
  5
45FC
  8
0
 10
31.52186071078961
 20
181.8911378947827
 30
0.0
 11
119.5218607107896
 21
181.891137894783
 31
0.0
  0
LINE
  5
45FD
  8
0
 10
31.52186071078961
 20
277.8911378947829
 30
0.0
 11
119.5218607107896
 21
277.8911378947828
 31
0.0
  0
LINE
  5
4600
  8
0
 10
29.52186071078961
 20
275.8911378947829
 30
0.0
 11
29.52186071078961
 21
183.8911378947828
 31
0.0
  0
LINE
  5
4602
  8
0
 10
17.52186071078961
 20
281.8911378947829
 30
0.0
 11
17.52186071078961
 21
177.8911378947828
 31
0.0
  0
LINE
  5
4603
  8
0
 10
21.27922002367052
 20
173.6484972076635
 30
0.0
 11
29.52186071078961
 21
181.8911378947828
 31
0.0
  0
ARC
  5
4604
  8
0
 10
25.52186071078961
 20
177.8911378947828
 30
0.0
 40
8.0
 50
180.0
 51
270.0
  0
ARC
  5
4608
  8
0
 10
125.5218607107896
 20
281.8911378947827
 30
0.0
 40
8.0
 50
0.0
 51
90.0
  0
LINE
  5
4609
  8
0
 10
129.7645013979089
 20
286.133778581902
 30
0.0
 11
121.5218607107896
 21
277.8911378947827
 31
0.0
  0
LINE
  5
460B
  8
0
 10
121.5218607107896
 20
275.8911378947828
 30
0.0
 11
121.5218607107896
 21
183.891137894783
 31
0.0
  0
LINE
  5
460C
  8
0
 10
133.5218607107896
 20
281.8911378947827
 30
0.0
 11
133.5218607107896
 21
177.8911378947828
 31
0.0
  0
LINE
  5
460D
  8
0
 10
121.5218607107896
 20
181.8911378947829
 30
0.0
 11
129.7645013979089
 21
173.6484972076634
 31
0.0
  0
ARC
  5
460E
  8
0
 10
125.5218607107896
 20
177.8911378947828
 30
0.0
 40
8.0
 50
270.0
 51
0.0
  0
LINE
  5
704F
  8
0
 10
25.52186071078961
 20
290.5544378947828
 30
0.0
 11
125.5218607107896
 21
290.5544378947826
 31
0.0
  0
ARC
  5
7050
  8
0
 10
25.52186071078961
 20
281.8911378947828
 30
0.0
 40
8.6633
 50
90.0
 51
180.0
  0
LINE
  5
7051
  8
0
 10
16.85856071078967
 20
281.8911378947828
 30
0.0
 11
16.85856071078967
 21
177.8911378947828
 31
0.0
  0
ARC
  5
7052
  8
0
 10
25.52186071078961
 20
177.8911378947828
 30
0.0
 40
8.6633
 50
180.0
 51
270.0
  0
LINE
  5
7053
  8
0
 10
25.52186071078961
 20
169.2278378947828
 30
0.0
 11
125.5218607107896
 21
169.2278378947828
 31
0.0
  0
ARC
  5
7054
  8
0
 10
125.5218607107896
 20
177.8911378947828
 30
0.0
 40
8.6633
 50
270.0
 51
0.0
  0
LINE
  5
7055
  8
0
 10
134.1851607107895
 20
281.8911378947826
 30
0.0
 11
134.1851607107895
 21
177.8911378947828
 31
0.0
  0
ARC
  5
7056
  8
0
 10
125.5218607107896
 20
281.8911378947826
 30
0.0
 40
8.6633
 50
0.0
 51
90.0
  0
LINE
  5
74A3
  8
0
 10
178.977628466876
 20
280.4759233190128
 30
0.0
 11
180.2735145211566
 21
287.8252583389502
 31
0.0
  0
LINE
  5
74A4
  8
0
 10
184.0218610572422
 20
169.8911378947831
 30
0.0
 11
184.0218610572422
 21
289.8911378947831
 31
0.0
  0
LINE
  5
74A7
  8
0
 10
178.5218610572422
 20
184.5157978005607
 30
0.0
 11
178.5218610572422
 21
275.266477989005
 31
0.0
  0
LINE
  5
74AC
  8
0
 10
178.977628466876
 20
179.3063524705528
 30
0.0
 11
180.2735145211565
 21
171.9570174506159
 31
0.0
  0
ARC
  5
74AD
  8
0
 10
182.735533903687
 20
172.3911378947832
 30
0.0
 40
2.5
 50
190.0000000000002
 51
270.0
  0
LINE
  5
74AE
  8
0
 10
184.0218610572422
 20
169.8911378947832
 30
0.0
 11
182.7355339036869
 21
169.8911378947832
 31
0.0
  0
ARC
  5
74AF
  8
0
 10
208.5218610572422
 20
184.5157978005607
 30
0.0
 40
30.0
 50
180.0
 51
190.0000000000002
  0
ARC
  5
74B0
  8
0
 10
208.5218610572422
 20
275.266477989005
 30
0.0
 40
30.0
 50
169.9999999999998
 51
180.0
  0
ARC
  5
74B1
  8
0
 10
182.7355339036872
 20
287.3911378947829
 30
0.0
 40
2.5
 50
90.0
 51
169.9999999999998
  0
LINE
  5
74B2
  8
0
 10
184.0218610572356
 20
289.8911378947831
 30
0.0
 11
182.7355339036803
 21
289.8911378947831
 31
0.0
  0
ARC
  5
74B3
  8
0
 10
175.8218610572417
 20
259.6911378947831
 30
0.0
 40
1.0
 50
90.0
 51
180.0
  0
LINE
  5
74B4
  8
0
 10
175.8218610572417
 20
260.6911378947831
 30
0.0
 11
178.5218610572417
 21
260.6911378947831
 31
0.0
  0
LINE
  5
74B5
  8
0
 10
175.8218610572417
 20
253.6911378947831
 30
0.0
 11
178.5218610572417
 21
253.6911378947831
 31
0.0
  0
LINE
  5
74B6
  8
0
 10
174.8218610572417
 20
259.6911378947831
 30
0.0
 11
174.8218610572417
 21
254.6911378947831
 31
0.0
  0
ARC
  5
74B7
  8
0
 10
175.8218610572417
 20
254.6911378947831
 30
0.0
 40
1.0
 50
180.0
 51
270.0
  0
LINE
  5
74D6
  8
0
 10
125.5218614558478
 20
144.5475070587736
 30
0.0
 11
25.52185996573166
 21
144.5475070587736
 31
0.0
  0
LINE
  5
74D7
  8
0
 10
125.5218614558478
 20
140.5475072180298
 30
0.0
 11
25.52185996573166
 21
140.5475072180298
 31
0.0
  0
LINE
  5
74D8
  8
0
 10
17.52186237971978
 20
140.5475072180298
 30
0.0
 11
17.52186237971978
 21
144.5475070587736
 31
0.0
  0
LINE
  5
74D9
  8
0
 10
25.52185996573166
 20
144.5475070587736
 30
0.0
 11
17.52186237971978
 21
144.5475070587736
 31
0.0
  0
LINE
  5
74DA
  8
0
 10
25.52185996573166
 20
140.5475072180298
 30
0.0
 11
17.52186237971978
 21
140.5475072180298
 31
0.0
  0
LINE
  5
74DB
  8
0
 10
133.5218590418597
 20
140.5475072180298
 30
0.0
 11
133.5218590418597
 21
144.5475070587736
 31
0.0
  0
LINE
  5
74DC
  8
0
 10
133.5218590418597
 20
144.5475070587736
 30
0.0
 11
125.5218614558478
 21
144.5475070587736
 31
0.0
  0
LINE
  5
74DD
  8
0
 10
133.5218590418597
 20
140.5475072180298
 30
0.0
 11
125.5218614558478
 21
140.5475072180298
 31
0.0
  0
LINE
  5
74DE
  8
0
 10
18.62186237375931
 20
144.5475070587736
 30
0.0
 11
18.62186237375931
 21
145.0475070587707
 31
0.0
  0
LINE
  5
74DF
  8
0
 10
132.4218590478201
 20
144.5475070587736
 30
0.0
 11
132.4218590478201
 21
145.0475070587707
 31
0.0
  0
LINE
  5
74E0
  8
0
 10
39.02186124723153
 20
150.5475069945124
 30
0.0
 11
112.0218601743479
 21
150.5475069945124
 31
0.0
  0
LINE
  5
74E1
  8
0
 10
52.9666909089342
 20
153.7471397298766
 30
0.0
 11
51.96669090893442
 21
153.7471397298766
 31
0.0
  0
LINE
  5
74E2
  8
0
 10
53.96669090893442
 20
154.2471397298766
 30
0.0
 11
52.96669090893442
 21
154.2471397298766
 31
0.0
  0
LINE
  5
74E3
  8
0
 10
51.96669090893442
 20
154.2471397298766
 30
0.0
 11
50.96669090893442
 21
154.2471397298766
 31
0.0
  0
LINE
  5
74E4
  8
0
 10
51.96669090893442
 20
154.2471397298766
 30
0.0
 11
51.96669090893442
 21
153.7471397298766
 31
0.0
  0
LINE
  5
74E5
  8
0
 10
54.96669090893442
 20
154.2471397298766
 30
0.0
 11
54.96669090893442
 21
153.7471397298766
 31
0.0
  0
LINE
  5
74E6
  8
0
 10
52.96669090893442
 20
154.2471397298766
 30
0.0
 11
52.9666909089342
 21
153.7471397298766
 31
0.0
  0
LINE
  5
74E7
  8
0
 10
53.96669090893442
 20
154.2471397298766
 30
0.0
 11
53.96669090893442
 21
153.7471397298766
 31
0.0
  0
LINE
  5
74E8
  8
0
 10
54.96669090893442
 20
153.7471397298766
 30
0.0
 11
53.96669090893442
 21
153.7471397298766
 31
0.0
  0
LINE
  5
74E9
  8
0
 10
56.96669090893442
 20
150.5475069945124
 30
0.0
 11
56.9666909089342
 21
153.2471397298766
 31
0.0
  0
ARC
  5
74EA
  8
0
 10
55.9666909089342
 20
153.2471397298766
 30
0.0
 40
1.0
 50
0.0
 51
90.0
  0
LINE
  5
74EB
  8
0
 10
55.9666909089342
 20
154.2471397298766
 30
0.0
 11
54.96669090893442
 21
154.2471397298766
 31
0.0
  0
LINE
  5
74EC
  8
0
 10
49.96669090893442
 20
150.5475069945124
 30
0.0
 11
49.96669090893442
 21
153.2471397298766
 31
0.0
  0
ARC
  5
74ED
  8
0
 10
50.96669090893442
 20
153.2471397298766
 30
0.0
 40
1.0
 50
90.0
 51
180.0
  0
LINE
  5
74EE
  8
0
 10
133.5218607107895
 20
145.0475070587707
 30
0.0
 11
17.52186071078927
 21
145.0475070587707
 31
0.0
  0
ARC
  5
74EF
  8
0
 10
118.8972008050121
 20
120.5475070587707
 30
0.0
 40
30.0
 50
80.00000000000139
 51
90.0
  0
LINE
  5
74F0
  8
0
 10
118.8972008050121
 20
150.5475070587707
 30
0.0
 11
32.14652061656739
 21
150.5475070587707
 31
0.0
  0
ARC
  5
74F1
  8
0
 10
131.0218607107895
 20
146.3338342123259
 30
0.0
 40
2.5
 50
0.0
 51
80.00000000000139
  0
LINE
  5
74F2
  8
0
 10
133.5218607107895
 20
145.0475070587707
 30
0.0
 11
133.5218607107895
 21
146.3338342123259
 31
0.0
  0
LINE
  5
74F3
  8
0
 10
124.1066461350199
 20
150.091739649137
 30
0.0
 11
131.4559811549568
 21
148.7958535948565
 31
0.0
  0
ARC
  5
74F4
  8
0
 10
32.14652061656739
 20
120.5475070587707
 30
0.0
 40
30.0
 50
90.0
 51
99.99999999999861
  0
ARC
  5
74F5
  8
0
 10
20.0218607107895
 20
146.3338342123259
 30
0.0
 40
2.5
 50
99.99999999999861
 51
180.0
  0
LINE
  5
74F6
  8
0
 10
26.93707528655955
 20
150.091739649137
 30
0.0
 11
19.58774026662218
 21
148.7958535948564
 31
0.0
  0
LINE
  5
74F7
  8
0
 10
17.52186071078927
 20
145.0475070587773
 30
0.0
 11
17.52186071078927
 21
146.3338342123325
 31
0.0
  0
LINE
  5
74F8
  8
0
 10
188.5218608337243
 20
290.0161358756766
 30
0.0
 11
184.5218609929805
 21
290.0161358756766
 31
0.0
  0
LINE
  5
74F9
  8
0
 10
184.5218609929805
 20
290.0161358756766
 30
0.0
 11
184.5218609929805
 21
282.0161382896648
 31
0.0
  0
LINE
  5
74FA
  8
0
 10
188.5218608337243
 20
290.0161358756766
 30
0.0
 11
188.5218608337243
 21
282.0161382896648
 31
0.0
  0
LINE
  5
74FB
  8
0
 10
184.5218609929805
 20
282.0161382896648
 30
0.0
 11
184.5218609929805
 21
178.0161361438975
 31
0.0
  0
LINE
  5
74FC
  8
0
 10
188.5218608337243
 20
282.0161382896648
 30
0.0
 11
188.5218608337243
 21
178.0161361438975
 31
0.0
  0
LINE
  5
74FD
  8
0
 10
188.5218608337243
 20
170.0161385578857
 30
0.0
 11
184.5218609929805
 21
170.0161385578857
 31
0.0
  0
LINE
  5
74FE
  8
0
 10
184.5218609929805
 20
178.0161361438975
 30
0.0
 11
184.5218609929805
 21
170.0161385578857
 31
0.0
  0
LINE
  5
74FF
  8
0
 10
188.5218608337243
 20
178.0161361438975
 30
0.0
 11
188.5218608337243
 21
170.0161385578857
 31
0.0
  0
LINE
  5
7500
  8
0
 10
184.5218609929805
 20
171.1161385519252
 30
0.0
 11
184.0218610572422
 21
171.1161385519252
 31
0.0
  0
LINE
  5
7501
  8
0
 10
184.5218609929805
 20
288.9161358816371
 30
0.0
 11
184.0218610572422
 21
288.9161358816371
 31
0.0
  0
LINE
  5
753B
  8
0
 10
188.5218608337243
 20
290.016137216781
 30
0.0
 11
188.5218608337243
 21
170.0161372167812
 31
0.0
  0
LINE
  5
753C
  8
0
 10
226.5218608337245
 20
290.6794296840534
 30
0.0
 11
226.5218608337242
 21
169.3528447495089
 31
0.0
  0
LINE
  5
753D
  8
0
 10
188.5218608337243
 20
170.0161372167812
 30
0.0
 11
226.5218608337242
 21
169.3528447495089
 31
0.0
  0
LINE
  5
753E
  8
0
 10
188.5218608337243
 20
290.016137216781
 30
0.0
 11
226.5218608337245
 21
290.6794296840534
 31
0.0
  0
LINE
  5
7547
  8
0
 10
133.52186071079
 20
140.5475072180298
 30
0.0
 11
134.1851531780619
 21
102.5475072180298
 31
0.0
  0
LINE
  5
7548
  8
0
 10
17.52186071078972
 20
140.5475072180298
 30
0.0
 11
16.85856824351731
 21
102.5475072180299
 31
0.0
  0
ARC
  5
7549
  8
0
 10
70.0218607107895
 20
106.5475072180298
 30
0.0
 40
4.0
 50
0.0
 51
90.0
  0
ARC
  5
754A
  8
0
 10
70.0218607107895
 20
106.5475072180298
 30
0.0
 40
3.0
 50
0.0
 51
180.0
  0
LINE
  5
754B
  8
0
 10
16.85856824351731
 20
102.5475072180299
 30
0.0
 11
134.1851531780619
 21
102.5475072180298
 31
0.0
  0
LINE
  5
754C
  8
0
 10
66.0218607107895
 20
102.5475072180298
 30
0.0
 11
66.0218607107895
 21
106.5475072180298
 31
0.0
  0
LINE
  5
754D
  8
0
 10
67.0218607107895
 20
102.5475072180298
 30
0.0
 11
67.0218607107895
 21
106.5475072180298
 31
0.0
  0
LINE
  5
754E
  8
0
 10
55.5218607107895
 20
102.5475072180298
 30
0.0
 11
55.5218607107895
 21
106.5475072180298
 31
0.0
  0
LINE
  5
754F
  8
0
 10
56.5218607107895
 20
102.5475072180298
 30
0.0
 11
56.5218607107895
 21
106.5475072180298
 31
0.0
  0
LINE
  5
7550
  8
0
 10
63.5218607107895
 20
106.5475072180298
 30
0.0
 11
63.5218607107895
 21
102.5475072180298
 31
0.0
  0
LINE
  5
7551
  8
0
 10
62.5218607107895
 20
106.5475072180298
 30
0.0
 11
62.5218607107895
 21
102.5475072180298
 31
0.0
  0
ARC
  5
7552
  8
0
 10
59.5218607107895
 20
106.5475072180298
 30
0.0
 40
4.0
 50
0.0
 51
48.59037789073133
  0
ARC
  5
7553
  8
0
 10
59.5218607107895
 20
106.5475072180298
 30
0.0
 40
3.0
 50
0.0
 51
180.0
  0
LINE
  5
7554
  8
0
 10
62.16761202185421
 20
109.5475072180298
 30
0.0
 11
67.37610939972501
 21
109.5475072180298
 31
0.0
  0
ARC
  5
7555
  8
0
 10
70.0218607107895
 20
106.5475072180298
 30
0.0
 40
4.0
 50
131.4096221092687
 51
180.0
  0
ARC
  5
7556
  8
0
 10
59.5218607107895
 20
106.5475072180298
 30
0.0
 40
4.0
 50
90.0
 51
180.0
  0
LINE
  5
7557
  8
0
 10
59.5218607107895
 20
110.5475072180298
 30
0.0
 11
70.0218607107895
 21
110.5475072180298
 31
0.0
  0
LINE
  5
7558
  8
0
 10
94.5218607107895
 20
106.5475072180298
 30
0.0
 11
94.5218607107895
 21
102.5475072180298
 31
0.0
  0
LINE
  5
7559
  8
0
 10
95.5218607107895
 20
106.5475072180298
 30
0.0
 11
95.5218607107895
 21
102.5475072180298
 31
0.0
  0
LINE
  5
755A
  8
0
 10
88.5218607107895
 20
102.5475072180298
 30
0.0
 11
88.5218607107895
 21
106.5475072180298
 31
0.0
  0
LINE
  5
755B
  8
0
 10
87.5218607107895
 20
102.5475072180298
 30
0.0
 11
87.5218607107895
 21
106.5475072180298
 31
0.0
  0
LINE
  5
755C
  8
0
 10
74.0218607107895
 20
106.5475072180298
 30
0.0
 11
74.0218607107895
 21
102.5475072180298
 31
0.0
  0
LINE
  5
755D
  8
0
 10
73.0218607107895
 20
106.5475072180298
 30
0.0
 11
73.0218607107895
 21
102.5475072180298
 31
0.0
  0
LINE
  5
755E
  8
0
 10
77.0218607107895
 20
102.5475072180298
 30
0.0
 11
77.0218607107895
 21
106.5475072180298
 31
0.0
  0
LINE
  5
755F
  8
0
 10
78.0218607107895
 20
102.5475072180298
 30
0.0
 11
78.0218607107895
 21
106.5475072180298
 31
0.0
  0
LINE
  5
7560
  8
0
 10
85.0218607107895
 20
106.5475072180298
 30
0.0
 11
85.0218607107895
 21
102.5475072180298
 31
0.0
  0
LINE
  5
7561
  8
0
 10
84.0218607107895
 20
106.5475072180298
 30
0.0
 11
84.0218607107895
 21
102.5475072180298
 31
0.0
  0
LINE
  5
7562
  8
0
 10
81.0218607107895
 20
110.5475072180298
 30
0.0
 11
91.5218607107895
 21
110.5475072180298
 31
0.0
  0
ARC
  5
7563
  8
0
 10
91.5218607107895
 20
106.5475072180298
 30
0.0
 40
4.0
 50
131.4096221092687
 51
180.0
  0
LINE
  5
7564
  8
0
 10
83.66761202185398
 20
109.5475072180298
 30
0.0
 11
88.87610939972501
 21
109.5475072180298
 31
0.0
  0
ARC
  5
7565
  8
0
 10
81.0218607107895
 20
106.5475072180298
 30
0.0
 40
4.0
 50
0.0
 51
48.59037789073133
  0
ARC
  5
7566
  8
0
 10
81.0218607107895
 20
106.5475072180298
 30
0.0
 40
3.0
 50
0.0
 51
180.0
  0
ARC
  5
7567
  8
0
 10
81.0218607107895
 20
106.5475072180298
 30
0.0
 40
4.0
 50
90.0
 51
180.0
  0
ARC
  5
7568
  8
0
 10
91.5218607107895
 20
106.5475072180298
 30
0.0
 40
3.0
 50
0.0
 51
180.0
  0
ARC
  5
7569
  8
0
 10
91.5218607107895
 20
106.5475072180298
 30
0.0
 40
4.0
 50
0.0
 51
90.0
  0
LINE
  5
756A
  8
0
 10
17.52186071078972
 20
140.5475072180298
 30
0.0
 11
133.52186071079
 21
140.5475072180298
 31
0.0
  0
LINE
  5
75EE
  8
7
 10
12.72786071078963
 20
229.8911378947829
 30
0.0
 11
138.3158607107896
 21
229.8911378947827
 31
0.0
1001
GENIUS_GENOBJ-N-CEN_13
1002
{
1000
OWNER
1000
GEN
1002
}
1001
GENIUS_GENODEF_13
1002
{
1000
HIER
1070
     0
1002
}
1002
{
1000
MANEDIT
1070
     0
1002
}
1002
{
1000
NOSEL
1070
     0
1002
}
1002
{
1000
BEHIND
1070
     0
1002
}
1002
{
1000
OTHER
1070
     0
1002
}
1002
{
1000
REACTOR
1002
}
1001
GENIUS_GENCEN_19
1002
{
1040
2.794
1002
}
  0
LINE
  5
75EF
  8
7
 10
75.52186071078972
 20
294.685137894783
 30
0.0
 11
75.52186071078972
 21
165.0971378947828
 31
0.0
1001
GENIUS_GENOBJ-N-CEN_13
1002
{
1000
OWNER
1000
GEN
1002
}
1001
GENIUS_GENODEF_13
1002
{
1000
HIER
1070
     0
1002
}
1002
{
1000
MANEDIT
1070
     0
1002
}
1002
{
1000
NOSEL
1070
     0
1002
}
1002
{
1000
BEHIND
1070
     0
1002
}
1002
{
1000
OTHER
1070
     0
1002
}
1002
{
1000
REACTOR
1002
}
1001
GENIUS_GENCEN_19
1002
{
1040
2.794
1002
}
  0
LINE
  5
75F0
  8
AM_7
 10
75.52186071078972
 20
153.3415070587708
 30
0.0
 11
75.52186071078972
 21
99.75350721802984
 31
0.0
1001
GENIUS_GENOBJ-N-CEN_13
1002
{
1000
OWNER
1000
GEN
1002
}
1001
GENIUS_GENODEF_13
1002
{
1000
HIER
1070
     0
1002
}
1002
{
1000
MANEDIT
1070
     0
1002
}
1002
{
1000
NOSEL
1070
     0
1002
}
1002
{
1000
BEHIND
1070
     0
1002
}
1002
{
1000
OTHER
1070
     0
1002
}
1002
{
1000
REACTOR
1002
}
1001
GENIUS_GENCEN_19
1002
{
1040
2.794
1002
}
  0
LINE
  5
75F1
  8
AM_7
 10
175.7278610572422
 20
229.8911378947825
 30
0.0
 11
229.3158608337244
 21
229.8911378947824
 31
0.0
1001
GENIUS_GENODEF_13
1002
{
1000
HIER
1070
     0
1002
}
1002
{
1000
MANEDIT
1070
     0
1002
}
1002
{
1000
NOSEL
1070
     0
1002
}
1002
{
1000
BEHIND
1070
     0
1002
}
1002
{
1000
OTHER
1070
     0
1002
}
1002
{
1000
REACTOR
1002
}
1001
GENIUS_GENOBJ-N-CEN_13
1002
{
1000
OWNER
1000
GEN
1002
}
1001
GENIUS_GENCEN_19
1002
{
1040
2.794
1002
}
  0
LINE
  5
8A76
  8
0
 10
38.27186071078967
 20
264.9911378947829
 30
0.0
 11
112.7718607107897
 21
264.9911378947829
 31
0.0
  0
LINE
  5
8A77
  8
0
 10
38.27186071078967
 20
194.7911378947828
 30
0.0
 11
112.7718607107897
 21
194.7911378947828
 31
0.0
  0
LINE
  5
8A78
  8
0
 10
38.27186071078967
 20
264.9911378947829
 30
0.0
 11
38.27186071078967
 21
194.7911378947828
 31
0.0
  0
LINE
  5
8A79
  8
0
 10
112.7718607107897
 20
264.9911378947829
 30
0.0
 11
112.7718607107897
 21
194.7911378947828
 31
0.0
  0
LINE
  5
8A7A
  8
0
 10
112.0218601743479
 20
195.3911387590502
 30
0.0
 11
112.0218601743479
 21
264.3911370305155
 31
0.0
  0
LINE
  5
8A7B
  8
0
 10
39.02186124723147
 20
195.3911387590502
 30
0.0
 11
112.0218601743479
 21
195.3911387590502
 31
0.0
  0
LINE
  5
8A7C
  8
0
 10
39.02186124723147
 20
264.3911370305155
 30
0.0
 11
39.02186124723147
 21
195.3911387590502
 31
0.0
  0
LINE
  5
8A7D
  8
0
 10
112.0218601743479
 20
264.3911370305155
 30
0.0
 11
39.02186124723147
 21
264.3911370305155
 31
0.0
  0
LINE
  5
8A7E
  8
0
 10
40.52186056177806
 20
196.8911380735967
 30
0.0
 11
110.5218608598013
 21
196.8911380735967
 31
0.0
  0
LINE
  5
8A7F
  8
0
 10
110.5218608598013
 20
196.8911380735967
 30
0.0
 11
110.5218608598013
 21
262.8911377159689
 31
0.0
  0
LINE
  5
8A80
  8
0
 10
110.5218608598013
 20
262.8911377159689
 30
0.0
 11
65.52186093430709
 21
262.8911377159689
 31
0.0
  0
LINE
  5
8A81
  8
0
 10
40.52186056177806
 20
250.8911376116608
 30
0.0
 11
65.52186093430709
 21
250.8911376116608
 31
0.0
  0
LINE
  5
8A82
  8
0
 10
40.52186056177806
 20
250.8911376116608
 30
0.0
 11
40.52186056177806
 21
196.8911380735967
 31
0.0
  0
LINE
  5
8A83
  8
0
 10
47.32186018626879
 20
253.1911374298666
 30
0.0
 11
57.32185996275138
 21
253.1911374298666
 31
0.0
  0
LINE
  5
8A84
  8
0
 10
57.32185996275138
 20
253.1911374298666
 30
0.0
 11
57.32185996275138
 21
261.1911387411688
 31
0.0
  0
LINE
  5
8A85
  8
0
 10
57.32185996275138
 20
261.1911387411688
 30
0.0
 11
47.32186018626879
 21
261.1911387411688
 31
0.0
  0
LINE
  5
8A86
  8
0
 10
47.32186018626879
 20
261.1911387411688
 30
0.0
 11
47.32186018626879
 21
253.1911374298666
 31
0.0
  0
LINE
  5
8A87
  8
0
 10
65.52186093430709
 20
250.8911376116608
 30
0.0
 11
65.52186093430709
 21
262.8911377159689
 31
0.0
  0
LINE
  5
8A88
  8
0
 10
112.5218611876268
 20
194.8911377457712
 30
0.0
 11
112.5218611876268
 21
264.8911380437945
 31
0.0
  0
LINE
  5
8A89
  8
0
 10
38.52186023395251
 20
194.8911377457712
 30
0.0
 11
112.5218611876268
 21
194.8911377457712
 31
0.0
  0
LINE
  5
8A8A
  8
0
 10
38.52186023395251
 20
264.8911380437945
 30
0.0
 11
38.52186023395251
 21
194.8911377457712
 31
0.0
  0
LINE
  5
8A8B
  8
0
 10
112.5218611876268
 20
264.8911380437945
 30
0.0
 11
38.52186023395251
 21
264.8911380437945
 31
0.0
  0
ARC
  5
8A8C
  8
0
 10
48.72186007451006
 20
259.6911374298666
 30
0.0
 40
1.0
 50
90.0
 51
180.0
  0
ARC
  5
8A8D
  8
0
 10
53.72186007451006
 20
259.6911374298666
 30
0.0
 40
1.0
 50
0.0
 51
90.0
  0
LINE
  5
8A8E
  8
0
 10
48.72186007451006
 20
260.6911374298666
 30
0.0
 11
53.72186007451006
 21
260.6911374298666
 31
0.0
  0
LINE
  5
8A8F
  8
0
 10
53.72186007451006
 20
253.6911374298667
 30
0.0
 11
48.72186007451006
 21
253.6911374298666
 31
0.0
  0
ARC
  5
8A90
  8
0
 10
48.72186007451006
 20
254.6911374298666
 30
0.0
 40
1.0
 50
180.0
 51
270.0000000000016
  0
ARC
  5
8A91
  8
0
 10
53.72186007451006
 20
254.6911374298667
 30
0.0
 40
1.0
 50
270.0
 51
0.0
  0
LINE
  5
8A92
  8
0
 10
52.72186007451006
 20
253.6911374298667
 30
0.0
 11
52.72186007451006
 21
260.6911374298666
 31
0.0
  0
LINE
  5
8A93
  8
0
 10
51.72186007451006
 20
253.6911374298666
 30
0.0
 11
51.72186007451006
 21
260.6911374298666
 31
0.0
  0
LINE
  5
8A94
  8
0
 10
50.72186007451006
 20
253.6911374298665
 30
0.0
 11
50.72186007451006
 21
260.6911374298666
 31
0.0
  0
LINE
  5
8A95
  8
0
 10
49.72186007451006
 20
253.6911374298665
 30
0.0
 11
49.72186007451006
 21
260.6911374298666
 31
0.0
  0
LINE
  5
8A96
  8
0
 10
47.72186007451006
 20
254.6911374298666
 30
0.0
 11
47.72186007451006
 21
259.6911374298666
 31
0.0
  0
LINE
  5
8A97
  8
0
 10
54.72186007451006
 20
259.6911374298666
 30
0.0
 11
54.72186007451006
 21
254.6911374298667
 31
0.0
  0
LINE
  5
8A98
  8
0
 10
65.77186093430709
 20
262.641137894783
 30
0.0
 11
110.2718607107897
 21
262.6411378947828
 31
0.0
  0
LINE
  5
8A99
  8
0
 10
110.2718607107897
 20
262.6411378947828
 30
0.0
 11
110.2718607107897
 21
197.1411378947828
 31
0.0
  0
LINE
  5
8A9A
  8
0
 10
40.77186071078967
 20
197.1411378947829
 30
0.0
 11
40.77186071078967
 21
250.6411376116608
 31
0.0
  0
LINE
  5
8A9B
  8
0
 10
110.2718607107897
 20
197.1411378947828
 30
0.0
 11
40.77186071078967
 21
197.1411378947829
 31
0.0
  0
LINE
  5
8A9C
  8
0
  6
CONTINUOUS
 10
65.77186093430709
 20
250.6411376116608
 30
0.0
 11
65.77186093430709
 21
262.641137894783
 31
0.0
  0
LINE
  5
8A9D
  8
0
  6
CONTINUOUS
 10
40.77186071078967
 20
250.6411376116608
 30
0.0
 11
65.77186093430709
 21
250.6411376116608
 31
0.0
  0
LINE
  5
8C13
  8
0
 10
55.82186007451008
 20
248.2411378947831
 30
0.0
 11
55.82186007451008
 21
246.2411378947831
 31
0.0
  0
LINE
  5
8C14
  8
0
 10
48.82186007451008
 20
248.2411378947831
 30
0.0
 11
48.82186007451008
 21
246.2411378947831
 31
0.0
  0
ARC
  5
8C15
  8
0
 10
49.82186007451008
 20
248.2411378947831
 30
0.0
 40
1.0
 50
90.0
 51
180.0
  0
ARC
  5
8C16
  8
0
 10
49.82186007451008
 20
246.2411378947831
 30
0.0
 40
1.0
 50
180.0
 51
270.0
  0
ARC
  5
8C17
  8
0
 10
54.82186007451008
 20
246.2411378947831
 30
0.0
 40
1.0
 50
270.0
 51
0.0
  0
ARC
  5
8C18
  8
0
 10
54.82186007451008
 20
248.2411378947831
 30
0.0
 40
1.0
 50
0.0
 51
90.0
  0
LINE
  5
8C19
  8
0
 10
49.82186007451008
 20
249.2411378947831
 30
0.0
 11
54.82186007451008
 21
249.2411378947831
 31
0.0
  0
LINE
  5
8C1A
  8
0
 10
49.82186007451008
 20
245.2411378947831
 30
0.0
 11
54.82186007451008
 21
245.2411378947831
 31
0.0
  0
TEXT
  5
8C1B
  8
0
 10
42.16044691739722
 20
246.2788620753644
 30
0.0
 40
2.0
  1
OFF
 41
1.5
  0
TEXT
  5
8C1C
  8
0
 10
57.20729606708893
 20
246.2788620753644
 30
0.0
 40
2.0
  1
ON
 41
1.5
  0
TEXT
  5
8C1D
  8
0
 10
49.75043150308151
 20
246.29803338025
 30
0.0
 40
2.0
  1
電源
  0
LINE
  5
8C1F
  8
0
 10
42.27186071078967
 20
217.1012460020881
 30
0.0
 11
42.27186071078967
 21
219.6387460020887
 31
0.0
  0
LINE
  5
8C20
  8
0
 10
44.37436071078963
 20
217.1012460020881
 30
0.0
 11
44.37436071078963
 21
219.6387460020887
 31
0.0
  0
LINE
  5
8C21
  8
0
 10
44.59186071078983
 20
217.1012460020881
 30
0.0
 11
44.59186071078983
 21
219.6387460020887
 31
0.0
  0
LINE
  5
8C22
  8
0
 10
42.27186071078967
 20
217.1012460020881
 30
0.0
 11
43.06936071078979
 21
217.1012460020881
 31
0.0
  0
LINE
  5
8C23
  8
0
 10
42.27186071078967
 20
219.6387460020887
 30
0.0
 11
43.06936071078979
 21
219.6387460020887
 31
0.0
  0
LINE
  5
8C24
  8
0
 10
43.06936071078979
 20
219.6387460020887
 30
0.0
 11
43.06936071078979
 21
218.7687460020885
 31
0.0
  0
LINE
  5
8C25
  8
0
 10
43.5768607107895
 20
219.6387460020887
 30
0.0
 11
43.5768607107895
 21
218.7687460020885
 31
0.0
  0
LINE
  5
8C26
  8
0
 10
43.06936071078979
 20
217.1012460020881
 30
0.0
 11
43.06936071078979
 21
217.971246002088
 31
0.0
  0
LINE
  5
8C27
  8
0
 10
43.5768607107895
 20
217.1012460020881
 30
0.0
 11
43.5768607107895
 21
217.971246002088
 31
0.0
  0
LINE
  5
8C28
  8
0
 10
43.5768607107895
 20
219.6387460020887
 30
0.0
 11
44.37436071078963
 21
219.6387460020887
 31
0.0
  0
LINE
  5
8C29
  8
0
 10
43.5768607107895
 20
217.1012460020881
 30
0.0
 11
44.37436071078963
 21
217.1012460020881
 31
0.0
  0
LINE
  5
8C2A
  8
0
 10
43.06936071078979
 20
218.7687460020885
 30
0.0
 11
43.5768607107895
 21
218.7687460020885
 31
0.0
  0
LINE
  5
8C2B
  8
0
 10
43.06936071078979
 20
217.971246002088
 30
0.0
 11
43.5768607107895
 21
217.971246002088
 31
0.0
  0
LINE
  5
8C2C
  8
0
 10
45.3893607107895
 20
217.1012460020881
 30
0.0
 11
45.3893607107895
 21
219.6387460020887
 31
0.0
  0
LINE
  5
8C2D
  8
0
 10
45.6068607107897
 20
217.1012460020881
 30
0.0
 11
45.6068607107897
 21
219.6387460020887
 31
0.0
  0
LINE
  5
8C2E
  8
0
 10
44.59186071078983
 20
219.6387460020887
 30
0.0
 11
45.3893607107895
 21
219.6387460020887
 31
0.0
  0
LINE
  5
8C2F
  8
0
 10
44.59186071078983
 20
217.1012460020881
 30
0.0
 11
45.3893607107895
 21
217.1012460020881
 31
0.0
  0
LINE
  5
8C30
  8
0
 10
47.70936071078967
 20
217.1012460020881
 30
0.0
 11
47.70936071078967
 21
217.681246002088
 31
0.0
  0
LINE
  5
8C31
  8
0
 10
47.70936071078967
 20
219.0587460020887
 30
0.0
 11
47.70936071078967
 21
219.6387460020887
 31
0.0
  0
LINE
  5
8C32
  8
0
 10
45.6068607107897
 20
217.1012460020881
 30
0.0
 11
46.40436071078983
 21
217.1012460020881
 31
0.0
  0
LINE
  5
8C33
  8
0
 10
45.6068607107897
 20
219.6387460020887
 30
0.0
 11
46.40436071078983
 21
219.6387460020887
 31
0.0
  0
LINE
  5
8C34
  8
0
 10
46.40436071078983
 20
219.6387460020887
 30
0.0
 11
46.40436071078983
 21
218.7687460020885
 31
0.0
  0
LINE
  5
8C35
  8
0
 10
46.91186071078954
 20
219.6387460020887
 30
0.0
 11
46.91186071078954
 21
219.0587460020887
 31
0.0
  0
LINE
  5
8C36
  8
0
 10
46.40436071078983
 20
217.1012460020881
 30
0.0
 11
46.40436071078983
 21
217.971246002088
 31
0.0
  0
LINE
  5
8C37
  8
0
 10
46.91186071078954
 20
217.1012460020881
 30
0.0
 11
46.91186071078954
 21
217.681246002088
 31
0.0
  0
ARC
  5
8C38
  8
0
 10
46.62186071078958
 20
217.681246002088
 30
0.0
 40
0.29
 50
0.0
 51
90.0
  0
ARC
  5
8C39
  8
0
 10
46.62186071078958
 20
217.681246002088
 30
0.0
 40
1.0875
 50
0.0
 51
39.29648023919504
  0
LINE
  5
8C3A
  8
0
 10
46.91186071078954
 20
219.6387460020887
 30
0.0
 11
47.70936071078967
 21
219.6387460020887
 31
0.0
  0
LINE
  5
8C3B
  8
0
 10
46.91186071078954
 20
217.1012460020881
 30
0.0
 11
47.70936071078967
 21
217.1012460020881
 31
0.0
  0
LINE
  5
8C3C
  8
0
 10
46.40436071078983
 20
218.7687460020885
 30
0.0
 11
46.62186071078958
 21
218.7687460020885
 31
0.0
  0
ARC
  5
8C3D
  8
0
 10
46.62186071078958
 20
219.0587460020887
 30
0.0
 40
0.29
 50
270.0
 51
0.0
  0
ARC
  5
8C3E
  8
0
 10
46.62186071078958
 20
219.0587460020887
 30
0.0
 40
1.0875
 50
320.7035197608241
 51
0.0
  0
LINE
  5
8C3F
  8
0
 10
46.40436071078983
 20
217.971246002088
 30
0.0
 11
46.62186071078958
 21
217.971246002088
 31
0.0
  0
LINE
  5
8C40
  8
0
 10
47.92686071078987
 20
217.1012460020881
 30
0.0
 11
47.92686071078987
 21
218.587496002088
 31
0.0
  0
LINE
  5
8C41
  8
0
 10
50.02936071078983
 20
217.1012460020881
 30
0.0
 11
50.02936071078983
 21
218.587496002088
 31
0.0
  0
LINE
  5
8C42
  8
0
 10
47.92686071078987
 20
217.1012460020881
 30
0.0
 11
48.72436071078954
 21
217.1012460020881
 31
0.0
  0
LINE
  5
8C43
  8
0
 10
48.72436071078954
 20
217.1012460020881
 30
0.0
 11
48.72436071078954
 21
217.6087460020878
 31
0.0
  0
LINE
  5
8C44
  8
0
 10
49.2318607107897
 20
217.1012460020881
 30
0.0
 11
49.2318607107897
 21
217.6087460020878
 31
0.0
  0
LINE
  5
8C45
  8
0
 10
49.2318607107897
 20
217.1012460020881
 30
0.0
 11
50.02936071078983
 21
217.1012460020881
 31
0.0
  0
LINE
  5
8C46
  8
0
 10
48.72436071078954
 20
217.6087460020878
 30
0.0
 11
49.2318607107897
 21
217.6087460020878
 31
0.0
  0
LINE
  5
8C47
  8
0
 10
48.72436071078954
 20
218.3337460020881
 30
0.0
 11
49.2318607107897
 21
218.3337460020881
 31
0.0
  0
ARC
  5
8C48
  8
0
 10
48.97811071078985
 20
218.587496002088
 30
0.0
 40
1.05125
 50
0.0
 51
180.0
  0
ARC
  5
8C49
  8
0
 10
48.97811071078985
 20
218.587496002088
 30
0.0
 40
0.25375
 50
0.0
 51
180.0
  0
LINE
  5
8C4A
  8
0
 10
48.72436071078954
 20
218.3337460020881
 30
0.0
 11
48.72436071078954
 21
218.587496002088
 31
0.0
  0
LINE
  5
8C4B
  8
0
 10
49.2318607107897
 20
218.587496002088
 30
0.0
 11
49.2318607107897
 21
218.3337460020881
 31
0.0
  0
LINE
  5
8C4C
  8
0
 10
50.24686071078958
 20
217.1012460020881
 30
0.0
 11
50.24686071078958
 21
219.6387460020887
 31
0.0
  0
LINE
  5
8C4D
  8
0
 10
52.34936071078954
 20
217.1012460020881
 30
0.0
 11
52.34936071078954
 21
217.681246002088
 31
0.0
  0
LINE
  5
8C4E
  8
0
 10
50.24686071078958
 20
217.1012460020881
 30
0.0
 11
51.0443607107897
 21
217.1012460020881
 31
0.0
  0
LINE
  5
8C4F
  8
0
 10
51.18936071078969
 20
217.8987460020882
 30
0.0
 11
51.33436071078967
 21
217.8987460020882
 31
0.0
  0
LINE
  5
8C50
  8
0
 10
51.18936071078969
 20
218.4787460020886
 30
0.0
 11
51.33436071078967
 21
218.4787460020886
 31
0.0
  0
LINE
  5
8C51
  8
0
 10
51.0443607107897
 20
217.1012460020881
 30
0.0
 11
51.0443607107897
 21
218.9137460020883
 31
0.0
  0
LINE
  5
8C52
  8
0
 10
51.55186071078987
 20
217.1012460020881
 30
0.0
 11
51.55186071078987
 21
217.681246002088
 31
0.0
  0
ARC
  5
8C53
  8
0
 10
51.33436071078967
 20
217.681246002088
 30
0.0
 40
0.2175
 50
0.0
 51
90.0
  0
ARC
  5
8C54
  8
0
 10
51.33436071078967
 20
217.681246002088
 30
0.0
 40
1.015
 50
0.0
 51
30.66296328368444
  0
LINE
  5
8C55
  8
0
 10
50.24686071078958
 20
219.6387460020887
 30
0.0
 11
51.40686071078943
 21
219.6387460020887
 31
0.0
  0
LINE
  5
8C56
  8
0
 10
51.0443607107897
 20
218.9137460020883
 30
0.0
 11
51.33436071078967
 21
218.9137460020883
 31
0.0
  0
LINE
  5
8C57
  8
0
 10
51.55186071078987
 20
217.1012460020881
 30
0.0
 11
52.34936071078954
 21
217.1012460020881
 31
0.0
  0
ARC
  5
8C58
  8
0
 10
51.33436071078967
 20
218.6962460020883
 30
0.0
 40
0.2175
 50
270.0
 51
90.0
  0
ARC
  5
8C59
  8
0
 10
51.40686071078943
 20
218.6962460020883
 30
0.0
 40
0.9425
 50
328.1493895340829
 51
90.0
  0
LINE
  5
8C5A
  8
0
 10
51.18936071078969
 20
218.4787460020886
 30
0.0
 11
51.18936071078969
 21
217.8987460020882
 31
0.0
  0
LINE
  5
8C5B
  8
0
 10
52.56686071078974
 20
217.1012460020881
 30
0.0
 11
52.56686071078974
 21
219.6387460020887
 31
0.0
  0
LINE
  5
8C5C
  8
0
 10
53.36436071078987
 20
217.1012460020881
 30
0.0
 11
53.36436071078987
 21
219.6387460020887
 31
0.0
  0
LINE
  5
8C5D
  8
0
 10
56.2643607107895
 20
217.1374960020882
 30
0.0
 11
56.2643607107895
 21
218.587496002088
 31
0.0
  0
LINE
  5
8C5E
  8
0
 10
52.56686071078974
 20
219.6387460020887
 30
0.0
 11
53.36436071078987
 21
219.6387460020887
 31
0.0
  0
LINE
  5
8C5F
  8
0
 10
52.56686071078974
 20
217.1012460020881
 30
0.0
 11
53.36436071078987
 21
217.1012460020881
 31
0.0
  0
ARC
  5
8C60
  8
0
 10
55.53936071078959
 20
218.3699960020882
 30
0.0
 40
1.305
 50
84.27518954777628
 51
281.4211862750073
  0
ARC
  5
8C61
  8
0
 10
55.53936071078959
 20
218.3699960020882
 30
0.0
 40
0.5075000000000001
 50
84.27518954777645
 51
270.0
  0
CIRCLE
  5
8C62
  8
0
 10
57.78686071078954
 20
218.3699960020882
 30
0.0
 40
1.305
  0
CIRCLE
  5
8C63
  8
0
 10
57.78686071078954
 20
218.3699960020882
 30
0.0
 40
0.5075000000000001
  0
LINE
  5
8C64
  8
0
 10
55.53936071078959
 20
217.8624960020885
 30
0.0
 11
55.53936071078959
 21
218.587496002088
 31
0.0
  0
LINE
  5
8C65
  8
0
 10
55.53936071078959
 20
218.587496002088
 30
0.0
 11
56.2643607107895
 21
218.587496002088
 31
0.0
  0
LINE
  5
8C66
  8
0
 10
55.79777655237393
 20
217.090837586247
 30
0.0
 11
56.2643607107895
 21
217.1374960020882
 31
0.0
  0
LINE
  5
8C67
  8
0
 10
55.66953527438062
 20
219.6684872739087
 30
0.0
 11
56.2643607107895
 21
219.6387460020887
 31
0.0
  0
LINE
  5
8C68
  8
0
 10
56.2643607107895
 20
219.6387460020887
 30
0.0
 11
56.2643607107895
 21
218.8412460020881
 31
0.0
  0
LINE
  5
8C69
  8
0
 10
56.2643607107895
 20
218.8412460020881
 30
0.0
 11
55.5899841521861
 21
218.874964830019
 31
0.0
  0
LINE
  5
8C6A
  8
0
 10
59.30936071078958
 20
217.1012460020881
 30
0.0
 11
59.30936071078958
 21
219.6387460020887
 31
0.0
  0
LINE
  5
8C6B
  8
0
 10
61.41186071078954
 20
217.1012460020881
 30
0.0
 11
61.41186071078954
 21
217.681246002088
 31
0.0
  0
LINE
  5
8C6C
  8
0
 10
61.41186071078954
 20
219.0587460020887
 30
0.0
 11
61.41186071078954
 21
219.6387460020887
 31
0.0
  0
LINE
  5
8C6D
  8
0
 10
59.30936071078958
 20
217.1012460020881
 30
0.0
 11
60.1068607107897
 21
217.1012460020881
 31
0.0
  0
LINE
  5
8C6E
  8
0
 10
59.30936071078958
 20
219.6387460020887
 30
0.0
 11
60.1068607107897
 21
219.6387460020887
 31
0.0
  0
LINE
  5
8C6F
  8
0
 10
60.1068607107897
 20
219.6387460020887
 30
0.0
 11
60.1068607107897
 21
218.7687460020885
 31
0.0
  0
LINE
  5
8C70
  8
0
 10
60.61436071078987
 20
219.6387460020887
 30
0.0
 11
60.61436071078987
 21
219.0587460020887
 31
0.0
  0
LINE
  5
8C71
  8
0
 10
60.1068607107897
 20
217.1012460020881
 30
0.0
 11
60.1068607107897
 21
217.971246002088
 31
0.0
  0
LINE
  5
8C72
  8
0
 10
60.61436071078987
 20
217.1012460020881
 30
0.0
 11
60.61436071078987
 21
217.681246002088
 31
0.0
  0
ARC
  5
8C73
  8
0
 10
60.32436071078945
 20
217.681246002088
 30
0.0
 40
0.29
 50
0.0
 51
90.0
  0
ARC
  5
8C74
  8
0
 10
60.32436071078945
 20
217.681246002088
 30
0.0
 40
1.0875
 50
0.0
 51
39.29648023919504
  0
LINE
  5
8C75
  8
0
 10
60.61436071078987
 20
219.6387460020887
 30
0.0
 11
61.41186071078954
 21
219.6387460020887
 31
0.0
  0
LINE
  5
8C76
  8
0
 10
60.61436071078987
 20
217.1012460020881
 30
0.0
 11
61.41186071078954
 21
217.1012460020881
 31
0.0
  0
LINE
  5
8C77
  8
0
 10
60.1068607107897
 20
218.7687460020885
 30
0.0
 11
60.32436071078945
 21
218.7687460020885
 31
0.0
  0
ARC
  5
8C78
  8
0
 10
60.32436071078945
 20
219.0587460020887
 30
0.0
 40
0.29
 50
270.0
 51
0.0
  0
ARC
  5
8C79
  8
0
 10
60.32436071078945
 20
219.0587460020887
 30
0.0
 40
1.0875
 50
320.7035197608241
 51
0.0
  0
LINE
  5
8C7A
  8
0
 10
60.1068607107897
 20
217.971246002088
 30
0.0
 11
60.32436071078945
 21
217.971246002088
 31
0.0
  0
LINE
  5
8C7B
  8
0
 10
61.62936071078974
 20
217.1012460020881
 30
0.0
 11
61.62936071078974
 21
219.6387460020887
 31
0.0
  0
LINE
  5
8C7C
  8
0
 10
62.42686071078987
 20
217.1012460020881
 30
0.0
 11
62.42686071078987
 21
219.6387460020887
 31
0.0
  0
LINE
  5
8C7D
  8
0
 10
61.62936071078974
 20
219.6387460020887
 30
0.0
 11
62.42686071078987
 21
219.6387460020887
 31
0.0
  0
LINE
  5
8C7E
  8
0
 10
61.62936071078974
 20
217.1012460020881
 30
0.0
 11
62.42686071078987
 21
217.1012460020881
 31
0.0
  0
LINE
  5
8C7F
  8
0
 10
62.64436071078961
 20
217.1012460020881
 30
0.0
 11
62.64436071078961
 21
218.587496002088
 31
0.0
  0
LINE
  5
8C80
  8
0
 10
64.74686071078958
 20
217.1012460020881
 30
0.0
 11
64.74686071078958
 21
218.587496002088
 31
0.0
  0
LINE
  5
8C81
  8
0
 10
62.64436071078961
 20
217.1012460020881
 30
0.0
 11
63.44186071078974
 21
217.1012460020881
 31
0.0
  0
LINE
  5
8C82
  8
0
 10
63.44186071078974
 20
217.1012460020881
 30
0.0
 11
63.44186071078974
 21
218.587496002088
 31
0.0
  0
LINE
  5
8C83
  8
0
 10
63.94936071078945
 20
217.1012460020881
 30
0.0
 11
63.94936071078945
 21
218.587496002088
 31
0.0
  0
LINE
  5
8C84
  8
0
 10
63.94936071078945
 20
217.1012460020881
 30
0.0
 11
64.74686071078958
 21
217.1012460020881
 31
0.0
  0
ARC
  5
8C85
  8
0
 10
63.69561071078959
 20
218.587496002088
 30
0.0
 40
1.05125
 50
0.0
 51
180.0
  0
ARC
  5
8C86
  8
0
 10
63.69561071078959
 20
218.587496002088
 30
0.0
 40
0.25375
 50
0.0
 51
180.0
  0
LINE
  5
8C87
  8
0
 10
56.52186071078967
 20
212.8911378947829
 30
0.0
 11
64.52186071078967
 21
212.8911378947829
 31
0.0
  0
ARC
  5
8C88
  8
0
 10
64.52186071078967
 20
210.8911378947829
 30
0.0
 40
2.0
 50
0.0
 51
90.0
  0
ARC
  5
8C89
  8
0
 10
56.52186071078967
 20
210.8911378947829
 30
0.0
 40
2.0
 50
90.0
 51
180.0
  0
ARC
  5
8C8A
  8
0
 10
64.52186071078967
 20
203.8911378947825
 30
0.0
 40
2.0
 50
270.0
 51
0.0
  0
LINE
  5
8C8B
  8
0
 10
66.52186071078967
 20
203.8911378947825
 30
0.0
 11
66.52186071078967
 21
210.8911378947829
 31
0.0
  0
LINE
  5
8C8C
  8
0
 10
56.52186071078967
 20
201.8911378947825
 30
0.0
 11
64.52186071078967
 21
201.8911378947825
 31
0.0
  0
ARC
  5
8C8D
  8
0
 10
56.52186071078967
 20
203.8911378947825
 30
0.0
 40
2.0
 50
180.0
 51
270.0
  0
LINE
  5
8C8E
  8
0
 10
54.52186071078967
 20
203.8911378947825
 30
0.0
 11
54.52186071078967
 21
210.8911378947829
 31
0.0
  0
CIRCLE
  5
8C8F
  8
0
 10
95.52186071078967
 20
209.8911378947829
 30
0.0
 40
7.499999999999949
  0
CIRCLE
  5
8C90
  8
0
 10
95.52186071078967
 20
209.8911378947829
 30
0.0
 40
8.20000000000001
  0
CIRCLE
  5
8C91
  8
0
 10
95.52186071078967
 20
209.8911378947829
 30
0.0
 40
8.499999999999963
  0
LINE
  5
8C92
  8
0
 10
68.27186071078967
 20
203.8911378947825
 30
0.0
 11
68.27186071078967
 21
215.8911378947829
 31
0.0
  0
LINE
  5
8C93
  8
0
 10
68.57186071078962
 20
203.8911378947825
 30
0.0
 11
68.57186071078962
 21
209.8911378947825
 31
0.0
  0
ARC
  5
8C94
  8
0
 10
70.27186071078967
 20
203.8911378947825
 30
0.0
 40
2.0
 50
180.0
 51
270.0
1001
GENIUS_GENOBJ-N-FIL_13
1002
{
1000
OWNER
1000
GEN
1002
}
1001
GENIUS_GENODEF_13
1002
{
1000
HIER
1070
     0
1002
}
1002
{
1000
MANEDIT
1070
     0
1002
}
1002
{
1000
NOSEL
1070
     0
1002
}
1002
{
1000
BEHIND
1070
     0
1002
}
1002
{
1000
OTHER
1070
     0
1002
}
1002
{
1000
REACTOR
1002
}
  0
ARC
  5
8C95
  8
0
 10
70.27186071078967
 20
203.8911378947825
 30
0.0
 40
1.7
 50
180.0
 51
270.0
1001
GENIUS_GENOBJ-N-FIL_13
1002
{
1000
OWNER
1000
GEN
1002
}
1001
GENIUS_GENODEF_13
1002
{
1000
HIER
1070
     0
1002
}
1002
{
1000
MANEDIT
1070
     0
1002
}
1002
{
1000
NOSEL
1070
     0
1002
}
1002
{
1000
BEHIND
1070
     0
1002
}
1002
{
1000
OTHER
1070
     0
1002
}
1002
{
1000
REACTOR
1002
}
  0
LINE
  5
8C96
  8
0
 10
86.27186071078876
 20
203.8911378947825
 30
0.0
 11
86.27186071078876
 21
215.891137894782
 31
0.0
  0
LINE
  5
8C97
  8
0
 10
85.9718607107888
 20
203.8911378947825
 30
0.0
 11
85.9718607107888
 21
209.8911378947825
 31
0.0
  0
ARC
  5
8C98
  8
0
 10
84.27186071078876
 20
215.891137894782
 30
0.0
 40
2.0
 50
0.0
 51
90.0
1001
GENIUS_GENODEF_13
1002
{
1000
HIER
1070
     0
1002
}
1002
{
1000
MANEDIT
1070
     0
1002
}
1002
{
1000
NOSEL
1070
     0
1002
}
1002
{
1000
BEHIND
1070
     0
1002
}
1002
{
1000
OTHER
1070
     0
1002
}
1002
{
1000
REACTOR
1002
}
1001
GENIUS_GENOBJ-N-FIL_13
1002
{
1000
OWNER
1000
GEN
1002
}
  0
INSERT
  5
8C99
  8
0
  2
*X14
 10
0.0
 20
0.0
 30
0.0
  0
LINE
  5
8C9A
  8
0
 10
86.27186071078876
 20
209.8911378947825
 30
0.0
 11
68.27186071078967
 21
209.8911378947825
 31
0.0
  0
CIRCLE
  5
8C9B
  8
0
 10
77.47347425020479
 20
213.8911378947829
 30
0.0
 40
2.0
  0
LINE
  5
8C9C
  8
0
 10
84.27186071078876
 20
217.891137894782
 30
0.0
 11
70.27186071078967
 21
217.8911378947829
 31
0.0
  0
ARC
  5
8C9D
  8
0
 10
70.27186071078967
 20
215.8911378947829
 30
0.0
 40
2.0
 50
90.0
 51
180.0
1001
GENIUS_GENOBJ-N-FIL_13
1002
{
1000
OWNER
1000
GEN
1002
}
1001
GENIUS_GENODEF_13
1002
{
1000
HIER
1070
     0
1002
}
1002
{
1000
MANEDIT
1070
     0
1002
}
1002
{
1000
NOSEL
1070
     0
1002
}
1002
{
1000
BEHIND
1070
     0
1002
}
1002
{
1000
OTHER
1070
     0
1002
}
1002
{
1000
REACTOR
1002
}
  0
LINE
  5
8C9E
  8
0
 10
84.27186071078876
 20
201.8911378947825
 30
0.0
 11
70.27186071078967
 21
201.8911378947825
 31
0.0
  0
LINE
  5
8C9F
  8
0
 10
84.27186071078876
 20
202.1911378947824
 30
0.0
 11
70.27186071078967
 21
202.1911378947824
 31
0.0
  0
ARC
  5
8CA0
  8
0
 10
84.27186071078876
 20
203.8911378947825
 30
0.0
 40
2.0
 50
270.0
 51
0.0
1001
GENIUS_GENODEF_13
1002
{
1000
HIER
1070
     0
1002
}
1002
{
1000
MANEDIT
1070
     0
1002
}
1002
{
1000
NOSEL
1070
     0
1002
}
1002
{
1000
BEHIND
1070
     0
1002
}
1002
{
1000
OTHER
1070
     0
1002
}
1002
{
1000
REACTOR
1002
}
1001
GENIUS_GENOBJ-N-FIL_13
1002
{
1000
OWNER
1000
GEN
1002
}
  0
ARC
  5
8CA1
  8
0
 10
84.27186071078876
 20
203.8911378947825
 30
0.0
 40
1.7
 50
270.0
 51
0.0
1001
GENIUS_GENODEF_13
1002
{
1000
HIER
1070
     0
1002
}
1002
{
1000
MANEDIT
1070
     0
1002
}
1002
{
1000
NOSEL
1070
     0
1002
}
1002
{
1000
BEHIND
1070
     0
1002
}
1002
{
1000
OTHER
1070
     0
1002
}
1002
{
1000
REACTOR
1002
}
1001
GENIUS_GENOBJ-N-FIL_13
1002
{
1000
OWNER
1000
GEN
1002
}
  0
TEXT
  5
8CA2
  8
0
 10
69.3477315003642
 20
212.9769758663352
 30
0.0
 40
1.9
  1
給水
  0
TEXT
  5
8CA3
  8
0
 10
89.3430109890828
 20
207.9715336894645
 30
0.0
 40
4.0
  1
PUSH
 41
1.2
  0
TEXT
  5
8CA4
  8
0
 10
42.15052490373957
 20
220.345840397551
 30
0.0
 40
1.8
  1
電動水抜操作盤
  0
TEXT
  5
8CA5
  8
0
 10
42.07371599835924
 20
214.4200519003337
 30
0.0
 40
1.8
  1
ER2000
  0
TEXT
  5
8CA7
  8
0
 10
44.4730275370999
 20
198.556720681139
 30
0.0
 40
1.3
  1
冬期以外(凍結の心配がない期間)や長期間使用しないときは電源をOFFにしてください
  0
CIRCLE
  5
8CAA
  8
0
 10
42.83879638719458
 20
198.5903722225791
 30
0.0
 40
0.1
  0
LINE
  5
8CAB
  8
0
 10
42.73879638719467
 20
199.5903722225791
 30
0.0
 11
42.78923886507067
 21
198.8337350544386
 31
0.0
  0
LINE
  5
8CAC
  8
0
 10
42.93879638719494
 20
199.5903722225791
 30
0.0
 11
42.88835390931848
 21
198.8337350544367
 31
0.0
  0
ARC
  5
8CAD
  8
0
 10
42.83879638719458
 20
199.5903722225791
 30
0.0
 40
0.1
 50
0.0
 51
180.0
  0
ARC
  5
8CAE
  8
0
 10
42.83879638719458
 20
198.8403722225791
 30
0.0
 40
0.05
 50
187.6281496672678
 51
352.3718503306272
  0
TEXT
  5
8CB2
  8
0
 10
55.65609498313673
 20
203.1068572884691
 30
0.0
 40
1.9
  1
点検
  0
CIRCLE
  5
8CB3
  8
0
 10
82.52186071079012
 20
205.8911378947828
 30
0.0
 40
2.0
  0
CIRCLE
  5
8CB4
  8
0
 10
82.52186071079012
 20
205.8911378947828
 30
0.0
 40
1.5
  0
CIRCLE
  5
8CB5
  8
0
 10
82.52186071079012
 20
213.8911378947828
 30
0.0
 40
2.0
  0
CIRCLE
  5
8CB6
  8
0
 10
82.52186071079012
 20
213.8911378947828
 30
0.0
 40
1.5
  0
ARC
  5
8CB7
  8
0
 10
64.27349690451783
 20
204.4584536602055
 30
0.0
 40
0.9999999999999992
 50
233.0491207032591
 51
57.32628399712605
  0
LINE
  5
8CB8
  8
0
 10
63.67236678704725
 20
203.6593024968643
 30
0.0
 11
58.96523257543265
 21
207.2000595793472
 31
0.0
  0
LINE
  5
8CB9
  8
0
 10
59.85525242607744
 20
208.480044008816
 30
0.0
 11
64.81335113157996
 21
205.3002121846789
 31
0.0
  0
ARC
  5
8CBA
  8
0
 10
57.4056013318804
 20
209.2339519014899
 30
0.0
 40
1.99079584716086
 50
1.683229077249547
 51
160.7903378653517
  0
ARC
  5
8CBB
  8
0
 10
60.39510665314
 20
209.3218025332892
 30
0.0
 40
0.9999999999999992
 50
181.6832290772424
 51
237.326283997126
1001
GENIUS_GENODEF_13
1002
{
1000
HIER
1070
     0
1002
}
1002
{
1000
MANEDIT
1070
     0
1002
}
1002
{
1000
NOSEL
1070
     0
1002
}
1002
{
1000
BEHIND
1070
     0
1002
}
1002
{
1000
OTHER
1070
     0
1002
}
1002
{
1000
REACTOR
1002
}
1001
GENIUS_GENOBJ-N-FIL_13
1002
{
1000
OWNER
1000
GEN
1002
}
  0
ARC
  5
8CBC
  8
0
 10
57.4056013318804
 20
209.2339519014899
 30
0.0
 40
1.99079584716086
 50
219.5850668351122
 51
288.6921756231417
  0
ARC
  5
8CBD
  8
0
 10
58.36410245796245
 20
206.4009084160058
 30
0.0
 40
0.9999999999999992
 50
53.04912070325908
 51
108.6921756231419
1001
GENIUS_GENOBJ-N-FIL_13
1002
{
1000
OWNER
1000
GEN
1002
}
1001
GENIUS_GENODEF_13
1002
{
1000
HIER
1070
     0
1002
}
1002
{
1000
MANEDIT
1070
     0
1002
}
1002
{
1000
NOSEL
1070
     0
1002
}
1002
{
1000
BEHIND
1070
     0
1002
}
1002
{
1000
OTHER
1070
     0
1002
}
1002
{
1000
REACTOR
1002
}
  0
LINE
  5
8CBE
  8
0
 10
57.96654585710505
 20
209.3347574609664
 30
0.0
 11
57.58409148041201
 21
208.2731645409266
 31
0.0
  0
LINE
  5
8CBF
  8
0
 10
57.58409148041201
 20
208.2731645409266
 30
0.0
 11
55.87133608188213
 21
207.9653707067213
 31
0.0
  0
LINE
  5
8CC0
  8
0
 10
57.96654585710493
 20
209.3347574609671
 30
0.0
 11
57.23840660821821
 21
210.1967691269915
 31
0.0
  0
LINE
  5
8CC1
  8
0
 10
57.23840660821821
 20
210.1967691269915
 30
0.0
 11
55.52565120968808
 21
209.8889752927859
 31
0.0
  0
CIRCLE
  5
8CC2
  8
0
 10
64.27349690451783
 20
204.4584536602055
 30
0.0
 40
0.4999999999999996
  0
LINE
  5
8CC3
  8
0
 10
42.53437110525482
 20
212.5722728947825
 30
0.0
 11
44.87115260525485
 21
212.5722728947825
 31
0.0
  0
LINE
  5
8CC4
  8
0
 10
44.87115260525485
 20
212.5722728947825
 30
0.0
 11
44.87115260525485
 21
212.9062567947825
 31
0.0
  0
LINE
  5
8CC5
  8
0
 10
44.87115260525485
 20
212.9062567947825
 30
0.0
 11
42.53437110525482
 21
212.9062567947825
 31
0.0
  0
LINE
  5
8CC6
  8
0
 10
42.53437110525482
 20
212.9062567947825
 30
0.0
 11
42.53437110525482
 21
212.5722728947825
 31
0.0
  0
LINE
  5
8CC7
  8
0
 10
45.5387461052548
 20
212.5722728947825
 30
0.0
 11
46.53996060525481
 21
212.5722728947825
 31
0.0
  0
LINE
  5
8CC8
  8
0
 10
46.53996060525481
 20
212.5722728947825
 30
0.0
 11
46.53996060525481
 21
212.9062567947825
 31
0.0
  0
LINE
  5
8CC9
  8
0
 10
46.53996060525481
 20
212.9062567947825
 30
0.0
 11
45.5387461052548
 21
212.9062567947825
 31
0.0
  0
LINE
  5
8CCA
  8
0
 10
45.5387461052548
 20
212.9062567947825
 30
0.0
 11
45.5387461052548
 21
212.5722728947825
 31
0.0
  0
LINE
  5
8CCB
  8
0
 10
47.20751610525485
 20
212.5722728947825
 30
0.0
 11
47.54150000525482
 21
212.5722728947825
 31
0.0
  0
LINE
  5
8CCC
  8
0
 10
47.54150000525482
 20
212.5722728947825
 30
0.0
 11
47.54150000525482
 21
212.9062567947825
 31
0.0
  0
LINE
  5
8CCD
  8
0
 10
47.54150000525482
 20
212.9062567947825
 30
0.0
 11
47.20751610525485
 21
212.9062567947825
 31
0.0
  0
LINE
  5
8CCE
  8
0
 10
47.20751610525485
 20
212.9062567947825
 30
0.0
 11
47.20751610525485
 21
212.5722728947825
 31
0.0
  0
LINE
  5
8CCF
  8
0
 10
47.87508110525482
 20
212.5722728947825
 30
0.0
 11
48.20906595525483
 21
212.5722728947825
 31
0.0
  0
LINE
  5
8CD0
  8
0
 10
48.20906595525483
 20
212.5722728947825
 30
0.0
 11
48.20906595525483
 21
212.9062567947825
 31
0.0
  0
LINE
  5
8CD1
  8
0
 10
48.20906595525483
 20
212.9062567947825
 30
0.0
 11
47.87508110525482
 21
212.9062567947825
 31
0.0
  0
LINE
  5
8CD2
  8
0
 10
47.87508110525482
 20
212.9062567947825
 30
0.0
 11
47.87508110525482
 21
212.5722728947825
 31
0.0
  0
LINE
  5
8CD3
  8
0
 10
48.54274110525483
 20
212.5722728947825
 30
0.0
 11
48.87672595525481
 21
212.5722728947825
 31
0.0
  0
LINE
  5
8CD4
  8
0
 10
48.87672595525481
 20
212.5722728947825
 30
0.0
 11
48.87672595525481
 21
212.9062567947825
 31
0.0
  0
LINE
  5
8CD5
  8
0
 10
48.87672595525481
 20
212.9062567947825
 30
0.0
 11
48.54274110525483
 21
212.9062567947825
 31
0.0
  0
LINE
  5
8CD6
  8
0
 10
48.54274110525483
 20
212.9062567947825
 30
0.0
 11
48.54274110525483
 21
212.5722728947825
 31
0.0
  0
LINE
  5
8CD7
  8
0
 10
49.87749110525482
 20
212.5722728947825
 30
0.0
 11
50.21147500525484
 21
212.5722728947825
 31
0.0
  0
LINE
  5
8CD8
  8
0
 10
50.21147500525484
 20
212.5722728947825
 30
0.0
 11
50.21147500525484
 21
212.9062567947825
 31
0.0
  0
LINE
  5
8CD9
  8
0
 10
50.21147500525484
 20
212.9062567947825
 30
0.0
 11
49.87749110525482
 21
212.9062567947825
 31
0.0
  0
LINE
  5
8CDA
  8
0
 10
49.87749110525482
 20
212.9062567947825
 30
0.0
 11
49.87749110525482
 21
212.5722728947825
 31
0.0
  0
LINE
  5
8CDC
  8
0
 10
51.54708000525483
 20
212.5722728947825
 30
0.0
 11
53.21550610525483
 21
212.5722728947825
 31
0.0
  0
LINE
  5
8CDD
  8
0
 10
53.54987760525484
 20
210.5691028947825
 30
0.0
 11
53.54987760525484
 21
212.9062567947825
 31
0.0
  0
LINE
  5
8CDE
  8
0
 10
53.54987760525484
 20
212.9062567947825
 30
0.0
 11
51.21309610525483
 21
212.9062567947825
 31
0.0
  0
LINE
  5
8CDF
  8
0
 10
51.21309610525483
 20
212.9062567947825
 30
0.0
 11
51.21309610525483
 21
210.5691028947825
 31
0.0
  0
LINE
  5
8CE0
  8
0
 10
42.53437110525482
 20
212.2383478947825
 30
0.0
 11
42.86872645525483
 21
212.2383478947825
 31
0.0
  0
LINE
  5
8CE1
  8
0
 10
42.86872645525483
 20
212.2383478947825
 30
0.0
 11
42.86872645525483
 21
212.5723327447825
 31
0.0
  0
LINE
  5
8CE2
  8
0
 10
42.86872645525483
 20
212.5723327447825
 30
0.0
 11
42.53437110525482
 21
212.5723327447825
 31
0.0
  0
LINE
  5
8CE3
  8
0
 10
42.53437110525482
 20
212.5723327447825
 30
0.0
 11
42.53437110525482
 21
212.2383478947825
 31
0.0
  0
LINE
  5
8CE4
  8
0
 10
44.53744610525482
 20
212.2383478947825
 30
0.0
 11
44.87143000525481
 21
212.2383478947825
 31
0.0
  0
LINE
  5
8CE5
  8
0
 10
44.87143000525481
 20
212.2383478947825
 30
0.0
 11
44.87143000525481
 21
212.5723327447825
 31
0.0
  0
LINE
  5
8CE6
  8
0
 10
44.87143000525481
 20
212.5723327447825
 30
0.0
 11
44.53744610525482
 21
212.5723327447825
 31
0.0
  0
LINE
  5
8CE7
  8
0
 10
44.53744610525482
 20
212.5723327447825
 30
0.0
 11
44.53744610525482
 21
212.2383478947825
 31
0.0
  0
LINE
  5
8CE8
  8
0
 10
45.20510610525483
 20
212.2383478947825
 30
0.0
 11
46.20669110525483
 21
212.2383478947825
 31
0.0
  0
LINE
  5
8CE9
  8
0
 10
46.20669110525483
 20
212.2383478947825
 30
0.0
 11
46.20669110525483
 21
212.5723327447825
 31
0.0
  0
LINE
  5
8CEA
  8
0
 10
46.20669110525483
 20
212.5723327447825
 30
0.0
 11
45.20510610525483
 21
212.5723327447825
 31
0.0
  0
LINE
  5
8CEB
  8
0
 10
45.20510610525483
 20
212.5723327447825
 30
0.0
 11
45.20510610525483
 21
212.2383478947825
 31
0.0
  0
LINE
  5
8CEC
  8
0
 10
46.54033110525484
 20
212.2383478947825
 30
0.0
 11
47.54154560525484
 21
212.2383478947825
 31
0.0
  0
LINE
  5
8CED
  8
0
 10
47.54154560525484
 20
212.2383478947825
 30
0.0
 11
47.54154560525484
 21
212.5723327447825
 31
0.0
  0
LINE
  5
8CEE
  8
0
 10
47.54154560525484
 20
212.5723327447825
 30
0.0
 11
46.54033110525484
 21
212.5723327447825
 31
0.0
  0
LINE
  5
8CEF
  8
0
 10
46.54033110525484
 20
212.5723327447825
 30
0.0
 11
46.54033110525484
 21
212.2383478947825
 31
0.0
  0
LINE
  5
8CF0
  8
0
 10
48.20910110525483
 20
212.2383478947825
 30
0.0
 11
48.54308500525482
 21
212.2383478947825
 31
0.0
  0
LINE
  5
8CF1
  8
0
 10
48.54308500525482
 20
212.2383478947825
 30
0.0
 11
48.54308500525482
 21
212.5723327447825
 31
0.0
  0
LINE
  5
8CF2
  8
0
 10
48.54308500525482
 20
212.5723327447825
 30
0.0
 11
48.20910110525483
 21
212.5723327447825
 31
0.0
  0
LINE
  5
8CF3
  8
0
 10
48.20910110525483
 20
212.5723327447825
 30
0.0
 11
48.20910110525483
 21
212.2383478947825
 31
0.0
  0
LINE
  5
8CF4
  8
0
 10
49.20992610525485
 20
212.2383478947825
 30
0.0
 11
49.54428145525483
 21
212.2383478947825
 31
0.0
  0
LINE
  5
8CF5
  8
0
 10
49.54428145525483
 20
212.2383478947825
 30
0.0
 11
49.54428145525483
 21
212.5723327447825
 31
0.0
  0
LINE
  5
8CF6
  8
0
 10
49.54428145525483
 20
212.5723327447825
 30
0.0
 11
49.20992610525485
 21
212.5723327447825
 31
0.0
  0
LINE
  5
8CF7
  8
0
 10
49.20992610525485
 20
212.5723327447825
 30
0.0
 11
49.20992610525485
 21
212.2383478947825
 31
0.0
  0
LINE
  5
8CF8
  8
0
 10
49.87749110525482
 20
212.2383478947825
 30
0.0
 11
50.21147500525484
 21
212.2383478947825
 31
0.0
  0
LINE
  5
8CF9
  8
0
 10
50.21147500525484
 20
212.2383478947825
 30
0.0
 11
50.21147500525484
 21
212.5723327447825
 31
0.0
  0
LINE
  5
8CFA
  8
0
 10
50.21147500525484
 20
212.5723327447825
 30
0.0
 11
49.87749110525482
 21
212.5723327447825
 31
0.0
  0
LINE
  5
8CFB
  8
0
 10
49.87749110525482
 20
212.5723327447825
 30
0.0
 11
49.87749110525482
 21
212.2383478947825
 31
0.0
  0
LINE
  5
8CFC
  8
0
 10
50.54591110525482
 20
212.2383478947825
 30
0.0
 11
50.87989595525482
 21
212.2383478947825
 31
0.0
  0
LINE
  5
8CFE
  8
0
 10
50.87989595525482
 20
212.2383032447825
 30
0.0
 11
50.87989595525482
 21
212.5723327447825
 31
0.0
  0
LINE
  5
8CFF
  8
0
 10
50.87989595525482
 20
212.5723327447825
 30
0.0
 11
50.54591110525482
 21
212.5723327447825
 31
0.0
  0
LINE
  5
8D00
  8
0
 10
50.54591110525482
 20
212.5723327447825
 30
0.0
 11
50.54591110525482
 21
212.2383032447825
 31
0.0
  0
LINE
  5
8D01
  8
0
 10
42.53437110525482
 20
211.9039478947825
 30
0.0
 11
42.86872645525483
 21
211.9039478947825
 31
0.0
  0
LINE
  5
8D02
  8
0
 10
42.86872645525483
 20
211.9039478947825
 30
0.0
 11
42.86872645525483
 21
212.2383032447825
 31
0.0
  0
LINE
  5
8D03
  8
0
 10
42.86872645525483
 20
212.2383032447825
 30
0.0
 11
42.53437110525482
 21
212.2383032447825
 31
0.0
  0
LINE
  5
8D04
  8
0
 10
42.53437110525482
 20
212.2383032447825
 30
0.0
 11
42.53437110525482
 21
211.9039478947825
 31
0.0
  0
LINE
  5
8D05
  8
0
 10
43.20193610525482
 20
211.9039478947825
 30
0.0
 11
44.20352110525482
 21
211.9039478947825
 31
0.0
  0
LINE
  5
8D06
  8
0
 10
44.20352110525482
 20
211.9039478947825
 30
0.0
 11
44.20352110525482
 21
212.2383032447825
 31
0.0
  0
LINE
  5
8D07
  8
0
 10
44.20352110525482
 20
212.2383032447825
 30
0.0
 11
43.20193610525482
 21
212.2383032447825
 31
0.0
  0
LINE
  5
8D08
  8
0
 10
43.20193610525482
 20
212.2383032447825
 30
0.0
 11
43.20193610525482
 21
211.9039478947825
 31
0.0
  0
LINE
  5
8D09
  8
0
 10
44.53744610525482
 20
211.9039478947825
 30
0.0
 11
44.87143000525481
 21
211.9039478947825
 31
0.0
  0
LINE
  5
8D0A
  8
0
 10
44.87143000525481
 20
211.9039478947825
 30
0.0
 11
44.87143000525481
 21
212.2383032447825
 31
0.0
  0
LINE
  5
8D0B
  8
0
 10
44.87143000525481
 20
212.2383032447825
 30
0.0
 11
44.53744610525482
 21
212.2383032447825
 31
0.0
  0
LINE
  5
8D0C
  8
0
 10
44.53744610525482
 20
212.2383032447825
 30
0.0
 11
44.53744610525482
 21
211.9039478947825
 31
0.0
  0
LINE
  5
8D0D
  8
0
 10
45.20510610525483
 20
211.9039478947825
 30
0.0
 11
46.20669110525483
 21
211.9039478947825
 31
0.0
  0
LINE
  5
8D0E
  8
0
 10
46.20669110525483
 20
211.9039478947825
 30
0.0
 11
46.20669110525483
 21
212.2383032447825
 31
0.0
  0
LINE
  5
8D0F
  8
0
 10
46.20669110525483
 20
212.2383032447825
 30
0.0
 11
45.20510610525483
 21
212.2383032447825
 31
0.0
  0
LINE
  5
8D10
  8
0
 10
45.20510610525483
 20
212.2383032447825
 30
0.0
 11
45.20510610525483
 21
211.9039478947825
 31
0.0
  0
LINE
  5
8D11
  8
0
 10
46.54033110525484
 20
211.9039478947825
 30
0.0
 11
47.20755790525482
 21
211.9039478947825
 31
0.0
  0
LINE
  5
8D12
  8
0
 10
47.20755790525482
 20
211.9039478947825
 30
0.0
 11
47.20755790525482
 21
212.2383032447825
 31
0.0
  0
LINE
  5
8D13
  8
0
 10
47.20755790525482
 20
212.2383032447825
 30
0.0
 11
46.54033110525484
 21
212.2383032447825
 31
0.0
  0
LINE
  5
8D14
  8
0
 10
46.54033110525484
 20
212.2383032447825
 30
0.0
 11
46.54033110525484
 21
211.9039478947825
 31
0.0
  0
LINE
  5
8D15
  8
0
 10
47.54153610525481
 20
211.9039478947825
 30
0.0
 11
47.87589145525482
 21
211.9039478947825
 31
0.0
  0
LINE
  5
8D16
  8
0
 10
47.87589145525482
 20
211.9039478947825
 30
0.0
 11
47.87589145525482
 21
212.2383032447825
 31
0.0
  0
LINE
  5
8D17
  8
0
 10
47.87589145525482
 20
212.2383032447825
 30
0.0
 11
47.54153610525481
 21
212.2383032447825
 31
0.0
  0
LINE
  5
8D18
  8
0
 10
47.54153610525481
 20
212.2383032447825
 30
0.0
 11
47.54153610525481
 21
211.9039478947825
 31
0.0
  0
LINE
  5
8D19
  8
0
 10
48.20910110525483
 20
211.9039478947825
 30
0.0
 11
49.21068610525484
 21
211.9039478947825
 31
0.0
  0
LINE
  5
8D1A
  8
0
 10
49.21068610525484
 20
211.9039478947825
 30
0.0
 11
49.21068610525484
 21
212.2383032447825
 31
0.0
  0
LINE
  5
8D1B
  8
0
 10
49.21068610525484
 20
212.2383032447825
 30
0.0
 11
48.20910110525483
 21
212.2383032447825
 31
0.0
  0
LINE
  5
8D1C
  8
0
 10
48.20910110525483
 20
212.2383032447825
 30
0.0
 11
48.20910110525483
 21
211.9039478947825
 31
0.0
  0
LINE
  5
8D1D
  8
0
 10
49.54432610525481
 20
211.9039478947825
 30
0.0
 11
49.87831095525482
 21
211.9039478947825
 31
0.0
  0
LINE
  5
8D1E
  8
0
 10
49.87831095525482
 20
211.9039478947825
 30
0.0
 11
49.87831095525482
 21
212.2383032447825
 31
0.0
  0
LINE
  5
8D1F
  8
0
 10
49.87831095525482
 20
212.2383032447825
 30
0.0
 11
49.54432610525481
 21
212.2383032447825
 31
0.0
  0
LINE
  5
8D20
  8
0
 10
49.54432610525481
 20
212.2383032447825
 30
0.0
 11
49.54432610525481
 21
211.9039478947825
 31
0.0
  0
LINE
  5
8D21
  8
0
 10
50.54591110525482
 20
211.9039478947825
 30
0.0
 11
50.87989595525482
 21
211.9039478947825
 31
0.0
  0
LINE
  5
8D22
  8
0
 10
50.87989595525482
 20
211.9039478947825
 30
0.0
 11
50.87989595525482
 21
212.2383032447825
 31
0.0
  0
LINE
  5
8D23
  8
0
 10
50.87989595525482
 20
212.2383032447825
 30
0.0
 11
50.54591110525482
 21
212.2383032447825
 31
0.0
  0
LINE
  5
8D24
  8
0
 10
50.54591110525482
 20
212.2383032447825
 30
0.0
 11
50.54591110525482
 21
211.9039478947825
 31
0.0
  0
LINE
  5
8D26
  8
0
 10
52.88224610525481
 20
211.2367628947825
 30
0.0
 11
52.88224610525481
 21
212.2383032447825
 31
0.0
  0
LINE
  5
8D27
  8
0
 10
52.88224610525481
 20
212.2383032447825
 30
0.0
 11
51.88066110525483
 21
212.2383032447825
 31
0.0
  0
LINE
  5
8D28
  8
0
 10
51.88066110525483
 20
212.2383032447825
 30
0.0
 11
51.88066110525483
 21
211.2367628947825
 31
0.0
  0
LINE
  5
8D29
  8
0
 10
42.53437110525482
 20
211.5706878947825
 30
0.0
 11
42.86872645525483
 21
211.5706878947825
 31
0.0
  0
LINE
  5
8D2A
  8
0
 10
42.86872645525483
 20
211.5706878947825
 30
0.0
 11
42.86872645525483
 21
211.9046717947825
 31
0.0
  0
LINE
  5
8D2B
  8
0
 10
42.86872645525483
 20
211.9046717947825
 30
0.0
 11
42.53437110525482
 21
211.9046717947825
 31
0.0
  0
LINE
  5
8D2C
  8
0
 10
42.53437110525482
 20
211.9046717947825
 30
0.0
 11
42.53437110525482
 21
211.5706878947825
 31
0.0
  0
LINE
  5
8D2D
  8
0
 10
43.20193610525482
 20
211.5706878947825
 30
0.0
 11
44.20352110525482
 21
211.5706878947825
 31
0.0
  0
LINE
  5
8D2E
  8
0
 10
44.20352110525482
 20
211.5706878947825
 30
0.0
 11
44.20352110525482
 21
211.9046717947825
 31
0.0
  0
LINE
  5
8D2F
  8
0
 10
44.20352110525482
 20
211.9046717947825
 30
0.0
 11
43.20193610525482
 21
211.9046717947825
 31
0.0
  0
LINE
  5
8D30
  8
0
 10
43.20193610525482
 20
211.9046717947825
 30
0.0
 11
43.20193610525482
 21
211.5706878947825
 31
0.0
  0
LINE
  5
8D31
  8
0
 10
44.53744610525482
 20
211.5706878947825
 30
0.0
 11
44.87143000525481
 21
211.5706878947825
 31
0.0
  0
LINE
  5
8D32
  8
0
 10
44.87143000525481
 20
211.5706878947825
 30
0.0
 11
44.87143000525481
 21
211.9046717947825
 31
0.0
  0
LINE
  5
8D33
  8
0
 10
44.87143000525481
 20
211.9046717947825
 30
0.0
 11
44.53744610525482
 21
211.9046717947825
 31
0.0
  0
LINE
  5
8D34
  8
0
 10
44.53744610525482
 20
211.9046717947825
 30
0.0
 11
44.53744610525482
 21
211.5706878947825
 31
0.0
  0
LINE
  5
8D35
  8
0
 10
45.20510610525483
 20
211.5706878947825
 30
0.0
 11
45.53909095525484
 21
211.5706878947825
 31
0.0
  0
LINE
  5
8D36
  8
0
 10
45.53909095525484
 20
211.5706878947825
 30
0.0
 11
45.53909095525484
 21
211.9046717947825
 31
0.0
  0
LINE
  5
8D37
  8
0
 10
45.53909095525484
 20
211.9046717947825
 30
0.0
 11
45.20510610525483
 21
211.9046717947825
 31
0.0
  0
LINE
  5
8D38
  8
0
 10
45.20510610525483
 20
211.9046717947825
 30
0.0
 11
45.20510610525483
 21
211.5706878947825
 31
0.0
  0
LINE
  5
8D39
  8
0
 10
48.87666610525483
 20
211.5706878947825
 30
0.0
 11
49.21065000525482
 21
211.5706878947825
 31
0.0
  0
LINE
  5
8D3A
  8
0
 10
49.21065000525482
 20
211.5706878947825
 30
0.0
 11
49.21065000525482
 21
211.9046717947825
 31
0.0
  0
LINE
  5
8D3B
  8
0
 10
49.21065000525482
 20
211.9046717947825
 30
0.0
 11
48.87666610525483
 21
211.9046717947825
 31
0.0
  0
LINE
  5
8D3C
  8
0
 10
48.87666610525483
 20
211.9046717947825
 30
0.0
 11
48.87666610525483
 21
211.5706878947825
 31
0.0
  0
LINE
  5
8D3D
  8
0
 10
49.54432610525481
 20
211.5706878947825
 30
0.0
 11
50.87915210525483
 21
211.5706878947825
 31
0.0
  0
LINE
  5
8D3E
  8
0
 10
50.87915210525483
 20
211.5706878947825
 30
0.0
 11
50.87915210525483
 21
211.9046717947825
 31
0.0
  0
LINE
  5
8D3F
  8
0
 10
50.87915210525483
 20
211.9046717947825
 30
0.0
 11
49.54432610525481
 21
211.9046717947825
 31
0.0
  0
LINE
  5
8D40
  8
0
 10
49.54432610525481
 20
211.9046717947825
 30
0.0
 11
49.54432610525481
 21
211.5706878947825
 31
0.0
  0
LINE
  5
8D41
  8
0
 10
42.53437110525482
 20
211.2367628947825
 30
0.0
 11
42.86872645525483
 21
211.2367628947825
 31
0.0
  0
LINE
  5
8D42
  8
0
 10
42.86872645525483
 20
211.2367628947825
 30
0.0
 11
42.86872645525483
 21
211.5707477447825
 31
0.0
  0
LINE
  5
8D43
  8
0
 10
42.86872645525483
 20
211.5707477447825
 30
0.0
 11
42.53437110525482
 21
211.5707477447825
 31
0.0
  0
LINE
  5
8D44
  8
0
 10
42.53437110525482
 20
211.5707477447825
 30
0.0
 11
42.53437110525482
 21
211.2367628947825
 31
0.0
  0
LINE
  5
8D45
  8
0
 10
43.20193610525482
 20
211.2367628947825
 30
0.0
 11
44.20352110525482
 21
211.2367628947825
 31
0.0
  0
LINE
  5
8D46
  8
0
 10
44.20352110525482
 20
211.2367628947825
 30
0.0
 11
44.20352110525482
 21
211.5707477447825
 31
0.0
  0
LINE
  5
8D47
  8
0
 10
44.20352110525482
 20
211.5707477447825
 30
0.0
 11
43.20193610525482
 21
211.5707477447825
 31
0.0
  0
LINE
  5
8D48
  8
0
 10
43.20193610525482
 20
211.5707477447825
 30
0.0
 11
43.20193610525482
 21
211.2367628947825
 31
0.0
  0
LINE
  5
8D49
  8
0
 10
44.53744610525482
 20
211.2367628947825
 30
0.0
 11
44.87143000525481
 21
211.2367628947825
 31
0.0
  0
LINE
  5
8D4A
  8
0
 10
44.87143000525481
 20
211.2367628947825
 30
0.0
 11
44.87143000525481
 21
211.5707477447825
 31
0.0
  0
LINE
  5
8D4B
  8
0
 10
44.87143000525481
 20
211.5707477447825
 30
0.0
 11
44.53744610525482
 21
211.5707477447825
 31
0.0
  0
LINE
  5
8D4C
  8
0
 10
44.53744610525482
 20
211.5707477447825
 30
0.0
 11
44.53744610525482
 21
211.2367628947825
 31
0.0
  0
LINE
  5
8D4D
  8
0
 10
45.5387461052548
 20
211.2367628947825
 30
0.0
 11
45.87273095525481
 21
211.2367628947825
 31
0.0
  0
LINE
  5
8D4E
  8
0
 10
45.87273095525481
 20
211.2367628947825
 30
0.0
 11
45.87273095525481
 21
211.5707477447825
 31
0.0
  0
LINE
  5
8D4F
  8
0
 10
45.87273095525481
 20
211.5707477447825
 30
0.0
 11
45.5387461052548
 21
211.5707477447825
 31
0.0
  0
LINE
  5
8D50
  8
0
 10
45.5387461052548
 20
211.5707477447825
 30
0.0
 11
45.5387461052548
 21
211.2367628947825
 31
0.0
  0
LINE
  5
8D51
  8
0
 10
46.20593110525482
 20
211.2367628947825
 30
0.0
 11
47.20751610525485
 21
211.2367628947825
 31
0.0
  0
LINE
  5
8D52
  8
0
 10
47.20751610525485
 20
211.2367628947825
 30
0.0
 11
47.20751610525485
 21
211.5707477447825
 31
0.0
  0
LINE
  5
8D53
  8
0
 10
47.20751610525485
 20
211.5707477447825
 30
0.0
 11
46.20593110525482
 21
211.5707477447825
 31
0.0
  0
LINE
  5
8D54
  8
0
 10
46.20593110525482
 20
211.5707477447825
 30
0.0
 11
46.20593110525482
 21
211.2367628947825
 31
0.0
  0
LINE
  5
8D55
  8
0
 10
47.54153610525481
 20
211.2367628947825
 30
0.0
 11
47.87589145525482
 21
211.2367628947825
 31
0.0
  0
LINE
  5
8D56
  8
0
 10
47.87589145525482
 20
211.2367628947825
 30
0.0
 11
47.87589145525482
 21
211.5707477447825
 31
0.0
  0
LINE
  5
8D57
  8
0
 10
47.87589145525482
 20
211.5707477447825
 30
0.0
 11
47.54153610525481
 21
211.5707477447825
 31
0.0
  0
LINE
  5
8D58
  8
0
 10
47.54153610525481
 20
211.5707477447825
 30
0.0
 11
47.54153610525481
 21
211.2367628947825
 31
0.0
  0
LINE
  5
8D59
  8
0
 10
48.20910110525483
 20
211.2367628947825
 30
0.0
 11
48.87669840525484
 21
211.2367628947825
 31
0.0
  0
LINE
  5
8D5A
  8
0
 10
48.87669840525484
 20
211.2367628947825
 30
0.0
 11
48.87669840525484
 21
211.5707477447825
 31
0.0
  0
LINE
  5
8D5B
  8
0
 10
48.87669840525484
 20
211.5707477447825
 30
0.0
 11
48.20910110525483
 21
211.5707477447825
 31
0.0
  0
LINE
  5
8D5C
  8
0
 10
48.20910110525483
 20
211.5707477447825
 30
0.0
 11
48.20910110525483
 21
211.2367628947825
 31
0.0
  0
LINE
  5
8D5D
  8
0
 10
50.21151110525483
 20
211.2367628947825
 30
0.0
 11
50.54586645525484
 21
211.2367628947825
 31
0.0
  0
LINE
  5
8D5E
  8
0
 10
50.54586645525484
 20
211.2367628947825
 30
0.0
 11
50.54586645525484
 21
211.5707477447825
 31
0.0
  0
LINE
  5
8D5F
  8
0
 10
50.54586645525484
 20
211.5707477447825
 30
0.0
 11
50.21151110525483
 21
211.5707477447825
 31
0.0
  0
LINE
  5
8D60
  8
0
 10
50.21151110525483
 20
211.5707477447825
 30
0.0
 11
50.21151110525483
 21
211.2367628947825
 31
0.0
  0
LINE
  5
8D61
  8
0
 10
51.88066110525483
 20
211.2367628947825
 30
0.0
 11
52.88224610525481
 21
211.2367628947825
 31
0.0
  0
LINE
  5
8D62
  8
0
 10
42.53437110525482
 20
210.9031228947825
 30
0.0
 11
42.86872645525483
 21
210.9031228947825
 31
0.0
  0
LINE
  5
8D63
  8
0
 10
42.86872645525483
 20
210.9031228947825
 30
0.0
 11
42.86872645525483
 21
211.2371077447825
 31
0.0
  0
LINE
  5
8D64
  8
0
 10
42.86872645525483
 20
211.2371077447825
 30
0.0
 11
42.53437110525482
 21
211.2371077447825
 31
0.0
  0
LINE
  5
8D65
  8
0
 10
42.53437110525482
 20
211.2371077447825
 30
0.0
 11
42.53437110525482
 21
210.9031228947825
 31
0.0
  0
LINE
  5
8D66
  8
0
 10
44.53744610525482
 20
210.9031228947825
 30
0.0
 11
44.87143000525481
 21
210.9031228947825
 31
0.0
  0
LINE
  5
8D67
  8
0
 10
44.87143000525481
 20
210.9031228947825
 30
0.0
 11
44.87143000525481
 21
211.2371077447825
 31
0.0
  0
LINE
  5
8D68
  8
0
 10
44.87143000525481
 20
211.2371077447825
 30
0.0
 11
44.53744610525482
 21
211.2371077447825
 31
0.0
  0
LINE
  5
8D69
  8
0
 10
44.53744610525482
 20
211.2371077447825
 30
0.0
 11
44.53744610525482
 21
210.9031228947825
 31
0.0
  0
LINE
  5
8D6A
  8
0
 10
46.87349610525482
 20
210.9031228947825
 30
0.0
 11
47.54109435525484
 21
210.9031228947825
 31
0.0
  0
LINE
  5
8D6B
  8
0
 10
47.54109435525484
 20
210.9031228947825
 30
0.0
 11
47.54109435525484
 21
211.2371077447825
 31
0.0
  0
LINE
  5
8D6C
  8
0
 10
47.54109435525484
 20
211.2371077447825
 30
0.0
 11
46.87349610525482
 21
211.2371077447825
 31
0.0
  0
LINE
  5
8D6D
  8
0
 10
46.87349610525482
 20
211.2371077447825
 30
0.0
 11
46.87349610525482
 21
210.9031228947825
 31
0.0
  0
LINE
  5
8D6E
  8
0
 10
47.87508110525482
 20
210.9031228947825
 30
0.0
 11
48.20906595525483
 21
210.9031228947825
 31
0.0
  0
LINE
  5
8D6F
  8
0
 10
48.20906595525483
 20
210.9031228947825
 30
0.0
 11
48.20906595525483
 21
211.2371077447825
 31
0.0
  0
LINE
  5
8D70
  8
0
 10
48.20906595525483
 20
211.2371077447825
 30
0.0
 11
47.87508110525482
 21
211.2371077447825
 31
0.0
  0
LINE
  5
8D71
  8
0
 10
47.87508110525482
 20
211.2371077447825
 30
0.0
 11
47.87508110525482
 21
210.9031228947825
 31
0.0
  0
LINE
  5
8D72
  8
0
 10
48.54274110525483
 20
210.9031228947825
 30
0.0
 11
48.87672595525481
 21
210.9031228947825
 31
0.0
  0
LINE
  5
8D73
  8
0
 10
48.87672595525481
 20
210.9031228947825
 30
0.0
 11
48.87672595525481
 21
211.2371077447825
 31
0.0
  0
LINE
  5
8D74
  8
0
 10
48.87672595525481
 20
211.2371077447825
 30
0.0
 11
48.54274110525483
 21
211.2371077447825
 31
0.0
  0
LINE
  5
8D75
  8
0
 10
48.54274110525483
 20
211.2371077447825
 30
0.0
 11
48.54274110525483
 21
210.9031228947825
 31
0.0
  0
LINE
  5
8D76
  8
0
 10
49.20992610525485
 20
210.9031228947825
 30
0.0
 11
49.54428145525483
 21
210.9031228947825
 31
0.0
  0
LINE
  5
8D77
  8
0
 10
49.54428145525483
 20
210.9031228947825
 30
0.0
 11
49.54428145525483
 21
211.2371077447825
 31
0.0
  0
LINE
  5
8D78
  8
0
 10
49.54428145525483
 20
211.2371077447825
 30
0.0
 11
49.20992610525485
 21
211.2371077447825
 31
0.0
  0
LINE
  5
8D79
  8
0
 10
49.20992610525485
 20
211.2371077447825
 30
0.0
 11
49.20992610525485
 21
210.9031228947825
 31
0.0
  0
LINE
  5
8D7A
  8
0
 10
51.54708000525483
 20
210.9030867947825
 30
0.0
 11
51.54708000525483
 21
212.5722728947825
 31
0.0
  0
LINE
  5
8D7B
  8
0
 10
53.21550610525483
 20
212.5722728947825
 30
0.0
 11
53.21550610525483
 21
210.9030867947825
 31
0.0
  0
LINE
  5
8D7C
  8
0
 10
42.53437110525482
 20
210.5691028947825
 30
0.0
 11
44.87115260525485
 21
210.5691028947825
 31
0.0
  0
LINE
  5
8D7D
  8
0
 10
44.87115260525485
 20
210.5691028947825
 30
0.0
 11
44.87115260525485
 21
210.9030867947825
 31
0.0
  0
LINE
  5
8D7E
  8
0
 10
44.87115260525485
 20
210.9030867947825
 30
0.0
 11
42.53437110525482
 21
210.9030867947825
 31
0.0
  0
LINE
  5
8D7F
  8
0
 10
42.53437110525482
 20
210.9030867947825
 30
0.0
 11
42.53437110525482
 21
210.5691028947825
 31
0.0
  0
LINE
  5
8D80
  8
0
 10
45.20510610525483
 20
210.5691028947825
 30
0.0
 11
45.53909095525484
 21
210.5691028947825
 31
0.0
  0
LINE
  5
8D81
  8
0
 10
45.53909095525484
 20
210.5691028947825
 30
0.0
 11
45.53909095525484
 21
210.9030867947825
 31
0.0
  0
LINE
  5
8D82
  8
0
 10
45.53909095525484
 20
210.9030867947825
 30
0.0
 11
45.20510610525483
 21
210.9030867947825
 31
0.0
  0
LINE
  5
8D83
  8
0
 10
45.20510610525483
 20
210.9030867947825
 30
0.0
 11
45.20510610525483
 21
210.5691028947825
 31
0.0
  0
LINE
  5
8D84
  8
0
 10
45.87267110525482
 20
210.5691028947825
 30
0.0
 11
46.20665500525485
 21
210.5691028947825
 31
0.0
  0
LINE
  5
8D85
  8
0
 10
46.20665500525485
 20
210.5691028947825
 30
0.0
 11
46.20665500525485
 21
210.9030867947825
 31
0.0
  0
LINE
  5
8D86
  8
0
 10
46.20665500525485
 20
210.9030867947825
 30
0.0
 11
45.87267110525482
 21
210.9030867947825
 31
0.0
  0
LINE
  5
8D87
  8
0
 10
45.87267110525482
 20
210.9030867947825
 30
0.0
 11
45.87267110525482
 21
210.5691028947825
 31
0.0
  0
LINE
  5
8D88
  8
0
 10
46.54033110525484
 20
210.5691028947825
 30
0.0
 11
46.87431500525483
 21
210.5691028947825
 31
0.0
  0
LINE
  5
8D89
  8
0
 10
46.87431500525483
 20
210.5691028947825
 30
0.0
 11
46.87431500525483
 21
210.9030867947825
 31
0.0
  0
LINE
  5
8D8A
  8
0
 10
46.87431500525483
 20
210.9030867947825
 30
0.0
 11
46.54033110525484
 21
210.9030867947825
 31
0.0
  0
LINE
  5
8D8B
  8
0
 10
46.54033110525484
 20
210.9030867947825
 30
0.0
 11
46.54033110525484
 21
210.5691028947825
 31
0.0
  0
LINE
  5
8D8C
  8
0
 10
47.20751610525485
 20
210.5691028947825
 30
0.0
 11
47.54150000525482
 21
210.5691028947825
 31
0.0
  0
LINE
  5
8D8D
  8
0
 10
47.54150000525482
 20
210.5691028947825
 30
0.0
 11
47.54150000525482
 21
210.9030867947825
 31
0.0
  0
LINE
  5
8D8E
  8
0
 10
47.54150000525482
 20
210.9030867947825
 30
0.0
 11
47.20751610525485
 21
210.9030867947825
 31
0.0
  0
LINE
  5
8D8F
  8
0
 10
47.20751610525485
 20
210.9030867947825
 30
0.0
 11
47.20751610525485
 21
210.5691028947825
 31
0.0
  0
LINE
  5
8D90
  8
0
 10
47.87508110525482
 20
210.5691028947825
 30
0.0
 11
48.20906595525483
 21
210.5691028947825
 31
0.0
  0
LINE
  5
8D91
  8
0
 10
48.20906595525483
 20
210.5691028947825
 30
0.0
 11
48.20906595525483
 21
210.9030867947825
 31
0.0
  0
LINE
  5
8D92
  8
0
 10
48.20906595525483
 20
210.9030867947825
 30
0.0
 11
47.87508110525482
 21
210.9030867947825
 31
0.0
  0
LINE
  5
8D93
  8
0
 10
47.87508110525482
 20
210.9030867947825
 30
0.0
 11
47.87508110525482
 21
210.5691028947825
 31
0.0
  0
LINE
  5
8D94
  8
0
 10
48.54274110525483
 20
210.5691028947825
 30
0.0
 11
48.87672595525481
 21
210.5691028947825
 31
0.0
  0
LINE
  5
8D95
  8
0
 10
48.87672595525481
 20
210.5691028947825
 30
0.0
 11
48.87672595525481
 21
210.9030867947825
 31
0.0
  0
LINE
  5
8D96
  8
0
 10
48.87672595525481
 20
210.9030867947825
 30
0.0
 11
48.54274110525483
 21
210.9030867947825
 31
0.0
  0
LINE
  5
8D97
  8
0
 10
48.54274110525483
 20
210.9030867947825
 30
0.0
 11
48.54274110525483
 21
210.5691028947825
 31
0.0
  0
LINE
  5
8D98
  8
0
 10
49.20992610525485
 20
210.5691028947825
 30
0.0
 11
49.54428145525483
 21
210.5691028947825
 31
0.0
  0
LINE
  5
8D99
  8
0
 10
49.54428145525483
 20
210.5691028947825
 30
0.0
 11
49.54428145525483
 21
210.9030867947825
 31
0.0
  0
LINE
  5
8D9A
  8
0
 10
49.54428145525483
 20
210.9030867947825
 30
0.0
 11
49.20992610525485
 21
210.9030867947825
 31
0.0
  0
LINE
  5
8D9B
  8
0
 10
49.20992610525485
 20
210.9030867947825
 30
0.0
 11
49.20992610525485
 21
210.5691028947825
 31
0.0
  0
LINE
  5
8D9C
  8
0
 10
49.87749110525482
 20
210.5691028947825
 30
0.0
 11
50.21147500525484
 21
210.5691028947825
 31
0.0
  0
LINE
  5
8D9D
  8
0
 10
50.21147500525484
 20
210.5691028947825
 30
0.0
 11
50.21147500525484
 21
210.9030867947825
 31
0.0
  0
LINE
  5
8D9E
  8
0
 10
50.21147500525484
 20
210.9030867947825
 30
0.0
 11
49.87749110525482
 21
210.9030867947825
 31
0.0
  0
LINE
  5
8D9F
  8
0
 10
49.87749110525482
 20
210.9030867947825
 30
0.0
 11
49.87749110525482
 21
210.5691028947825
 31
0.0
  0
LINE
  5
8DA0
  8
0
 10
50.54591110525482
 20
210.5691028947825
 30
0.0
 11
50.87989595525482
 21
210.5691028947825
 31
0.0
  0
LINE
  5
8DA1
  8
0
 10
50.87989595525482
 20
210.5691028947825
 30
0.0
 11
50.87989595525482
 21
210.9030867947825
 31
0.0
  0
LINE
  5
8DA2
  8
0
 10
50.87989595525482
 20
210.9030867947825
 30
0.0
 11
50.54591110525482
 21
210.9030867947825
 31
0.0
  0
LINE
  5
8DA3
  8
0
 10
50.54591110525482
 20
210.9030867947825
 30
0.0
 11
50.54591110525482
 21
210.5691028947825
 31
0.0
  0
LINE
  5
8DA4
  8
0
 10
51.21309610525483
 20
210.5691028947825
 30
0.0
 11
53.54987760525484
 21
210.5691028947825
 31
0.0
  0
LINE
  5
8DA5
  8
0
 10
53.21550610525483
 20
210.9030867947825
 30
0.0
 11
51.54708000525483
 21
210.9030867947825
 31
0.0
  0
LINE
  5
8DA6
  8
0
 10
45.20510610525483
 20
210.2359378947825
 30
0.0
 11
45.53909095525484
 21
210.2359378947825
 31
0.0
  0
LINE
  5
8DA7
  8
0
 10
45.53909095525484
 20
210.2359378947825
 30
0.0
 11
45.53909095525484
 21
210.5699217947825
 31
0.0
  0
LINE
  5
8DA8
  8
0
 10
45.53909095525484
 20
210.5699217947825
 30
0.0
 11
45.20510610525483
 21
210.5699217947825
 31
0.0
  0
LINE
  5
8DA9
  8
0
 10
45.20510610525483
 20
210.5699217947825
 30
0.0
 11
45.20510610525483
 21
210.2359378947825
 31
0.0
  0
LINE
  5
8DAA
  8
0
 10
46.54033110525484
 20
210.2359378947825
 30
0.0
 11
46.87431500525483
 21
210.2359378947825
 31
0.0
  0
LINE
  5
8DAB
  8
0
 10
46.87431500525483
 20
210.2359378947825
 30
0.0
 11
46.87431500525483
 21
210.5699217947825
 31
0.0
  0
LINE
  5
8DAC
  8
0
 10
46.87431500525483
 20
210.5699217947825
 30
0.0
 11
46.54033110525484
 21
210.5699217947825
 31
0.0
  0
LINE
  5
8DAD
  8
0
 10
46.54033110525484
 20
210.5699217947825
 30
0.0
 11
46.54033110525484
 21
210.2359378947825
 31
0.0
  0
LINE
  5
8DAE
  8
0
 10
47.20751610525485
 20
210.2359378947825
 30
0.0
 11
47.54150000525482
 21
210.2359378947825
 31
0.0
  0
LINE
  5
8DAF
  8
0
 10
47.54150000525482
 20
210.2359378947825
 30
0.0
 11
47.54150000525482
 21
210.5699217947825
 31
0.0
  0
LINE
  5
8DB0
  8
0
 10
47.54150000525482
 20
210.5699217947825
 30
0.0
 11
47.20751610525485
 21
210.5699217947825
 31
0.0
  0
LINE
  5
8DB1
  8
0
 10
47.20751610525485
 20
210.5699217947825
 30
0.0
 11
47.20751610525485
 21
210.2359378947825
 31
0.0
  0
LINE
  5
8DB2
  8
0
 10
49.87749110525482
 20
210.2359378947825
 30
0.0
 11
50.21147500525484
 21
210.2359378947825
 31
0.0
  0
LINE
  5
8DB3
  8
0
 10
50.21147500525484
 20
210.2359378947825
 30
0.0
 11
50.21147500525484
 21
210.5699217947825
 31
0.0
  0
LINE
  5
8DB4
  8
0
 10
50.21147500525484
 20
210.5699217947825
 30
0.0
 11
49.87749110525482
 21
210.5699217947825
 31
0.0
  0
LINE
  5
8DB5
  8
0
 10
49.87749110525482
 20
210.5699217947825
 30
0.0
 11
49.87749110525482
 21
210.2359378947825
 31
0.0
  0
LINE
  5
8DB6
  8
0
 10
50.54591110525482
 20
210.2359378947825
 30
0.0
 11
50.87989595525482
 21
210.2359378947825
 31
0.0
  0
LINE
  5
8DB7
  8
0
 10
50.87989595525482
 20
210.2359378947825
 30
0.0
 11
50.87989595525482
 21
210.5699217947825
 31
0.0
  0
LINE
  5
8DB8
  8
0
 10
50.87989595525482
 20
210.5699217947825
 30
0.0
 11
50.54591110525482
 21
210.5699217947825
 31
0.0
  0
LINE
  5
8DB9
  8
0
 10
50.54591110525482
 20
210.5699217947825
 30
0.0
 11
50.54591110525482
 21
210.2359378947825
 31
0.0
  0
LINE
  5
8DBA
  8
0
 10
42.53437110525482
 20
209.9015378947825
 30
0.0
 11
42.86872645525483
 21
209.9015378947825
 31
0.0
  0
LINE
  5
8DBB
  8
0
 10
42.86872645525483
 20
209.9015378947825
 30
0.0
 11
42.86872645525483
 21
210.2358932447825
 31
0.0
  0
LINE
  5
8DBC
  8
0
 10
42.86872645525483
 20
210.2358932447825
 30
0.0
 11
42.53437110525482
 21
210.2358932447825
 31
0.0
  0
LINE
  5
8DBD
  8
0
 10
42.53437110525482
 20
210.2358932447825
 30
0.0
 11
42.53437110525482
 21
209.9015378947825
 31
0.0
  0
LINE
  5
8DBE
  8
0
 10
44.53744610525482
 20
209.9015378947825
 30
0.0
 11
44.87143000525481
 21
209.9015378947825
 31
0.0
  0
LINE
  5
8DBF
  8
0
 10
44.87143000525481
 20
209.9015378947825
 30
0.0
 11
44.87143000525481
 21
210.2358932447825
 31
0.0
  0
LINE
  5
8DC0
  8
0
 10
44.87143000525481
 20
210.2358932447825
 30
0.0
 11
44.53744610525482
 21
210.2358932447825
 31
0.0
  0
LINE
  5
8DC1
  8
0
 10
44.53744610525482
 20
210.2358932447825
 30
0.0
 11
44.53744610525482
 21
209.9015378947825
 31
0.0
  0
LINE
  5
8DC2
  8
0
 10
45.20510610525483
 20
209.9015378947825
 30
0.0
 11
46.20669110525483
 21
209.9015378947825
 31
0.0
  0
LINE
  5
8DC3
  8
0
 10
46.20669110525483
 20
209.9015378947825
 30
0.0
 11
46.20669110525483
 21
210.2358932447825
 31
0.0
  0
LINE
  5
8DC4
  8
0
 10
46.20669110525483
 20
210.2358932447825
 30
0.0
 11
45.20510610525483
 21
210.2358932447825
 31
0.0
  0
LINE
  5
8DC5
  8
0
 10
45.20510610525483
 20
210.2358932447825
 30
0.0
 11
45.20510610525483
 21
209.9015378947825
 31
0.0
  0
LINE
  5
8DC6
  8
0
 10
46.87349610525482
 20
209.9015378947825
 30
0.0
 11
48.54267460525483
 21
209.9015378947825
 31
0.0
  0
LINE
  5
8DC7
  8
0
 10
48.54267460525483
 20
209.9015378947825
 30
0.0
 11
48.54267460525483
 21
210.2358932447825
 31
0.0
  0
LINE
  5
8DC8
  8
0
 10
48.54267460525483
 20
210.2358932447825
 30
0.0
 11
46.87349610525482
 21
210.2358932447825
 31
0.0
  0
LINE
  5
8DC9
  8
0
 10
46.87349610525482
 20
210.2358932447825
 30
0.0
 11
46.87349610525482
 21
209.9015378947825
 31
0.0
  0
LINE
  5
8DCA
  8
0
 10
49.87749110525482
 20
209.9015378947825
 30
0.0
 11
50.21147500525484
 21
209.9015378947825
 31
0.0
  0
LINE
  5
8DCB
  8
0
 10
50.21147500525484
 20
209.9015378947825
 30
0.0
 11
50.21147500525484
 21
210.2358932447825
 31
0.0
  0
LINE
  5
8DCC
  8
0
 10
50.21147500525484
 20
210.2358932447825
 30
0.0
 11
49.87749110525482
 21
210.2358932447825
 31
0.0
  0
LINE
  5
8DCD
  8
0
 10
49.87749110525482
 20
210.2358932447825
 30
0.0
 11
49.87749110525482
 21
209.9015378947825
 31
0.0
  0
LINE
  5
8DCE
  8
0
 10
50.54591110525482
 20
209.9015378947825
 30
0.0
 11
51.54712560525482
 21
209.9015378947825
 31
0.0
  0
LINE
  5
8DCF
  8
0
 10
51.54712560525482
 20
209.9015378947825
 30
0.0
 11
51.54712560525482
 21
210.2358932447825
 31
0.0
  0
LINE
  5
8DD0
  8
0
 10
51.54712560525482
 20
210.2358932447825
 30
0.0
 11
50.54591110525482
 21
210.2358932447825
 31
0.0
  0
LINE
  5
8DD1
  8
0
 10
50.54591110525482
 20
210.2358932447825
 30
0.0
 11
50.54591110525482
 21
209.9015378947825
 31
0.0
  0
LINE
  5
8DD2
  8
0
 10
52.21392110525483
 20
209.9015378947825
 30
0.0
 11
53.21550610525483
 21
209.9015378947825
 31
0.0
  0
LINE
  5
8DD3
  8
0
 10
53.21550610525483
 20
209.9015378947825
 30
0.0
 11
53.21550610525483
 21
210.2358932447825
 31
0.0
  0
LINE
  5
8DD4
  8
0
 10
53.21550610525483
 20
210.2358932447825
 30
0.0
 11
52.21392110525483
 21
210.2358932447825
 31
0.0
  0
LINE
  5
8DD5
  8
0
 10
52.21392110525483
 20
210.2358932447825
 30
0.0
 11
52.21392110525483
 21
209.9015378947825
 31
0.0
  0
LINE
  5
8DD6
  8
0
 10
42.53437110525482
 20
209.5682778947825
 30
0.0
 11
42.86872645525483
 21
209.5682778947825
 31
0.0
  0
LINE
  5
8DD7
  8
0
 10
42.86872645525483
 20
209.5682778947825
 30
0.0
 11
42.86872645525483
 21
209.9022627447825
 31
0.0
  0
LINE
  5
8DD8
  8
0
 10
42.86872645525483
 20
209.9022627447825
 30
0.0
 11
42.53437110525482
 21
209.9022627447825
 31
0.0
  0
LINE
  5
8DD9
  8
0
 10
42.53437110525482
 20
209.9022627447825
 30
0.0
 11
42.53437110525482
 21
209.5682778947825
 31
0.0
  0
LINE
  5
8DDA
  8
0
 10
44.20352110525482
 20
209.5682778947825
 30
0.0
 11
44.53750595525483
 21
209.5682778947825
 31
0.0
  0
LINE
  5
8DDB
  8
0
 10
44.53750595525483
 20
209.5682778947825
 30
0.0
 11
44.53750595525483
 21
209.9022627447825
 31
0.0
  0
LINE
  5
8DDC
  8
0
 10
44.53750595525483
 20
209.9022627447825
 30
0.0
 11
44.20352110525482
 21
209.9022627447825
 31
0.0
  0
LINE
  5
8DDD
  8
0
 10
44.20352110525482
 20
209.9022627447825
 30
0.0
 11
44.20352110525482
 21
209.5682778947825
 31
0.0
  0
LINE
  5
8DDE
  8
0
 10
45.20510610525483
 20
209.5682778947825
 30
0.0
 11
45.53909095525484
 21
209.5682778947825
 31
0.0
  0
LINE
  5
8DDF
  8
0
 10
45.53909095525484
 20
209.5682778947825
 30
0.0
 11
45.53909095525484
 21
209.9022627447825
 31
0.0
  0
LINE
  5
8DE0
  8
0
 10
45.53909095525484
 20
209.9022627447825
 30
0.0
 11
45.20510610525483
 21
209.9022627447825
 31
0.0
  0
LINE
  5
8DE1
  8
0
 10
45.20510610525483
 20
209.9022627447825
 30
0.0
 11
45.20510610525483
 21
209.5682778947825
 31
0.0
  0
LINE
  5
8DE2
  8
0
 10
45.87267110525482
 20
209.5682778947825
 30
0.0
 11
46.87388560525483
 21
209.5682778947825
 31
0.0
  0
LINE
  5
8DE3
  8
0
 10
46.87388560525483
 20
209.5682778947825
 30
0.0
 11
46.87388560525483
 21
209.9022627447825
 31
0.0
  0
LINE
  5
8DE4
  8
0
 10
46.87388560525483
 20
209.9022627447825
 30
0.0
 11
45.87267110525482
 21
209.9022627447825
 31
0.0
  0
LINE
  5
8DE5
  8
0
 10
45.87267110525482
 20
209.9022627447825
 30
0.0
 11
45.87267110525482
 21
209.5682778947825
 31
0.0
  0
LINE
  5
8DE6
  8
0
 10
47.54153610525481
 20
209.5682778947825
 30
0.0
 11
47.87589145525482
 21
209.5682778947825
 31
0.0
  0
LINE
  5
8DE7
  8
0
 10
47.87589145525482
 20
209.5682778947825
 30
0.0
 11
47.87589145525482
 21
209.9022627447825
 31
0.0
  0
LINE
  5
8DE8
  8
0
 10
47.87589145525482
 20
209.9022627447825
 30
0.0
 11
47.54153610525481
 21
209.9022627447825
 31
0.0
  0
LINE
  5
8DE9
  8
0
 10
47.54153610525481
 20
209.9022627447825
 30
0.0
 11
47.54153610525481
 21
209.5682778947825
 31
0.0
  0
LINE
  5
8DEA
  8
0
 10
48.54274110525483
 20
209.5682778947825
 30
0.0
 11
49.20996790525484
 21
209.5682778947825
 31
0.0
  0
LINE
  5
8DEB
  8
0
 10
49.20996790525484
 20
209.5682778947825
 30
0.0
 11
49.20996790525484
 21
209.9022627447825
 31
0.0
  0
LINE
  5
8DEC
  8
0
 10
49.20996790525484
 20
209.9022627447825
 30
0.0
 11
48.54274110525483
 21
209.9022627447825
 31
0.0
  0
LINE
  5
8DED
  8
0
 10
48.54274110525483
 20
209.9022627447825
 30
0.0
 11
48.54274110525483
 21
209.5682778947825
 31
0.0
  0
LINE
  5
8DEE
  8
0
 10
49.54432610525481
 20
209.5682778947825
 30
0.0
 11
50.54591110525482
 21
209.5682778947825
 31
0.0
  0
LINE
  5
8DEF
  8
0
 10
50.54591110525482
 20
209.5682778947825
 30
0.0
 11
50.54591110525482
 21
209.9022627447825
 31
0.0
  0
LINE
  5
8DF0
  8
0
 10
50.54591110525482
 20
209.9022627447825
 30
0.0
 11
49.54432610525481
 21
209.9022627447825
 31
0.0
  0
LINE
  5
8DF1
  8
0
 10
49.54432610525481
 20
209.9022627447825
 30
0.0
 11
49.54432610525481
 21
209.5682778947825
 31
0.0
  0
LINE
  5
8DF2
  8
0
 10
51.88066110525483
 20
209.5682778947825
 30
0.0
 11
52.88224610525481
 21
209.5682778947825
 31
0.0
  0
LINE
  5
8DF3
  8
0
 10
52.88224610525481
 20
209.5682778947825
 30
0.0
 11
52.88224610525481
 21
209.9022627447825
 31
0.0
  0
LINE
  5
8DF4
  8
0
 10
52.88224610525481
 20
209.9022627447825
 30
0.0
 11
51.88066110525483
 21
209.9022627447825
 31
0.0
  0
LINE
  5
8DF5
  8
0
 10
51.88066110525483
 20
209.9022627447825
 30
0.0
 11
51.88066110525483
 21
209.5682778947825
 31
0.0
  0
LINE
  5
8DF6
  8
0
 10
43.20193610525482
 20
209.2343528947825
 30
0.0
 11
43.53629240525481
 21
209.2343528947825
 31
0.0
  0
LINE
  5
8DF7
  8
0
 10
43.53629240525481
 20
209.2343528947825
 30
0.0
 11
43.53629240525481
 21
209.5683367947825
 31
0.0
  0
LINE
  5
8DF8
  8
0
 10
43.53629240525481
 20
209.5683367947825
 30
0.0
 11
43.20193610525482
 21
209.5683367947825
 31
0.0
  0
LINE
  5
8DF9
  8
0
 10
43.20193610525482
 20
209.5683367947825
 30
0.0
 11
43.20193610525482
 21
209.2343528947825
 31
0.0
  0
LINE
  5
8DFA
  8
0
 10
43.86950110525484
 20
209.2343528947825
 30
0.0
 11
45.20469760525481
 21
209.2343528947825
 31
0.0
  0
LINE
  5
8DFB
  8
0
 10
45.20469760525481
 20
209.2343528947825
 30
0.0
 11
45.20469760525481
 21
209.5683367947825
 31
0.0
  0
LINE
  5
8DFC
  8
0
 10
45.20469760525481
 20
209.5683367947825
 30
0.0
 11
43.86950110525484
 21
209.5683367947825
 31
0.0
  0
LINE
  5
8DFD
  8
0
 10
43.86950110525484
 20
209.5683367947825
 30
0.0
 11
43.86950110525484
 21
209.2343528947825
 31
0.0
  0
LINE
  5
8DFE
  8
0
 10
45.5387461052548
 20
209.2343528947825
 30
0.0
 11
46.20597290525484
 21
209.2343528947825
 31
0.0
  0
LINE
  5
8DFF
  8
0
 10
46.20597290525484
 20
209.2343528947825
 30
0.0
 11
46.20597290525484
 21
209.5683367947825
 31
0.0
  0
LINE
  5
8E00
  8
0
 10
46.20597290525484
 20
209.5683367947825
 30
0.0
 11
45.5387461052548
 21
209.5683367947825
 31
0.0
  0
LINE
  5
8E01
  8
0
 10
45.5387461052548
 20
209.5683367947825
 30
0.0
 11
45.5387461052548
 21
209.2343528947825
 31
0.0
  0
LINE
  5
8E02
  8
0
 10
46.54033110525484
 20
209.2343528947825
 30
0.0
 11
46.87431500525483
 21
209.2343528947825
 31
0.0
  0
LINE
  5
8E03
  8
0
 10
46.87431500525483
 20
209.2343528947825
 30
0.0
 11
46.87431500525483
 21
209.5683367947825
 31
0.0
  0
LINE
  5
8E04
  8
0
 10
46.87431500525483
 20
209.5683367947825
 30
0.0
 11
46.54033110525484
 21
209.5683367947825
 31
0.0
  0
LINE
  5
8E05
  8
0
 10
46.54033110525484
 20
209.5683367947825
 30
0.0
 11
46.54033110525484
 21
209.2343528947825
 31
0.0
  0
LINE
  5
8E06
  8
0
 10
47.54153610525481
 20
209.2343528947825
 30
0.0
 11
47.87589145525482
 21
209.2343528947825
 31
0.0
  0
LINE
  5
8E07
  8
0
 10
47.87589145525482
 20
209.2343528947825
 30
0.0
 11
47.87589145525482
 21
209.5683367947825
 31
0.0
  0
LINE
  5
8E08
  8
0
 10
47.87589145525482
 20
209.5683367947825
 30
0.0
 11
47.54153610525481
 21
209.5683367947825
 31
0.0
  0
LINE
  5
8E09
  8
0
 10
47.54153610525481
 20
209.5683367947825
 30
0.0
 11
47.54153610525481
 21
209.2343528947825
 31
0.0
  0
LINE
  5
8E0A
  8
0
 10
48.54274110525483
 20
209.2343528947825
 30
0.0
 11
48.87672595525481
 21
209.2343528947825
 31
0.0
  0
LINE
  5
8E0B
  8
0
 10
48.87672595525481
 20
209.2343528947825
 30
0.0
 11
48.87672595525481
 21
209.5683367947825
 31
0.0
  0
LINE
  5
8E0C
  8
0
 10
48.87672595525481
 20
209.5683367947825
 30
0.0
 11
48.54274110525483
 21
209.5683367947825
 31
0.0
  0
LINE
  5
8E0D
  8
0
 10
48.54274110525483
 20
209.5683367947825
 30
0.0
 11
48.54274110525483
 21
209.2343528947825
 31
0.0
  0
LINE
  5
8E0E
  8
0
 10
49.20992610525485
 20
209.2343528947825
 30
0.0
 11
49.54428145525483
 21
209.2343528947825
 31
0.0
  0
LINE
  5
8E0F
  8
0
 10
49.54428145525483
 20
209.2343528947825
 30
0.0
 11
49.54428145525483
 21
209.5683367947825
 31
0.0
  0
LINE
  5
8E10
  8
0
 10
49.54428145525483
 20
209.5683367947825
 30
0.0
 11
49.20992610525485
 21
209.5683367947825
 31
0.0
  0
LINE
  5
8E11
  8
0
 10
49.20992610525485
 20
209.5683367947825
 30
0.0
 11
49.20992610525485
 21
209.2343528947825
 31
0.0
  0
LINE
  5
8E12
  8
0
 10
49.87749110525482
 20
209.2343528947825
 30
0.0
 11
50.21147500525484
 21
209.2343528947825
 31
0.0
  0
LINE
  5
8E13
  8
0
 10
50.21147500525484
 20
209.2343528947825
 30
0.0
 11
50.21147500525484
 21
209.5683367947825
 31
0.0
  0
LINE
  5
8E14
  8
0
 10
50.21147500525484
 20
209.5683367947825
 30
0.0
 11
49.87749110525482
 21
209.5683367947825
 31
0.0
  0
LINE
  5
8E15
  8
0
 10
49.87749110525482
 20
209.5683367947825
 30
0.0
 11
49.87749110525482
 21
209.2343528947825
 31
0.0
  0
LINE
  5
8E16
  8
0
 10
50.54591110525482
 20
209.2343528947825
 30
0.0
 11
51.54712560525482
 21
209.2343528947825
 31
0.0
  0
LINE
  5
8E17
  8
0
 10
51.54712560525482
 20
209.2343528947825
 30
0.0
 11
51.54712560525482
 21
209.5683367947825
 31
0.0
  0
LINE
  5
8E18
  8
0
 10
51.54712560525482
 20
209.5683367947825
 30
0.0
 11
50.54591110525482
 21
209.5683367947825
 31
0.0
  0
LINE
  5
8E19
  8
0
 10
50.54591110525482
 20
209.5683367947825
 30
0.0
 11
50.54591110525482
 21
209.2343528947825
 31
0.0
  0
LINE
  5
8E1A
  8
0
 10
51.88066110525483
 20
209.2343528947825
 30
0.0
 11
52.21464595525481
 21
209.2343528947825
 31
0.0
  0
LINE
  5
8E1B
  8
0
 10
52.21464595525481
 20
209.2343528947825
 30
0.0
 11
52.21464595525481
 21
209.5683367947825
 31
0.0
  0
LINE
  5
8E1C
  8
0
 10
52.21464595525481
 20
209.5683367947825
 30
0.0
 11
51.88066110525483
 21
209.5683367947825
 31
0.0
  0
LINE
  5
8E1D
  8
0
 10
51.88066110525483
 20
209.5683367947825
 30
0.0
 11
51.88066110525483
 21
209.2343528947825
 31
0.0
  0
LINE
  5
8E1E
  8
0
 10
52.54832110525481
 20
209.2343528947825
 30
0.0
 11
53.21554695525484
 21
209.2343528947825
 31
0.0
  0
LINE
  5
8E1F
  8
0
 10
53.21554695525484
 20
209.2343528947825
 30
0.0
 11
53.21554695525484
 21
209.5683367947825
 31
0.0
  0
LINE
  5
8E20
  8
0
 10
53.21554695525484
 20
209.5683367947825
 30
0.0
 11
52.54832110525481
 21
209.5683367947825
 31
0.0
  0
LINE
  5
8E21
  8
0
 10
52.54832110525481
 20
209.5683367947825
 30
0.0
 11
52.54832110525481
 21
209.2343528947825
 31
0.0
  0
LINE
  5
8E22
  8
0
 10
42.53437110525482
 20
208.8999528947825
 30
0.0
 11
43.20196840525483
 21
208.8999528947825
 31
0.0
  0
LINE
  5
8E23
  8
0
 10
43.20196840525483
 20
208.8999528947825
 30
0.0
 11
43.20196840525483
 21
209.2343082447825
 31
0.0
  0
LINE
  5
8E24
  8
0
 10
43.20196840525483
 20
209.2343082447825
 30
0.0
 11
42.53437110525482
 21
209.2343082447825
 31
0.0
  0
LINE
  5
8E25
  8
0
 10
42.53437110525482
 20
209.2343082447825
 30
0.0
 11
42.53437110525482
 21
208.8999528947825
 31
0.0
  0
LINE
  5
8E26
  8
0
 10
43.53586110525484
 20
208.8999528947825
 30
0.0
 11
44.20345840525482
 21
208.8999528947825
 31
0.0
  0
LINE
  5
8E27
  8
0
 10
44.20345840525482
 20
208.8999528947825
 30
0.0
 11
44.20345840525482
 21
209.2343082447825
 31
0.0
  0
LINE
  5
8E28
  8
0
 10
44.20345840525482
 20
209.2343082447825
 30
0.0
 11
43.53586110525484
 21
209.2343082447825
 31
0.0
  0
LINE
  5
8E29
  8
0
 10
43.53586110525484
 20
209.2343082447825
 30
0.0
 11
43.53586110525484
 21
208.8999528947825
 31
0.0
  0
LINE
  5
8E2A
  8
0
 10
44.87108610525482
 20
208.8999528947825
 30
0.0
 11
45.20507000525481
 21
208.8999528947825
 31
0.0
  0
LINE
  5
8E2B
  8
0
 10
45.20507000525481
 20
208.8999528947825
 30
0.0
 11
45.20507000525481
 21
209.2343082447825
 31
0.0
  0
LINE
  5
8E2C
  8
0
 10
45.20507000525481
 20
209.2343082447825
 30
0.0
 11
44.87108610525482
 21
209.2343082447825
 31
0.0
  0
LINE
  5
8E2D
  8
0
 10
44.87108610525482
 20
209.2343082447825
 30
0.0
 11
44.87108610525482
 21
208.8999528947825
 31
0.0
  0
LINE
  5
8E2E
  8
0
 10
45.87267110525482
 20
208.8999528947825
 30
0.0
 11
46.53989695525482
 21
208.8999528947825
 31
0.0
  0
LINE
  5
8E2F
  8
0
 10
46.53989695525482
 20
208.8999528947825
 30
0.0
 11
46.53989695525482
 21
209.2343082447825
 31
0.0
  0
LINE
  5
8E30
  8
0
 10
46.53989695525482
 20
209.2343082447825
 30
0.0
 11
45.87267110525482
 21
209.2343082447825
 31
0.0
  0
LINE
  5
8E31
  8
0
 10
45.87267110525482
 20
209.2343082447825
 30
0.0
 11
45.87267110525482
 21
208.8999528947825
 31
0.0
  0
LINE
  5
8E32
  8
0
 10
47.20751610525485
 20
208.8999528947825
 30
0.0
 11
47.87511340525481
 21
208.8999528947825
 31
0.0
  0
LINE
  5
8E33
  8
0
 10
47.87511340525481
 20
208.8999528947825
 30
0.0
 11
47.87511340525481
 21
209.2343082447825
 31
0.0
  0
LINE
  5
8E34
  8
0
 10
47.87511340525481
 20
209.2343082447825
 30
0.0
 11
47.20751610525485
 21
209.2343082447825
 31
0.0
  0
LINE
  5
8E35
  8
0
 10
47.20751610525485
 20
209.2343082447825
 30
0.0
 11
47.20751610525485
 21
208.8999528947825
 31
0.0
  0
LINE
  5
8E36
  8
0
 10
48.87666610525483
 20
208.8999528947825
 30
0.0
 11
49.54426340525481
 21
208.8999528947825
 31
0.0
  0
LINE
  5
8E37
  8
0
 10
49.54426340525481
 20
208.8999528947825
 30
0.0
 11
49.54426340525481
 21
209.2343082447825
 31
0.0
  0
LINE
  5
8E38
  8
0
 10
49.54426340525481
 20
209.2343082447825
 30
0.0
 11
48.87666610525483
 21
209.2343082447825
 31
0.0
  0
LINE
  5
8E39
  8
0
 10
48.87666610525483
 20
209.2343082447825
 30
0.0
 11
48.87666610525483
 21
208.8999528947825
 31
0.0
  0
LINE
  5
8E3A
  8
0
 10
49.87749110525482
 20
208.8999528947825
 30
0.0
 11
50.54508840525483
 21
208.8999528947825
 31
0.0
  0
LINE
  5
8E3B
  8
0
 10
50.54508840525483
 20
208.8999528947825
 30
0.0
 11
50.54508840525483
 21
209.2343082447825
 31
0.0
  0
LINE
  5
8E3C
  8
0
 10
50.54508840525483
 20
209.2343082447825
 30
0.0
 11
49.87749110525482
 21
209.2343082447825
 31
0.0
  0
LINE
  5
8E3D
  8
0
 10
49.87749110525482
 20
209.2343082447825
 30
0.0
 11
49.87749110525482
 21
208.8999528947825
 31
0.0
  0
LINE
  5
8E3E
  8
0
 10
50.87907610525482
 20
208.8999528947825
 30
0.0
 11
51.21306095525483
 21
208.8999528947825
 31
0.0
  0
LINE
  5
8E3F
  8
0
 10
51.21306095525483
 20
208.8999528947825
 30
0.0
 11
51.21306095525483
 21
209.2343082447825
 31
0.0
  0
LINE
  5
8E40
  8
0
 10
51.21306095525483
 20
209.2343082447825
 30
0.0
 11
50.87907610525482
 21
209.2343082447825
 31
0.0
  0
LINE
  5
8E41
  8
0
 10
50.87907610525482
 20
209.2343082447825
 30
0.0
 11
50.87907610525482
 21
208.8999528947825
 31
0.0
  0
LINE
  5
8E42
  8
0
 10
51.54673610525481
 20
208.8999528947825
 30
0.0
 11
53.54915560525484
 21
208.8999528947825
 31
0.0
  0
LINE
  5
8E43
  8
0
 10
53.54915560525484
 20
208.8999528947825
 30
0.0
 11
53.54915560525484
 21
209.2343082447825
 31
0.0
  0
LINE
  5
8E44
  8
0
 10
53.54915560525484
 20
209.2343082447825
 30
0.0
 11
51.54673610525481
 21
209.2343082447825
 31
0.0
  0
LINE
  5
8E45
  8
0
 10
51.54673610525481
 20
209.2343082447825
 30
0.0
 11
51.54673610525481
 21
208.8999528947825
 31
0.0
  0
LINE
  5
8E46
  8
0
 10
42.86867610525482
 20
208.5666928947825
 30
0.0
 11
43.20266095525483
 21
208.5666928947825
 31
0.0
  0
LINE
  5
8E47
  8
0
 10
43.20266095525483
 20
208.5666928947825
 30
0.0
 11
43.20266095525483
 21
208.9006777447825
 31
0.0
  0
LINE
  5
8E48
  8
0
 10
43.20266095525483
 20
208.9006777447825
 30
0.0
 11
42.86867610525482
 21
208.9006777447825
 31
0.0
  0
LINE
  5
8E49
  8
0
 10
42.86867610525482
 20
208.9006777447825
 30
0.0
 11
42.86867610525482
 21
208.5666928947825
 31
0.0
  0
LINE
  5
8E4A
  8
0
 10
43.53586110525484
 20
208.5666928947825
 30
0.0
 11
43.86984500525483
 21
208.5666928947825
 31
0.0
  0
LINE
  5
8E4B
  8
0
 10
43.86984500525483
 20
208.5666928947825
 30
0.0
 11
43.86984500525483
 21
208.9006777447825
 31
0.0
  0
LINE
  5
8E4C
  8
0
 10
43.86984500525483
 20
208.9006777447825
 30
0.0
 11
43.53586110525484
 21
208.9006777447825
 31
0.0
  0
LINE
  5
8E4D
  8
0
 10
43.53586110525484
 20
208.9006777447825
 30
0.0
 11
43.53586110525484
 21
208.5666928947825
 31
0.0
  0
LINE
  5
8E4E
  8
0
 10
44.53744610525482
 20
208.5666928947825
 30
0.0
 11
45.53903110525482
 21
208.5666928947825
 31
0.0
  0
LINE
  5
8E4F
  8
0
 10
45.53903110525482
 20
208.5666928947825
 30
0.0
 11
45.53903110525482
 21
208.9006777447825
 31
0.0
  0
LINE
  5
8E50
  8
0
 10
45.53903110525482
 20
208.9006777447825
 30
0.0
 11
44.53744610525482
 21
208.9006777447825
 31
0.0
  0
LINE
  5
8E51
  8
0
 10
44.53744610525482
 20
208.9006777447825
 30
0.0
 11
44.53744610525482
 21
208.5666928947825
 31
0.0
  0
LINE
  5
8E52
  8
0
 10
46.87349610525482
 20
208.5666928947825
 30
0.0
 11
47.54109435525484
 21
208.5666928947825
 31
0.0
  0
LINE
  5
8E53
  8
0
 10
47.54109435525484
 20
208.5666928947825
 30
0.0
 11
47.54109435525484
 21
208.9006777447825
 31
0.0
  0
LINE
  5
8E54
  8
0
 10
47.54109435525484
 20
208.9006777447825
 30
0.0
 11
46.87349610525482
 21
208.9006777447825
 31
0.0
  0
LINE
  5
8E55
  8
0
 10
46.87349610525482
 20
208.9006777447825
 30
0.0
 11
46.87349610525482
 21
208.5666928947825
 31
0.0
  0
LINE
  5
8E56
  8
0
 10
47.87508110525482
 20
208.5666928947825
 30
0.0
 11
48.87666610525483
 21
208.5666928947825
 31
0.0
  0
LINE
  5
8E57
  8
0
 10
48.87666610525483
 20
208.5666928947825
 30
0.0
 11
48.87666610525483
 21
208.9006777447825
 31
0.0
  0
LINE
  5
8E58
  8
0
 10
48.87666610525483
 20
208.9006777447825
 30
0.0
 11
47.87508110525482
 21
208.9006777447825
 31
0.0
  0
LINE
  5
8E59
  8
0
 10
47.87508110525482
 20
208.9006777447825
 30
0.0
 11
47.87508110525482
 21
208.5666928947825
 31
0.0
  0
LINE
  5
8E5A
  8
0
 10
49.20992610525485
 20
208.5666928947825
 30
0.0
 11
50.21151110525483
 21
208.5666928947825
 31
0.0
  0
LINE
  5
8E5B
  8
0
 10
50.21151110525483
 20
208.5666928947825
 30
0.0
 11
50.21151110525483
 21
208.9006777447825
 31
0.0
  0
LINE
  5
8E5C
  8
0
 10
50.21151110525483
 20
208.9006777447825
 30
0.0
 11
49.20992610525485
 21
208.9006777447825
 31
0.0
  0
LINE
  5
8E5D
  8
0
 10
49.20992610525485
 20
208.9006777447825
 30
0.0
 11
49.20992610525485
 21
208.5666928947825
 31
0.0
  0
LINE
  5
8E5E
  8
0
 10
50.54591110525482
 20
208.5666928947825
 30
0.0
 11
50.87989595525482
 21
208.5666928947825
 31
0.0
  0
LINE
  5
8E5F
  8
0
 10
50.87989595525482
 20
208.5666928947825
 30
0.0
 11
50.87989595525482
 21
208.9006777447825
 31
0.0
  0
LINE
  5
8E60
  8
0
 10
50.87989595525482
 20
208.9006777447825
 30
0.0
 11
50.54591110525482
 21
208.9006777447825
 31
0.0
  0
LINE
  5
8E61
  8
0
 10
50.54591110525482
 20
208.9006777447825
 30
0.0
 11
50.54591110525482
 21
208.5666928947825
 31
0.0
  0
LINE
  5
8E62
  8
0
 10
51.21309610525483
 20
208.5666928947825
 30
0.0
 11
51.88069340525482
 21
208.5666928947825
 31
0.0
  0
LINE
  5
8E63
  8
0
 10
51.88069340525482
 20
208.5666928947825
 30
0.0
 11
51.88069340525482
 21
208.9006777447825
 31
0.0
  0
LINE
  5
8E64
  8
0
 10
51.88069340525482
 20
208.9006777447825
 30
0.0
 11
51.21309610525483
 21
208.9006777447825
 31
0.0
  0
LINE
  5
8E65
  8
0
 10
51.21309610525483
 20
208.9006777447825
 30
0.0
 11
51.21309610525483
 21
208.5666928947825
 31
0.0
  0
LINE
  5
8E66
  8
0
 10
42.53437110525482
 20
208.2327678947825
 30
0.0
 11
43.20196840525483
 21
208.2327678947825
 31
0.0
  0
LINE
  5
8E67
  8
0
 10
43.20196840525483
 20
208.2327678947825
 30
0.0
 11
43.20196840525483
 21
208.5667517947825
 31
0.0
  0
LINE
  5
8E68
  8
0
 10
43.20196840525483
 20
208.5667517947825
 30
0.0
 11
42.53437110525482
 21
208.5667517947825
 31
0.0
  0
LINE
  5
8E69
  8
0
 10
42.53437110525482
 20
208.5667517947825
 30
0.0
 11
42.53437110525482
 21
208.2327678947825
 31
0.0
  0
LINE
  5
8E6A
  8
0
 10
43.53586110525484
 20
208.2327678947825
 30
0.0
 11
44.20345840525482
 21
208.2327678947825
 31
0.0
  0
LINE
  5
8E6B
  8
0
 10
44.20345840525482
 20
208.2327678947825
 30
0.0
 11
44.20345840525482
 21
208.5667517947825
 31
0.0
  0
LINE
  5
8E6C
  8
0
 10
44.20345840525482
 20
208.5667517947825
 30
0.0
 11
43.53586110525484
 21
208.5667517947825
 31
0.0
  0
LINE
  5
8E6D
  8
0
 10
43.53586110525484
 20
208.5667517947825
 30
0.0
 11
43.53586110525484
 21
208.2327678947825
 31
0.0
  0
LINE
  5
8E6E
  8
0
 10
44.87108610525482
 20
208.2327678947825
 30
0.0
 11
45.5386834052548
 21
208.2327678947825
 31
0.0
  0
LINE
  5
8E6F
  8
0
 10
45.5386834052548
 20
208.2327678947825
 30
0.0
 11
45.5386834052548
 21
208.5667517947825
 31
0.0
  0
LINE
  5
8E70
  8
0
 10
45.5386834052548
 20
208.5667517947825
 30
0.0
 11
44.87108610525482
 21
208.5667517947825
 31
0.0
  0
LINE
  5
8E71
  8
0
 10
44.87108610525482
 20
208.5667517947825
 30
0.0
 11
44.87108610525482
 21
208.2327678947825
 31
0.0
  0
LINE
  5
8E72
  8
0
 10
46.20593110525482
 20
208.2327678947825
 30
0.0
 11
46.87352840525483
 21
208.2327678947825
 31
0.0
  0
LINE
  5
8E73
  8
0
 10
46.87352840525483
 20
208.2327678947825
 30
0.0
 11
46.87352840525483
 21
208.5667517947825
 31
0.0
  0
LINE
  5
8E74
  8
0
 10
46.87352840525483
 20
208.5667517947825
 30
0.0
 11
46.20593110525482
 21
208.5667517947825
 31
0.0
  0
LINE
  5
8E75
  8
0
 10
46.20593110525482
 20
208.5667517947825
 30
0.0
 11
46.20593110525482
 21
208.2327678947825
 31
0.0
  0
LINE
  5
8E76
  8
0
 10
47.20751610525485
 20
208.2327678947825
 30
0.0
 11
47.54150000525482
 21
208.2327678947825
 31
0.0
  0
LINE
  5
8E77
  8
0
 10
47.54150000525482
 20
208.2327678947825
 30
0.0
 11
47.54150000525482
 21
208.5667517947825
 31
0.0
  0
LINE
  5
8E78
  8
0
 10
47.54150000525482
 20
208.5667517947825
 30
0.0
 11
47.20751610525485
 21
208.5667517947825
 31
0.0
  0
LINE
  5
8E79
  8
0
 10
47.20751610525485
 20
208.5667517947825
 30
0.0
 11
47.20751610525485
 21
208.2327678947825
 31
0.0
  0
LINE
  5
8E7A
  8
0
 10
47.87508110525482
 20
208.2327678947825
 30
0.0
 11
48.54267840525483
 21
208.2327678947825
 31
0.0
  0
LINE
  5
8E7B
  8
0
 10
48.54267840525483
 20
208.2327678947825
 30
0.0
 11
48.54267840525483
 21
208.5667517947825
 31
0.0
  0
LINE
  5
8E7C
  8
0
 10
48.54267840525483
 20
208.5667517947825
 30
0.0
 11
47.87508110525482
 21
208.5667517947825
 31
0.0
  0
LINE
  5
8E7D
  8
0
 10
47.87508110525482
 20
208.5667517947825
 30
0.0
 11
47.87508110525482
 21
208.2327678947825
 31
0.0
  0
LINE
  5
8E7E
  8
0
 10
49.20992610525485
 20
208.2327678947825
 30
0.0
 11
49.87752435525482
 21
208.2327678947825
 31
0.0
  0
LINE
  5
8E7F
  8
0
 10
49.87752435525482
 20
208.2327678947825
 30
0.0
 11
49.87752435525482
 21
208.5667517947825
 31
0.0
  0
LINE
  5
8E80
  8
0
 10
49.87752435525482
 20
208.5667517947825
 30
0.0
 11
49.20992610525485
 21
208.5667517947825
 31
0.0
  0
LINE
  5
8E81
  8
0
 10
49.20992610525485
 20
208.5667517947825
 30
0.0
 11
49.20992610525485
 21
208.2327678947825
 31
0.0
  0
LINE
  5
8E82
  8
0
 10
50.21151110525483
 20
208.2327678947825
 30
0.0
 11
50.54586645525484
 21
208.2327678947825
 31
0.0
  0
LINE
  5
8E83
  8
0
 10
50.54586645525484
 20
208.2327678947825
 30
0.0
 11
50.54586645525484
 21
208.5667517947825
 31
0.0
  0
LINE
  5
8E84
  8
0
 10
50.54586645525484
 20
208.5667517947825
 30
0.0
 11
50.21151110525483
 21
208.5667517947825
 31
0.0
  0
LINE
  5
8E85
  8
0
 10
50.21151110525483
 20
208.5667517947825
 30
0.0
 11
50.21151110525483
 21
208.2327678947825
 31
0.0
  0
LINE
  5
8E86
  8
0
 10
51.21309610525483
 20
208.2327678947825
 30
0.0
 11
51.54708000525483
 21
208.2327678947825
 31
0.0
  0
LINE
  5
8E87
  8
0
 10
51.54708000525483
 20
208.2327678947825
 30
0.0
 11
51.54708000525483
 21
208.5667517947825
 31
0.0
  0
LINE
  5
8E88
  8
0
 10
51.54708000525483
 20
208.5667517947825
 30
0.0
 11
51.21309610525483
 21
208.5667517947825
 31
0.0
  0
LINE
  5
8E89
  8
0
 10
51.21309610525483
 20
208.5667517947825
 30
0.0
 11
51.21309610525483
 21
208.2327678947825
 31
0.0
  0
LINE
  5
8E8A
  8
0
 10
52.21392110525483
 20
208.2327678947825
 30
0.0
 11
53.54911760525482
 21
208.2327678947825
 31
0.0
  0
LINE
  5
8E8B
  8
0
 10
53.54911760525482
 20
208.2327678947825
 30
0.0
 11
53.54911760525482
 21
208.5667517947825
 31
0.0
  0
LINE
  5
8E8C
  8
0
 10
53.54911760525482
 20
208.5667517947825
 30
0.0
 11
52.21392110525483
 21
208.5667517947825
 31
0.0
  0
LINE
  5
8E8D
  8
0
 10
52.21392110525483
 20
208.5667517947825
 30
0.0
 11
52.21392110525483
 21
208.2327678947825
 31
0.0
  0
LINE
  5
8E8E
  8
0
 10
42.86867610525482
 20
207.8991278947825
 30
0.0
 11
46.20666260525482
 21
207.8991278947825
 31
0.0
  0
LINE
  5
8E8F
  8
0
 10
46.20666260525482
 20
207.8991278947825
 30
0.0
 11
46.20666260525482
 21
208.2331127447825
 31
0.0
  0
LINE
  5
8E90
  8
0
 10
46.20666260525482
 20
208.2331127447825
 30
0.0
 11
42.86867610525482
 21
208.2331127447825
 31
0.0
  0
LINE
  5
8E91
  8
0
 10
42.86867610525482
 20
208.2331127447825
 30
0.0
 11
42.86867610525482
 21
207.8991278947825
 31
0.0
  0
LINE
  5
8E92
  8
0
 10
46.87349610525482
 20
207.8991278947825
 30
0.0
 11
47.20748095525482
 21
207.8991278947825
 31
0.0
  0
LINE
  5
8E93
  8
0
 10
47.20748095525482
 20
207.8991278947825
 30
0.0
 11
47.20748095525482
 21
208.2331127447825
 31
0.0
  0
LINE
  5
8E94
  8
0
 10
47.20748095525482
 20
208.2331127447825
 30
0.0
 11
46.87349610525482
 21
208.2331127447825
 31
0.0
  0
LINE
  5
8E95
  8
0
 10
46.87349610525482
 20
208.2331127447825
 30
0.0
 11
46.87349610525482
 21
207.8991278947825
 31
0.0
  0
LINE
  5
8E96
  8
0
 10
48.20910110525483
 20
207.8991278947825
 30
0.0
 11
48.54308500525482
 21
207.8991278947825
 31
0.0
  0
LINE
  5
8E97
  8
0
 10
48.54308500525482
 20
207.8991278947825
 30
0.0
 11
48.54308500525482
 21
208.2331127447825
 31
0.0
  0
LINE
  5
8E98
  8
0
 10
48.54308500525482
 20
208.2331127447825
 30
0.0
 11
48.20910110525483
 21
208.2331127447825
 31
0.0
  0
LINE
  5
8E99
  8
0
 10
48.20910110525483
 20
208.2331127447825
 30
0.0
 11
48.20910110525483
 21
207.8991278947825
 31
0.0
  0
LINE
  5
8E9A
  8
0
 10
48.87666610525483
 20
207.8991278947825
 30
0.0
 11
49.21065000525482
 21
207.8991278947825
 31
0.0
  0
LINE
  5
8E9B
  8
0
 10
49.21065000525482
 20
207.8991278947825
 30
0.0
 11
49.21065000525482
 21
208.2331127447825
 31
0.0
  0
LINE
  5
8E9C
  8
0
 10
49.21065000525482
 20
208.2331127447825
 30
0.0
 11
48.87666610525483
 21
208.2331127447825
 31
0.0
  0
LINE
  5
8E9D
  8
0
 10
48.87666610525483
 20
208.2331127447825
 30
0.0
 11
48.87666610525483
 21
207.8991278947825
 31
0.0
  0
LINE
  5
8E9E
  8
0
 10
50.87907610525482
 20
207.8991278947825
 30
0.0
 11
51.54667435525482
 21
207.8991278947825
 31
0.0
  0
LINE
  5
8E9F
  8
0
 10
51.54667435525482
 20
207.8991278947825
 30
0.0
 11
51.54667435525482
 21
208.2331127447825
 31
0.0
  0
LINE
  5
8EA0
  8
0
 10
51.54667435525482
 20
208.2331127447825
 30
0.0
 11
50.87907610525482
 21
208.2331127447825
 31
0.0
  0
LINE
  5
8EA1
  8
0
 10
50.87907610525482
 20
208.2331127447825
 30
0.0
 11
50.87907610525482
 21
207.8991278947825
 31
0.0
  0
LINE
  5
8EA2
  8
0
 10
51.88066110525483
 20
207.8991278947825
 30
0.0
 11
52.21464595525481
 21
207.8991278947825
 31
0.0
  0
LINE
  5
8EA3
  8
0
 10
52.21464595525481
 20
207.8991278947825
 30
0.0
 11
52.21464595525481
 21
208.2331127447825
 31
0.0
  0
LINE
  5
8EA4
  8
0
 10
52.21464595525481
 20
208.2331127447825
 30
0.0
 11
51.88066110525483
 21
208.2331127447825
 31
0.0
  0
LINE
  5
8EA5
  8
0
 10
51.88066110525483
 20
208.2331127447825
 30
0.0
 11
51.88066110525483
 21
207.8991278947825
 31
0.0
  0
LINE
  5
8EA6
  8
0
 10
52.54832110525481
 20
207.8991278947825
 30
0.0
 11
53.21554695525484
 21
207.8991278947825
 31
0.0
  0
LINE
  5
8EA7
  8
0
 10
53.21554695525484
 20
207.8991278947825
 30
0.0
 11
53.21554695525484
 21
208.2331127447825
 31
0.0
  0
LINE
  5
8EA8
  8
0
 10
53.21554695525484
 20
208.2331127447825
 30
0.0
 11
52.54832110525481
 21
208.2331127447825
 31
0.0
  0
LINE
  5
8EA9
  8
0
 10
52.54832110525481
 20
208.2331127447825
 30
0.0
 11
52.54832110525481
 21
207.8991278947825
 31
0.0
  0
LINE
  5
8EAA
  8
0
 10
42.53437110525482
 20
207.5651078947825
 30
0.0
 11
43.20196840525483
 21
207.5651078947825
 31
0.0
  0
LINE
  5
8EAB
  8
0
 10
43.20196840525483
 20
207.5651078947825
 30
0.0
 11
43.20196840525483
 21
207.8991278947825
 31
0.0
  0
LINE
  5
8EAC
  8
0
 10
43.20196840525483
 20
207.8991278947825
 30
0.0
 11
42.53437110525482
 21
207.8991278947825
 31
0.0
  0
LINE
  5
8EAD
  8
0
 10
42.53437110525482
 20
207.8991278947825
 30
0.0
 11
42.53437110525482
 21
207.5651078947825
 31
0.0
  0
LINE
  5
8EAE
  8
0
 10
43.53586110525484
 20
207.5651078947825
 30
0.0
 11
44.20345840525482
 21
207.5651078947825
 31
0.0
  0
LINE
  5
8EAF
  8
0
 10
44.20345840525482
 20
207.5651078947825
 30
0.0
 11
44.20345840525482
 21
207.8991278947825
 31
0.0
  0
LINE
  5
8EB0
  8
0
 10
44.20345840525482
 20
207.8991278947825
 30
0.0
 11
43.53586110525484
 21
207.8991278947825
 31
0.0
  0
LINE
  5
8EB1
  8
0
 10
43.53586110525484
 20
207.8991278947825
 30
0.0
 11
43.53586110525484
 21
207.5651078947825
 31
0.0
  0
LINE
  5
8EB2
  8
0
 10
45.5387461052548
 20
207.5651078947825
 30
0.0
 11
45.87273095525481
 21
207.5651078947825
 31
0.0
  0
LINE
  5
8EB3
  8
0
 10
45.87273095525481
 20
207.5651078947825
 30
0.0
 11
45.87273095525481
 21
207.8991278947825
 31
0.0
  0
LINE
  5
8EB4
  8
0
 10
45.87273095525481
 20
207.8991278947825
 30
0.0
 11
45.5387461052548
 21
207.8991278947825
 31
0.0
  0
LINE
  5
8EB5
  8
0
 10
45.5387461052548
 20
207.8991278947825
 30
0.0
 11
45.5387461052548
 21
207.5651078947825
 31
0.0
  0
LINE
  5
8EB6
  8
0
 10
46.54033110525484
 20
207.5651078947825
 30
0.0
 11
46.87431500525483
 21
207.5651078947825
 31
0.0
  0
LINE
  5
8EB7
  8
0
 10
46.87431500525483
 20
207.5651078947825
 30
0.0
 11
46.87431500525483
 21
207.8991278947825
 31
0.0
  0
LINE
  5
8EB8
  8
0
 10
46.87431500525483
 20
207.8991278947825
 30
0.0
 11
46.54033110525484
 21
207.8991278947825
 31
0.0
  0
LINE
  5
8EB9
  8
0
 10
46.54033110525484
 20
207.8991278947825
 30
0.0
 11
46.54033110525484
 21
207.5651078947825
 31
0.0
  0
LINE
  5
8EBA
  8
0
 10
47.20751610525485
 20
207.5651078947825
 30
0.0
 11
47.87511340525481
 21
207.5651078947825
 31
0.0
  0
LINE
  5
8EBB
  8
0
 10
47.87511340525481
 20
207.5651078947825
 30
0.0
 11
47.87511340525481
 21
207.8991278947825
 31
0.0
  0
LINE
  5
8EBC
  8
0
 10
47.87511340525481
 20
207.8991278947825
 30
0.0
 11
47.20751610525485
 21
207.8991278947825
 31
0.0
  0
LINE
  5
8EBD
  8
0
 10
47.20751610525485
 20
207.8991278947825
 30
0.0
 11
47.20751610525485
 21
207.5651078947825
 31
0.0
  0
LINE
  5
8EBE
  8
0
 10
48.54274110525483
 20
207.5651078947825
 30
0.0
 11
49.20996790525484
 21
207.5651078947825
 31
0.0
  0
LINE
  5
8EBF
  8
0
 10
49.20996790525484
 20
207.5651078947825
 30
0.0
 11
49.20996790525484
 21
207.8991278947825
 31
0.0
  0
LINE
  5
8EC0
  8
0
 10
49.20996790525484
 20
207.8991278947825
 30
0.0
 11
48.54274110525483
 21
207.8991278947825
 31
0.0
  0
LINE
  5
8EC1
  8
0
 10
48.54274110525483
 20
207.8991278947825
 30
0.0
 11
48.54274110525483
 21
207.5651078947825
 31
0.0
  0
LINE
  5
8EC2
  8
0
 10
50.87907610525482
 20
207.5651078947825
 30
0.0
 11
51.21309610525483
 21
207.5651078947825
 31
0.0
  0
LINE
  5
8EC3
  8
0
 10
51.21309610525483
 20
207.5651078947825
 30
0.0
 11
51.21309610525483
 21
207.8991278947825
 31
0.0
  0
LINE
  5
8EC4
  8
0
 10
51.21309610525483
 20
207.8991278947825
 30
0.0
 11
50.87911125525483
 21
207.8991278947825
 31
0.0
  0
LINE
  5
8EC5
  8
0
 10
50.87911125525483
 20
207.8991278947825
 30
0.0
 11
50.87907610525482
 21
207.5651078947825
 31
0.0
  0
LINE
  5
8EC6
  8
0
 10
51.88066110525483
 20
207.5651078947825
 30
0.0
 11
52.88224610525481
 21
207.5651078947825
 31
0.0
  0
LINE
  5
8EC7
  8
0
 10
52.88224610525481
 20
207.5651078947825
 30
0.0
 11
52.88224610525481
 21
207.8991278947825
 31
0.0
  0
LINE
  5
8EC8
  8
0
 10
52.88224610525481
 20
207.8991278947825
 30
0.0
 11
51.88066110525483
 21
207.8991278947825
 31
0.0
  0
LINE
  5
8EC9
  8
0
 10
51.88066110525483
 20
207.8991278947825
 30
0.0
 11
51.88066110525483
 21
207.5651078947825
 31
0.0
  0
LINE
  5
8ECA
  8
0
 10
53.21550610525483
 20
207.5651078947825
 30
0.0
 11
53.54986240525483
 21
207.5651078947825
 31
0.0
  0
LINE
  5
8ECB
  8
0
 10
53.54986240525483
 20
207.5651078947825
 30
0.0
 11
53.54986240525483
 21
207.8991278947825
 31
0.0
  0
LINE
  5
8ECC
  8
0
 10
53.54986240525483
 20
207.8991278947825
 30
0.0
 11
53.21550610525483
 21
207.8991278947825
 31
0.0
  0
LINE
  5
8ECD
  8
0
 10
53.21550610525483
 20
207.8991278947825
 30
0.0
 11
53.21550610525483
 21
207.5651078947825
 31
0.0
  0
LINE
  5
8ECE
  8
0
 10
42.86867610525482
 20
207.2315628947825
 30
0.0
 11
43.20266095525483
 21
207.2315628947825
 31
0.0
  0
LINE
  5
8ECF
  8
0
 10
43.20266095525483
 20
207.2315628947825
 30
0.0
 11
43.20266095525483
 21
207.5659182447825
 31
0.0
  0
LINE
  5
8ED0
  8
0
 10
43.20266095525483
 20
207.5659182447825
 30
0.0
 11
42.86867610525482
 21
207.5659182447825
 31
0.0
  0
LINE
  5
8ED1
  8
0
 10
42.86867610525482
 20
207.5659182447825
 30
0.0
 11
42.86867610525482
 21
207.2315628947825
 31
0.0
  0
LINE
  5
8ED2
  8
0
 10
44.53744610525482
 20
207.2315628947825
 30
0.0
 11
44.87143000525481
 21
207.2315628947825
 31
0.0
  0
LINE
  5
8ED3
  8
0
 10
44.87143000525481
 20
207.2315628947825
 30
0.0
 11
44.87143000525481
 21
207.5659182447825
 31
0.0
  0
LINE
  5
8ED4
  8
0
 10
44.87143000525481
 20
207.5659182447825
 30
0.0
 11
44.53744610525482
 21
207.5659182447825
 31
0.0
  0
LINE
  5
8ED5
  8
0
 10
44.53744610525482
 20
207.5659182447825
 30
0.0
 11
44.53744610525482
 21
207.2315628947825
 31
0.0
  0
LINE
  5
8ED6
  8
0
 10
45.5387461052548
 20
207.2315628947825
 30
0.0
 11
46.20597290525484
 21
207.2315628947825
 31
0.0
  0
LINE
  5
8ED7
  8
0
 10
46.20597290525484
 20
207.2315628947825
 30
0.0
 11
46.20597290525484
 21
207.5659182447825
 31
0.0
  0
LINE
  5
8ED8
  8
0
 10
46.20597290525484
 20
207.5659182447825
 30
0.0
 11
45.5387461052548
 21
207.5659182447825
 31
0.0
  0
LINE
  5
8ED9
  8
0
 10
45.5387461052548
 20
207.5659182447825
 30
0.0
 11
45.5387461052548
 21
207.2315628947825
 31
0.0
  0
LINE
  5
8EDA
  8
0
 10
46.54033110525484
 20
207.2315628947825
 30
0.0
 11
47.20755790525482
 21
207.2315628947825
 31
0.0
  0
LINE
  5
8EDB
  8
0
 10
47.20755790525482
 20
207.2315628947825
 30
0.0
 11
47.20755790525482
 21
207.5659182447825
 31
0.0
  0
LINE
  5
8EDC
  8
0
 10
47.20755790525482
 20
207.5659182447825
 30
0.0
 11
46.54033110525484
 21
207.5659182447825
 31
0.0
  0
LINE
  5
8EDD
  8
0
 10
46.54033110525484
 20
207.5659182447825
 30
0.0
 11
46.54033110525484
 21
207.2315628947825
 31
0.0
  0
LINE
  5
8EDE
  8
0
 10
48.20910110525483
 20
207.2315628947825
 30
0.0
 11
49.21068610525484
 21
207.2315628947825
 31
0.0
  0
LINE
  5
8EDF
  8
0
 10
49.21068610525484
 20
207.2315628947825
 30
0.0
 11
49.21068610525484
 21
207.5659182447825
 31
0.0
  0
LINE
  5
8EE0
  8
0
 10
49.21068610525484
 20
207.5659182447825
 30
0.0
 11
48.20910110525483
 21
207.5659182447825
 31
0.0
  0
LINE
  5
8EE1
  8
0
 10
48.20910110525483
 20
207.5659182447825
 30
0.0
 11
48.20910110525483
 21
207.2315628947825
 31
0.0
  0
LINE
  5
8EE2
  8
0
 10
49.87749110525482
 20
207.2315628947825
 30
0.0
 11
50.21147500525484
 21
207.2315628947825
 31
0.0
  0
LINE
  5
8EE3
  8
0
 10
50.21147500525484
 20
207.2315628947825
 30
0.0
 11
50.21147500525484
 21
207.5659182447825
 31
0.0
  0
LINE
  5
8EE4
  8
0
 10
50.21147500525484
 20
207.5659182447825
 30
0.0
 11
49.87749110525482
 21
207.5659182447825
 31
0.0
  0
LINE
  5
8EE5
  8
0
 10
49.87749110525482
 20
207.5659182447825
 30
0.0
 11
49.87749110525482
 21
207.2315628947825
 31
0.0
  0
LINE
  5
8EE6
  8
0
 10
50.54591110525482
 20
207.2315628947825
 30
0.0
 11
51.21313790525483
 21
207.2315628947825
 31
0.0
  0
LINE
  5
8EE7
  8
0
 10
51.21313790525483
 20
207.2315628947825
 30
0.0
 11
51.21313790525483
 21
207.5659182447825
 31
0.0
  0
LINE
  5
8EE8
  8
0
 10
51.21313790525483
 20
207.5659182447825
 30
0.0
 11
50.54591110525482
 21
207.5659182447825
 31
0.0
  0
LINE
  5
8EE9
  8
0
 10
50.54591110525482
 20
207.5659182447825
 30
0.0
 11
50.54591110525482
 21
207.2315628947825
 31
0.0
  0
LINE
  5
8EEA
  8
0
 10
51.54673610525481
 20
207.2315628947825
 30
0.0
 11
52.54832110525481
 21
207.2315628947825
 31
0.0
  0
LINE
  5
8EEB
  8
0
 10
52.54832110525481
 20
207.2315628947825
 30
0.0
 11
52.54832110525481
 21
207.5659182447825
 31
0.0
  0
LINE
  5
8EEC
  8
0
 10
52.54832110525481
 20
207.5659182447825
 30
0.0
 11
51.54673610525481
 21
207.5659182447825
 31
0.0
  0
LINE
  5
8EED
  8
0
 10
51.54673610525481
 20
207.5659182447825
 30
0.0
 11
51.54673610525481
 21
207.2315628947825
 31
0.0
  0
LINE
  5
8EEE
  8
0
 10
53.21550610525483
 20
207.2315628947825
 30
0.0
 11
53.54986240525483
 21
207.2315628947825
 31
0.0
  0
LINE
  5
8EEF
  8
0
 10
53.54986240525483
 20
207.2315628947825
 30
0.0
 11
53.54986240525483
 21
207.5659182447825
 31
0.0
  0
LINE
  5
8EF0
  8
0
 10
53.54986240525483
 20
207.5659182447825
 30
0.0
 11
53.21550610525483
 21
207.5659182447825
 31
0.0
  0
LINE
  5
8EF1
  8
0
 10
53.21550610525483
 20
207.5659182447825
 30
0.0
 11
53.21550610525483
 21
207.2315628947825
 31
0.0
  0
LINE
  5
8EF2
  8
0
 10
42.86867610525482
 20
206.8975428947825
 30
0.0
 11
43.53590290525483
 21
206.8975428947825
 31
0.0
  0
LINE
  5
8EF3
  8
0
 10
43.53590290525483
 20
206.8975428947825
 30
0.0
 11
43.53590290525483
 21
207.2315277447825
 31
0.0
  0
LINE
  5
8EF4
  8
0
 10
43.53590290525483
 20
207.2315277447825
 30
0.0
 11
42.86867610525482
 21
207.2315277447825
 31
0.0
  0
LINE
  5
8EF5
  8
0
 10
42.86867610525482
 20
207.2315277447825
 30
0.0
 11
42.86867610525482
 21
206.8975428947825
 31
0.0
  0
LINE
  5
8EF6
  8
0
 10
43.86950110525484
 20
206.8975428947825
 30
0.0
 11
44.20348500525483
 21
206.8975428947825
 31
0.0
  0
LINE
  5
8EF7
  8
0
 10
44.20348500525483
 20
206.8975428947825
 30
0.0
 11
44.20348500525483
 21
207.2315277447825
 31
0.0
  0
LINE
  5
8EF8
  8
0
 10
44.20348500525483
 20
207.2315277447825
 30
0.0
 11
43.86950110525484
 21
207.2315277447825
 31
0.0
  0
LINE
  5
8EF9
  8
0
 10
43.86950110525484
 20
207.2315277447825
 30
0.0
 11
43.86950110525484
 21
206.8975428947825
 31
0.0
  0
LINE
  5
8EFA
  8
0
 10
46.20593110525482
 20
206.8975428947825
 30
0.0
 11
46.53991500525484
 21
206.8975428947825
 31
0.0
  0
LINE
  5
8EFB
  8
0
 10
46.53991500525484
 20
206.8975428947825
 30
0.0
 11
46.53991500525484
 21
207.2315277447825
 31
0.0
  0
LINE
  5
8EFC
  8
0
 10
46.53991500525484
 20
207.2315277447825
 30
0.0
 11
46.20593110525482
 21
207.2315277447825
 31
0.0
  0
LINE
  5
8EFD
  8
0
 10
46.20593110525482
 20
207.2315277447825
 30
0.0
 11
46.20593110525482
 21
206.8975428947825
 31
0.0
  0
LINE
  5
8EFE
  8
0
 10
46.87349610525482
 20
206.8975428947825
 30
0.0
 11
49.87750060525482
 21
206.8975428947825
 31
0.0
  0
LINE
  5
8EFF
  8
0
 10
49.87750060525482
 20
206.8975428947825
 30
0.0
 11
49.87750060525482
 21
207.2315277447825
 31
0.0
  0
LINE
  5
8F00
  8
0
 10
49.87750060525482
 20
207.2315277447825
 30
0.0
 11
46.87349610525482
 21
207.2315277447825
 31
0.0
  0
LINE
  5
8F01
  8
0
 10
46.87349610525482
 20
207.2315277447825
 30
0.0
 11
46.87349610525482
 21
206.8975428947825
 31
0.0
  0
LINE
  5
8F02
  8
0
 10
50.21151110525483
 20
206.8975428947825
 30
0.0
 11
51.54670760525482
 21
206.8975428947825
 31
0.0
  0
LINE
  5
8F03
  8
0
 10
51.54670760525482
 20
206.8975428947825
 30
0.0
 11
51.54670760525482
 21
207.2315277447825
 31
0.0
  0
LINE
  5
8F04
  8
0
 10
51.54670760525482
 20
207.2315277447825
 30
0.0
 11
50.21151110525483
 21
207.2315277447825
 31
0.0
  0
LINE
  5
8F05
  8
0
 10
50.21151110525483
 20
207.2315277447825
 30
0.0
 11
50.21151110525483
 21
206.8975428947825
 31
0.0
  0
LINE
  5
8F06
  8
0
 10
52.21392110525483
 20
206.8975428947825
 30
0.0
 11
52.88151840525484
 21
206.8975428947825
 31
0.0
  0
LINE
  5
8F07
  8
0
 10
52.88151840525484
 20
206.8975428947825
 30
0.0
 11
52.88151840525484
 21
207.2315277447825
 31
0.0
  0
LINE
  5
8F08
  8
0
 10
52.88151840525484
 20
207.2315277447825
 30
0.0
 11
52.21392110525483
 21
207.2315277447825
 31
0.0
  0
LINE
  5
8F09
  8
0
 10
52.21392110525483
 20
207.2315277447825
 30
0.0
 11
52.21392110525483
 21
206.8975428947825
 31
0.0
  0
LINE
  5
8F0A
  8
0
 10
53.21550610525483
 20
206.8975428947825
 30
0.0
 11
53.54986240525483
 21
206.8975428947825
 31
0.0
  0
LINE
  5
8F0B
  8
0
 10
53.54986240525483
 20
206.8975428947825
 30
0.0
 11
53.54986240525483
 21
207.2315277447825
 31
0.0
  0
LINE
  5
8F0C
  8
0
 10
53.54986240525483
 20
207.2315277447825
 30
0.0
 11
53.21550610525483
 21
207.2315277447825
 31
0.0
  0
LINE
  5
8F0D
  8
0
 10
53.21550610525483
 20
207.2315277447825
 30
0.0
 11
53.21550610525483
 21
206.8975428947825
 31
0.0
  0
LINE
  5
8F0E
  8
0
 10
43.20193610525482
 20
206.5642828947825
 30
0.0
 11
43.53629240525481
 21
206.5642828947825
 31
0.0
  0
LINE
  5
8F0F
  8
0
 10
43.53629240525481
 20
206.5642828947825
 30
0.0
 11
43.53629240525481
 21
206.8982667947825
 31
0.0
  0
LINE
  5
8F10
  8
0
 10
43.53629240525481
 20
206.8982667947825
 30
0.0
 11
43.20193610525482
 21
206.8982667947825
 31
0.0
  0
LINE
  5
8F11
  8
0
 10
43.20193610525482
 20
206.8982667947825
 30
0.0
 11
43.20193610525482
 21
206.5642828947825
 31
0.0
  0
LINE
  5
8F12
  8
0
 10
43.86950110525484
 20
206.5642828947825
 30
0.0
 11
44.20348500525483
 21
206.5642828947825
 31
0.0
  0
LINE
  5
8F13
  8
0
 10
44.20348500525483
 20
206.5642828947825
 30
0.0
 11
44.20348500525483
 21
206.8982667947825
 31
0.0
  0
LINE
  5
8F14
  8
0
 10
44.20348500525483
 20
206.8982667947825
 30
0.0
 11
43.86950110525484
 21
206.8982667947825
 31
0.0
  0
LINE
  5
8F15
  8
0
 10
43.86950110525484
 20
206.8982667947825
 30
0.0
 11
43.86950110525484
 21
206.5642828947825
 31
0.0
  0
LINE
  5
8F16
  8
0
 10
44.53744610525482
 20
206.5642828947825
 30
0.0
 11
46.54023610525482
 21
206.5642828947825
 31
0.0
  0
LINE
  5
8F17
  8
0
 10
46.54023610525482
 20
206.5642828947825
 30
0.0
 11
46.54023610525482
 21
206.8982667947825
 31
0.0
  0
LINE
  5
8F18
  8
0
 10
46.54023610525482
 20
206.8982667947825
 30
0.0
 11
44.53744610525482
 21
206.8982667947825
 31
0.0
  0
LINE
  5
8F19
  8
0
 10
44.53744610525482
 20
206.8982667947825
 30
0.0
 11
44.53744610525482
 21
206.5642828947825
 31
0.0
  0
LINE
  5
8F1A
  8
0
 10
46.87349610525482
 20
206.5642828947825
 30
0.0
 11
47.20748095525482
 21
206.5642828947825
 31
0.0
  0
LINE
  5
8F1B
  8
0
 10
47.20748095525482
 20
206.5642828947825
 30
0.0
 11
47.20748095525482
 21
206.8982667947825
 31
0.0
  0
LINE
  5
8F1C
  8
0
 10
47.20748095525482
 20
206.8982667947825
 30
0.0
 11
46.87349610525482
 21
206.8982667947825
 31
0.0
  0
LINE
  5
8F1D
  8
0
 10
46.87349610525482
 20
206.8982667947825
 30
0.0
 11
46.87349610525482
 21
206.5642828947825
 31
0.0
  0
LINE
  5
8F1E
  8
0
 10
47.54153610525481
 20
206.5642828947825
 30
0.0
 11
48.20913435525483
 21
206.5642828947825
 31
0.0
  0
LINE
  5
8F1F
  8
0
 10
48.20913435525483
 20
206.5642828947825
 30
0.0
 11
48.20913435525483
 21
206.8982667947825
 31
0.0
  0
LINE
  5
8F20
  8
0
 10
48.20913435525483
 20
206.8982667947825
 30
0.0
 11
47.54153610525481
 21
206.8982667947825
 31
0.0
  0
LINE
  5
8F21
  8
0
 10
47.54153610525481
 20
206.8982667947825
 30
0.0
 11
47.54153610525481
 21
206.5642828947825
 31
0.0
  0
LINE
  5
8F22
  8
0
 10
48.87666610525483
 20
206.5642828947825
 30
0.0
 11
49.21065000525482
 21
206.5642828947825
 31
0.0
  0
LINE
  5
8F23
  8
0
 10
49.21065000525482
 20
206.5642828947825
 30
0.0
 11
49.21065000525482
 21
206.8982667947825
 31
0.0
  0
LINE
  5
8F24
  8
0
 10
49.21065000525482
 20
206.8982667947825
 30
0.0
 11
48.87666610525483
 21
206.8982667947825
 31
0.0
  0
LINE
  5
8F25
  8
0
 10
48.87666610525483
 20
206.8982667947825
 30
0.0
 11
48.87666610525483
 21
206.5642828947825
 31
0.0
  0
LINE
  5
8F26
  8
0
 10
50.21151110525483
 20
206.5642828947825
 30
0.0
 11
50.54586645525484
 21
206.5642828947825
 31
0.0
  0
LINE
  5
8F27
  8
0
 10
50.54586645525484
 20
206.5642828947825
 30
0.0
 11
50.54586645525484
 21
206.8982667947825
 31
0.0
  0
LINE
  5
8F28
  8
0
 10
50.54586645525484
 20
206.8982667947825
 30
0.0
 11
50.21151110525483
 21
206.8982667947825
 31
0.0
  0
LINE
  5
8F29
  8
0
 10
50.21151110525483
 20
206.8982667947825
 30
0.0
 11
50.21151110525483
 21
206.5642828947825
 31
0.0
  0
LINE
  5
8F2A
  8
0
 10
51.54673610525481
 20
206.5642828947825
 30
0.0
 11
51.88072000525483
 21
206.5642828947825
 31
0.0
  0
LINE
  5
8F2B
  8
0
 10
51.88072000525483
 20
206.5642828947825
 30
0.0
 11
51.88072000525483
 21
206.8982667947825
 31
0.0
  0
LINE
  5
8F2C
  8
0
 10
51.88072000525483
 20
206.8982667947825
 30
0.0
 11
51.54673610525481
 21
206.8982667947825
 31
0.0
  0
LINE
  5
8F2D
  8
0
 10
51.54673610525481
 20
206.8982667947825
 30
0.0
 11
51.54673610525481
 21
206.5642828947825
 31
0.0
  0
LINE
  5
8F2E
  8
0
 10
52.21392110525483
 20
206.5642828947825
 30
0.0
 11
52.88151840525484
 21
206.5642828947825
 31
0.0
  0
LINE
  5
8F2F
  8
0
 10
52.88151840525484
 20
206.5642828947825
 30
0.0
 11
52.88151840525484
 21
206.8982667947825
 31
0.0
  0
LINE
  5
8F30
  8
0
 10
52.88151840525484
 20
206.8982667947825
 30
0.0
 11
52.21392110525483
 21
206.8982667947825
 31
0.0
  0
LINE
  5
8F31
  8
0
 10
52.21392110525483
 20
206.8982667947825
 30
0.0
 11
52.21392110525483
 21
206.5642828947825
 31
0.0
  0
LINE
  5
8F32
  8
0
 10
53.21550610525483
 20
206.5642828947825
 30
0.0
 11
53.54986240525483
 21
206.5642828947825
 31
0.0
  0
LINE
  5
8F33
  8
0
 10
53.54986240525483
 20
206.5642828947825
 30
0.0
 11
53.54986240525483
 21
206.8982667947825
 31
0.0
  0
LINE
  5
8F34
  8
0
 10
53.54986240525483
 20
206.8982667947825
 30
0.0
 11
53.21550610525483
 21
206.8982667947825
 31
0.0
  0
LINE
  5
8F35
  8
0
 10
53.21550610525483
 20
206.8982667947825
 30
0.0
 11
53.21550610525483
 21
206.5642828947825
 31
0.0
  0
LINE
  5
8F36
  8
0
 10
42.86867610525482
 20
206.2303578947825
 30
0.0
 11
43.20266095525483
 21
206.2303578947825
 31
0.0
  0
LINE
  5
8F37
  8
0
 10
43.20266095525483
 20
206.2303578947825
 30
0.0
 11
43.20266095525483
 21
206.5643427447825
 31
0.0
  0
LINE
  5
8F38
  8
0
 10
43.20266095525483
 20
206.5643427447825
 30
0.0
 11
42.86867610525482
 21
206.5643427447825
 31
0.0
  0
LINE
  5
8F39
  8
0
 10
42.86867610525482
 20
206.5643427447825
 30
0.0
 11
42.86867610525482
 21
206.2303578947825
 31
0.0
  0
LINE
  5
8F3A
  8
0
 10
43.53586110525484
 20
206.2303578947825
 30
0.0
 11
44.53744610525482
 21
206.2303578947825
 31
0.0
  0
LINE
  5
8F3B
  8
0
 10
44.53744610525482
 20
206.2303578947825
 30
0.0
 11
44.53744610525482
 21
206.5643427447825
 31
0.0
  0
LINE
  5
8F3C
  8
0
 10
44.53744610525482
 20
206.5643427447825
 30
0.0
 11
43.53586110525484
 21
206.5643427447825
 31
0.0
  0
LINE
  5
8F3D
  8
0
 10
43.53586110525484
 20
206.5643427447825
 30
0.0
 11
43.53586110525484
 21
206.2303578947825
 31
0.0
  0
LINE
  5
8F3E
  8
0
 10
44.87108610525482
 20
206.2303578947825
 30
0.0
 11
45.5386834052548
 21
206.2303578947825
 31
0.0
  0
LINE
  5
8F3F
  8
0
 10
45.5386834052548
 20
206.2303578947825
 30
0.0
 11
45.5386834052548
 21
206.5643427447825
 31
0.0
  0
LINE
  5
8F40
  8
0
 10
45.5386834052548
 20
206.5643427447825
 30
0.0
 11
44.87108610525482
 21
206.5643427447825
 31
0.0
  0
LINE
  5
8F41
  8
0
 10
44.87108610525482
 20
206.5643427447825
 30
0.0
 11
44.87108610525482
 21
206.2303578947825
 31
0.0
  0
LINE
  5
8F42
  8
0
 10
45.87267110525482
 20
206.2303578947825
 30
0.0
 11
46.20665500525485
 21
206.2303578947825
 31
0.0
  0
LINE
  5
8F43
  8
0
 10
46.20665500525485
 20
206.2303578947825
 30
0.0
 11
46.20665500525485
 21
206.5643427447825
 31
0.0
  0
LINE
  5
8F44
  8
0
 10
46.20665500525485
 20
206.5643427447825
 30
0.0
 11
45.87267110525482
 21
206.5643427447825
 31
0.0
  0
LINE
  5
8F45
  8
0
 10
45.87267110525482
 20
206.5643427447825
 30
0.0
 11
45.87267110525482
 21
206.2303578947825
 31
0.0
  0
LINE
  5
8F46
  8
0
 10
47.54153610525481
 20
206.2303578947825
 30
0.0
 11
49.87831760525484
 21
206.2303578947825
 31
0.0
  0
LINE
  5
8F47
  8
0
 10
49.87831760525484
 20
206.2303578947825
 30
0.0
 11
49.87831760525484
 21
206.5643427447825
 31
0.0
  0
LINE
  5
8F48
  8
0
 10
49.87831760525484
 20
206.5643427447825
 30
0.0
 11
47.54153610525481
 21
206.5643427447825
 31
0.0
  0
LINE
  5
8F49
  8
0
 10
47.54153610525481
 20
206.5643427447825
 30
0.0
 11
47.54153610525481
 21
206.2303578947825
 31
0.0
  0
LINE
  5
8F4A
  8
0
 10
50.21151110525483
 20
206.2303578947825
 30
0.0
 11
50.54586645525484
 21
206.2303578947825
 31
0.0
  0
LINE
  5
8F4B
  8
0
 10
50.54586645525484
 20
206.2303578947825
 30
0.0
 11
50.54586645525484
 21
206.5643427447825
 31
0.0
  0
LINE
  5
8F4C
  8
0
 10
50.54586645525484
 20
206.5643427447825
 30
0.0
 11
50.21151110525483
 21
206.5643427447825
 31
0.0
  0
LINE
  5
8F4D
  8
0
 10
50.21151110525483
 20
206.5643427447825
 30
0.0
 11
50.21151110525483
 21
206.2303578947825
 31
0.0
  0
LINE
  5
8F4E
  8
0
 10
50.87907610525482
 20
206.2303578947825
 30
0.0
 11
51.21306095525483
 21
206.2303578947825
 31
0.0
  0
LINE
  5
8F4F
  8
0
 10
51.21306095525483
 20
206.2303578947825
 30
0.0
 11
51.21306095525483
 21
206.5643427447825
 31
0.0
  0
LINE
  5
8F50
  8
0
 10
51.21306095525483
 20
206.5643427447825
 30
0.0
 11
50.87907610525482
 21
206.5643427447825
 31
0.0
  0
LINE
  5
8F51
  8
0
 10
50.87907610525482
 20
206.5643427447825
 30
0.0
 11
50.87907610525482
 21
206.2303578947825
 31
0.0
  0
LINE
  5
8F52
  8
0
 10
51.88066110525483
 20
206.2303578947825
 30
0.0
 11
52.88224610525481
 21
206.2303578947825
 31
0.0
  0
LINE
  5
8F53
  8
0
 10
52.88224610525481
 20
206.2303578947825
 30
0.0
 11
52.88224610525481
 21
206.5643427447825
 31
0.0
  0
LINE
  5
8F54
  8
0
 10
52.88224610525481
 20
206.5643427447825
 30
0.0
 11
51.88066110525483
 21
206.5643427447825
 31
0.0
  0
LINE
  5
8F55
  8
0
 10
51.88066110525483
 20
206.5643427447825
 30
0.0
 11
51.88066110525483
 21
206.2303578947825
 31
0.0
  0
LINE
  5
8F56
  8
0
 10
53.21550610525483
 20
206.2303578947825
 30
0.0
 11
53.54986240525483
 21
206.2303578947825
 31
0.0
  0
LINE
  5
8F57
  8
0
 10
53.54986240525483
 20
206.2303578947825
 30
0.0
 11
53.54986240525483
 21
206.5643427447825
 31
0.0
  0
LINE
  5
8F58
  8
0
 10
53.54986240525483
 20
206.5643427447825
 30
0.0
 11
53.21550610525483
 21
206.5643427447825
 31
0.0
  0
LINE
  5
8F59
  8
0
 10
53.21550610525483
 20
206.5643427447825
 30
0.0
 11
53.21550610525483
 21
206.2303578947825
 31
0.0
  0
LINE
  5
8F5A
  8
0
 10
42.53437110525482
 20
205.8959578947825
 30
0.0
 11
43.86956760525482
 21
205.8959578947825
 31
0.0
  0
LINE
  5
8F5B
  8
0
 10
43.86956760525482
 20
205.8959578947825
 30
0.0
 11
43.86956760525482
 21
206.2303132447825
 31
0.0
  0
LINE
  5
8F5C
  8
0
 10
43.86956760525482
 20
206.2303132447825
 30
0.0
 11
42.53437110525482
 21
206.2303132447825
 31
0.0
  0
LINE
  5
8F5D
  8
0
 10
42.53437110525482
 20
206.2303132447825
 30
0.0
 11
42.53437110525482
 21
205.8959578947825
 31
0.0
  0
LINE
  5
8F5E
  8
0
 10
44.53744610525482
 20
205.8959578947825
 30
0.0
 11
44.87143000525481
 21
205.8959578947825
 31
0.0
  0
LINE
  5
8F5F
  8
0
 10
44.87143000525481
 20
205.8959578947825
 30
0.0
 11
44.87143000525481
 21
206.2303132447825
 31
0.0
  0
LINE
  5
8F60
  8
0
 10
44.87143000525481
 20
206.2303132447825
 30
0.0
 11
44.53744610525482
 21
206.2303132447825
 31
0.0
  0
LINE
  5
8F61
  8
0
 10
44.53744610525482
 20
206.2303132447825
 30
0.0
 11
44.53744610525482
 21
205.8959578947825
 31
0.0
  0
LINE
  5
8F62
  8
0
 10
45.20510610525483
 20
205.8959578947825
 30
0.0
 11
45.53909095525484
 21
205.8959578947825
 31
0.0
  0
LINE
  5
8F63
  8
0
 10
45.53909095525484
 20
205.8959578947825
 30
0.0
 11
45.53909095525484
 21
206.2303132447825
 31
0.0
  0
LINE
  5
8F64
  8
0
 10
45.53909095525484
 20
206.2303132447825
 30
0.0
 11
45.20510610525483
 21
206.2303132447825
 31
0.0
  0
LINE
  5
8F65
  8
0
 10
45.20510610525483
 20
206.2303132447825
 30
0.0
 11
45.20510610525483
 21
205.8959578947825
 31
0.0
  0
LINE
  5
8F66
  8
0
 10
45.87267110525482
 20
205.8959578947825
 30
0.0
 11
46.20665500525485
 21
205.8959578947825
 31
0.0
  0
LINE
  5
8F67
  8
0
 10
46.20665500525485
 20
205.8959578947825
 30
0.0
 11
46.20665500525485
 21
206.2303132447825
 31
0.0
  0
LINE
  5
8F68
  8
0
 10
46.20665500525485
 20
206.2303132447825
 30
0.0
 11
45.87267110525482
 21
206.2303132447825
 31
0.0
  0
LINE
  5
8F69
  8
0
 10
45.87267110525482
 20
206.2303132447825
 30
0.0
 11
45.87267110525482
 21
205.8959578947825
 31
0.0
  0
LINE
  5
8F6A
  8
0
 10
46.54033110525484
 20
205.8959578947825
 30
0.0
 11
47.54154560525484
 21
205.8959578947825
 31
0.0
  0
LINE
  5
8F6B
  8
0
 10
47.54154560525484
 20
205.8959578947825
 30
0.0
 11
47.54154560525484
 21
206.2303132447825
 31
0.0
  0
LINE
  5
8F6C
  8
0
 10
47.54154560525484
 20
206.2303132447825
 30
0.0
 11
46.54033110525484
 21
206.2303132447825
 31
0.0
  0
LINE
  5
8F6D
  8
0
 10
46.54033110525484
 20
206.2303132447825
 30
0.0
 11
46.54033110525484
 21
205.8959578947825
 31
0.0
  0
LINE
  5
8F6E
  8
0
 10
47.87508110525482
 20
205.8959578947825
 30
0.0
 11
48.20906595525483
 21
205.8959578947825
 31
0.0
  0
LINE
  5
8F6F
  8
0
 10
48.20906595525483
 20
205.8959578947825
 30
0.0
 11
48.20906595525483
 21
206.2303132447825
 31
0.0
  0
LINE
  5
8F70
  8
0
 10
48.20906595525483
 20
206.2303132447825
 30
0.0
 11
47.87508110525482
 21
206.2303132447825
 31
0.0
  0
LINE
  5
8F71
  8
0
 10
47.87508110525482
 20
206.2303132447825
 30
0.0
 11
47.87508110525482
 21
205.8959578947825
 31
0.0
  0
LINE
  5
8F72
  8
0
 10
49.20992610525485
 20
205.8959578947825
 30
0.0
 11
50.21151110525483
 21
205.8959578947825
 31
0.0
  0
LINE
  5
8F73
  8
0
 10
50.21151110525483
 20
205.8959578947825
 30
0.0
 11
50.21151110525483
 21
206.2303132447825
 31
0.0
  0
LINE
  5
8F74
  8
0
 10
50.21151110525483
 20
206.2303132447825
 30
0.0
 11
49.20992610525485
 21
206.2303132447825
 31
0.0
  0
LINE
  5
8F75
  8
0
 10
49.20992610525485
 20
206.2303132447825
 30
0.0
 11
49.20992610525485
 21
205.8959578947825
 31
0.0
  0
LINE
  5
8F76
  8
0
 10
50.87907610525482
 20
205.8959578947825
 30
0.0
 11
51.21306095525483
 21
205.8959578947825
 31
0.0
  0
LINE
  5
8F77
  8
0
 10
51.21306095525483
 20
205.8959578947825
 30
0.0
 11
51.21306095525483
 21
206.2303132447825
 31
0.0
  0
LINE
  5
8F78
  8
0
 10
51.21306095525483
 20
206.2303132447825
 30
0.0
 11
50.87907610525482
 21
206.2303132447825
 31
0.0
  0
LINE
  5
8F79
  8
0
 10
50.87907610525482
 20
206.2303132447825
 30
0.0
 11
50.87907610525482
 21
205.8959578947825
 31
0.0
  0
LINE
  5
8F7A
  8
0
 10
51.88066110525483
 20
205.8959578947825
 30
0.0
 11
52.54788790525484
 21
205.8959578947825
 31
0.0
  0
LINE
  5
8F7B
  8
0
 10
52.54788790525484
 20
205.8959578947825
 30
0.0
 11
52.54788790525484
 21
206.2303132447825
 31
0.0
  0
LINE
  5
8F7C
  8
0
 10
52.54788790525484
 20
206.2303132447825
 30
0.0
 11
51.88066110525483
 21
206.2303132447825
 31
0.0
  0
LINE
  5
8F7D
  8
0
 10
51.88066110525483
 20
206.2303132447825
 30
0.0
 11
51.88066110525483
 21
205.8959578947825
 31
0.0
  0
LINE
  5
8F7E
  8
0
 10
42.53437110525482
 20
205.5626978947825
 30
0.0
 11
43.20196840525483
 21
205.5626978947825
 31
0.0
  0
LINE
  5
8F7F
  8
0
 10
43.20196840525483
 20
205.5626978947825
 30
0.0
 11
43.20196840525483
 21
205.8966827447825
 31
0.0
  0
LINE
  5
8F80
  8
0
 10
43.20196840525483
 20
205.8966827447825
 30
0.0
 11
42.53437110525482
 21
205.8966827447825
 31
0.0
  0
LINE
  5
8F81
  8
0
 10
42.53437110525482
 20
205.8966827447825
 30
0.0
 11
42.53437110525482
 21
205.5626978947825
 31
0.0
  0
LINE
  5
8F82
  8
0
 10
43.53586110525484
 20
205.5626978947825
 30
0.0
 11
43.86984500525483
 21
205.5626978947825
 31
0.0
  0
LINE
  5
8F83
  8
0
 10
43.86984500525483
 20
205.5626978947825
 30
0.0
 11
43.86984500525483
 21
205.8966827447825
 31
0.0
  0
LINE
  5
8F84
  8
0
 10
43.86984500525483
 20
205.8966827447825
 30
0.0
 11
43.53586110525484
 21
205.8966827447825
 31
0.0
  0
LINE
  5
8F85
  8
0
 10
43.53586110525484
 20
205.8966827447825
 30
0.0
 11
43.53586110525484
 21
205.5626978947825
 31
0.0
  0
LINE
  5
8F86
  8
0
 10
44.20352110525482
 20
205.5626978947825
 30
0.0
 11
44.53750595525483
 21
205.5626978947825
 31
0.0
  0
LINE
  5
8F87
  8
0
 10
44.53750595525483
 20
205.5626978947825
 30
0.0
 11
44.53750595525483
 21
205.8966827447825
 31
0.0
  0
LINE
  5
8F88
  8
0
 10
44.53750595525483
 20
205.8966827447825
 30
0.0
 11
44.20352110525482
 21
205.8966827447825
 31
0.0
  0
LINE
  5
8F89
  8
0
 10
44.20352110525482
 20
205.8966827447825
 30
0.0
 11
44.20352110525482
 21
205.5626978947825
 31
0.0
  0
LINE
  5
8F8A
  8
0
 10
45.20510610525483
 20
205.5626978947825
 30
0.0
 11
45.53909095525484
 21
205.5626978947825
 31
0.0
  0
LINE
  5
8F8B
  8
0
 10
45.53909095525484
 20
205.5626978947825
 30
0.0
 11
45.53909095525484
 21
205.8966827447825
 31
0.0
  0
LINE
  5
8F8C
  8
0
 10
45.53909095525484
 20
205.8966827447825
 30
0.0
 11
45.20510610525483
 21
205.8966827447825
 31
0.0
  0
LINE
  5
8F8D
  8
0
 10
45.20510610525483
 20
205.8966827447825
 30
0.0
 11
45.20510610525483
 21
205.5626978947825
 31
0.0
  0
LINE
  5
8F8E
  8
0
 10
45.87267110525482
 20
205.5626978947825
 30
0.0
 11
46.87388560525483
 21
205.5626978947825
 31
0.0
  0
LINE
  5
8F8F
  8
0
 10
46.87388560525483
 20
205.5626978947825
 30
0.0
 11
46.87388560525483
 21
205.8966827447825
 31
0.0
  0
LINE
  5
8F90
  8
0
 10
46.87388560525483
 20
205.8966827447825
 30
0.0
 11
45.87267110525482
 21
205.8966827447825
 31
0.0
  0
LINE
  5
8F91
  8
0
 10
45.87267110525482
 20
205.8966827447825
 30
0.0
 11
45.87267110525482
 21
205.5626978947825
 31
0.0
  0
LINE
  5
8F92
  8
0
 10
47.20751610525485
 20
205.5626978947825
 30
0.0
 11
47.54150000525482
 21
205.5626978947825
 31
0.0
  0
LINE
  5
8F93
  8
0
 10
47.54150000525482
 20
205.5626978947825
 30
0.0
 11
47.54150000525482
 21
205.8966827447825
 31
0.0
  0
LINE
  5
8F94
  8
0
 10
47.54150000525482
 20
205.8966827447825
 30
0.0
 11
47.20751610525485
 21
205.8966827447825
 31
0.0
  0
LINE
  5
8F95
  8
0
 10
47.20751610525485
 20
205.8966827447825
 30
0.0
 11
47.20751610525485
 21
205.5626978947825
 31
0.0
  0
LINE
  5
8F96
  8
0
 10
47.87508110525482
 20
205.5626978947825
 30
0.0
 11
48.87666610525483
 21
205.5626978947825
 31
0.0
  0
LINE
  5
8F97
  8
0
 10
48.87666610525483
 20
205.5626978947825
 30
0.0
 11
48.87666610525483
 21
205.8966827447825
 31
0.0
  0
LINE
  5
8F98
  8
0
 10
48.87666610525483
 20
205.8966827447825
 30
0.0
 11
47.87508110525482
 21
205.8966827447825
 31
0.0
  0
LINE
  5
8F99
  8
0
 10
47.87508110525482
 20
205.8966827447825
 30
0.0
 11
47.87508110525482
 21
205.5626978947825
 31
0.0
  0
LINE
  5
8F9A
  8
0
 10
49.20992610525485
 20
205.5626978947825
 30
0.0
 11
49.54428145525483
 21
205.5626978947825
 31
0.0
  0
LINE
  5
8F9B
  8
0
 10
49.54428145525483
 20
205.5626978947825
 30
0.0
 11
49.54428145525483
 21
205.8966827447825
 31
0.0
  0
LINE
  5
8F9C
  8
0
 10
49.54428145525483
 20
205.8966827447825
 30
0.0
 11
49.20992610525485
 21
205.8966827447825
 31
0.0
  0
LINE
  5
8F9D
  8
0
 10
49.20992610525485
 20
205.8966827447825
 30
0.0
 11
49.20992610525485
 21
205.5626978947825
 31
0.0
  0
LINE
  5
8F9E
  8
0
 10
49.87749110525482
 20
205.5626978947825
 30
0.0
 11
50.54508840525483
 21
205.5626978947825
 31
0.0
  0
LINE
  5
8F9F
  8
0
 10
50.54508840525483
 20
205.5626978947825
 30
0.0
 11
50.54508840525483
 21
205.8966827447825
 31
0.0
  0
LINE
  5
8FA0
  8
0
 10
50.54508840525483
 20
205.8966827447825
 30
0.0
 11
49.87749110525482
 21
205.8966827447825
 31
0.0
  0
LINE
  5
8FA1
  8
0
 10
49.87749110525482
 20
205.8966827447825
 30
0.0
 11
49.87749110525482
 21
205.5626978947825
 31
0.0
  0
LINE
  5
8FA2
  8
0
 10
51.54673610525481
 20
205.5626978947825
 30
0.0
 11
52.88156210525483
 21
205.5626978947825
 31
0.0
  0
LINE
  5
8FA3
  8
0
 10
52.88156210525483
 20
205.5626978947825
 30
0.0
 11
52.88156210525483
 21
205.8966827447825
 31
0.0
  0
LINE
  5
8FA4
  8
0
 10
52.88156210525483
 20
205.8966827447825
 30
0.0
 11
51.54673610525481
 21
205.8966827447825
 31
0.0
  0
LINE
  5
8FA5
  8
0
 10
51.54673610525481
 20
205.8966827447825
 30
0.0
 11
51.54673610525481
 21
205.5626978947825
 31
0.0
  0
LINE
  5
8FA6
  8
0
 10
42.53437110525482
 20
205.2287728947825
 30
0.0
 11
42.86872645525483
 21
205.2287728947825
 31
0.0
  0
LINE
  5
8FA7
  8
0
 10
42.86872645525483
 20
205.2287728947825
 30
0.0
 11
42.86872645525483
 21
205.5627567947825
 31
0.0
  0
LINE
  5
8FA8
  8
0
 10
42.86872645525483
 20
205.5627567947825
 30
0.0
 11
42.53437110525482
 21
205.5627567947825
 31
0.0
  0
LINE
  5
8FA9
  8
0
 10
42.53437110525482
 20
205.5627567947825
 30
0.0
 11
42.53437110525482
 21
205.2287728947825
 31
0.0
  0
LINE
  5
8FAA
  8
0
 10
43.20193610525482
 20
205.2287728947825
 30
0.0
 11
43.53629240525481
 21
205.2287728947825
 31
0.0
  0
LINE
  5
8FAB
  8
0
 10
43.53629240525481
 20
205.2287728947825
 30
0.0
 11
43.53629240525481
 21
205.5627567947825
 31
0.0
  0
LINE
  5
8FAC
  8
0
 10
43.53629240525481
 20
205.5627567947825
 30
0.0
 11
43.20193610525482
 21
205.5627567947825
 31
0.0
  0
LINE
  5
8FAD
  8
0
 10
43.20193610525482
 20
205.5627567947825
 30
0.0
 11
43.20193610525482
 21
205.2287728947825
 31
0.0
  0
LINE
  5
8FAE
  8
0
 10
43.86950110525484
 20
205.2287728947825
 30
0.0
 11
44.87108610525482
 21
205.2287728947825
 31
0.0
  0
LINE
  5
8FAF
  8
0
 10
44.87108610525482
 20
205.2287728947825
 30
0.0
 11
44.87108610525482
 21
205.5627567947825
 31
0.0
  0
LINE
  5
8FB0
  8
0
 10
44.87108610525482
 20
205.5627567947825
 30
0.0
 11
43.86950110525484
 21
205.5627567947825
 31
0.0
  0
LINE
  5
8FB1
  8
0
 10
43.86950110525484
 20
205.5627567947825
 30
0.0
 11
43.86950110525484
 21
205.2287728947825
 31
0.0
  0
LINE
  5
8FB2
  8
0
 10
45.5387461052548
 20
205.2287728947825
 30
0.0
 11
45.87273095525481
 21
205.2287728947825
 31
0.0
  0
LINE
  5
8FB3
  8
0
 10
45.87273095525481
 20
205.2287728947825
 30
0.0
 11
45.87273095525481
 21
205.5627567947825
 31
0.0
  0
LINE
  5
8FB4
  8
0
 10
45.87273095525481
 20
205.5627567947825
 30
0.0
 11
45.5387461052548
 21
205.5627567947825
 31
0.0
  0
LINE
  5
8FB5
  8
0
 10
45.5387461052548
 20
205.5627567947825
 30
0.0
 11
45.5387461052548
 21
205.2287728947825
 31
0.0
  0
LINE
  5
8FB6
  8
0
 10
46.20593110525482
 20
205.2287728947825
 30
0.0
 11
46.53991500525484
 21
205.2287728947825
 31
0.0
  0
LINE
  5
8FB7
  8
0
 10
46.53991500525484
 20
205.2287728947825
 30
0.0
 11
46.53991500525484
 21
205.5627567947825
 31
0.0
  0
LINE
  5
8FB8
  8
0
 10
46.53991500525484
 20
205.5627567947825
 30
0.0
 11
46.20593110525482
 21
205.5627567947825
 31
0.0
  0
LINE
  5
8FB9
  8
0
 10
46.20593110525482
 20
205.5627567947825
 30
0.0
 11
46.20593110525482
 21
205.2287728947825
 31
0.0
  0
LINE
  5
8FBA
  8
0
 10
47.54153610525481
 20
205.2287728947825
 30
0.0
 11
48.54312110525484
 21
205.2287728947825
 31
0.0
  0
LINE
  5
8FBB
  8
0
 10
48.54312110525484
 20
205.2287728947825
 30
0.0
 11
48.54312110525484
 21
205.5627567947825
 31
0.0
  0
LINE
  5
8FBC
  8
0
 10
48.54312110525484
 20
205.5627567947825
 30
0.0
 11
47.54153610525481
 21
205.5627567947825
 31
0.0
  0
LINE
  5
8FBD
  8
0
 10
47.54153610525481
 20
205.5627567947825
 30
0.0
 11
47.54153610525481
 21
205.2287728947825
 31
0.0
  0
LINE
  5
8FBE
  8
0
 10
49.20992610525485
 20
205.2287728947825
 30
0.0
 11
49.87752435525482
 21
205.2287728947825
 31
0.0
  0
LINE
  5
8FBF
  8
0
 10
49.87752435525482
 20
205.2287728947825
 30
0.0
 11
49.87752435525482
 21
205.5627567947825
 31
0.0
  0
LINE
  5
8FC0
  8
0
 10
49.87752435525482
 20
205.5627567947825
 30
0.0
 11
49.20992610525485
 21
205.5627567947825
 31
0.0
  0
LINE
  5
8FC1
  8
0
 10
49.20992610525485
 20
205.5627567947825
 30
0.0
 11
49.20992610525485
 21
205.2287728947825
 31
0.0
  0
LINE
  5
8FC2
  8
0
 10
50.54591110525482
 20
205.2287728947825
 30
0.0
 11
51.21313790525483
 21
205.2287728947825
 31
0.0
  0
LINE
  5
8FC3
  8
0
 10
51.21313790525483
 20
205.2287728947825
 30
0.0
 11
51.21313790525483
 21
205.5627567947825
 31
0.0
  0
LINE
  5
8FC4
  8
0
 10
51.21313790525483
 20
205.5627567947825
 30
0.0
 11
50.54591110525482
 21
205.5627567947825
 31
0.0
  0
LINE
  5
8FC5
  8
0
 10
50.54591110525482
 20
205.5627567947825
 30
0.0
 11
50.54591110525482
 21
205.2287728947825
 31
0.0
  0
LINE
  5
8FC6
  8
0
 10
51.54673610525481
 20
205.2287728947825
 30
0.0
 11
51.88072000525483
 21
205.2287728947825
 31
0.0
  0
LINE
  5
8FC7
  8
0
 10
51.88072000525483
 20
205.2287728947825
 30
0.0
 11
51.88072000525483
 21
205.5627567947825
 31
0.0
  0
LINE
  5
8FC8
  8
0
 10
51.88072000525483
 20
205.5627567947825
 30
0.0
 11
51.54673610525481
 21
205.5627567947825
 31
0.0
  0
LINE
  5
8FC9
  8
0
 10
51.54673610525481
 20
205.5627567947825
 30
0.0
 11
51.54673610525481
 21
205.2287728947825
 31
0.0
  0
LINE
  5
8FCA
  8
0
 10
52.21392110525483
 20
205.2287728947825
 30
0.0
 11
53.21550610525483
 21
205.2287728947825
 31
0.0
  0
LINE
  5
8FCB
  8
0
 10
53.21550610525483
 20
205.2287728947825
 30
0.0
 11
53.21550610525483
 21
205.5627567947825
 31
0.0
  0
LINE
  5
8FCC
  8
0
 10
53.21550610525483
 20
205.5627567947825
 30
0.0
 11
52.21392110525483
 21
205.5627567947825
 31
0.0
  0
LINE
  5
8FCD
  8
0
 10
52.21392110525483
 20
205.5627567947825
 30
0.0
 11
52.21392110525483
 21
205.2287728947825
 31
0.0
  0
LINE
  5
8FCE
  8
0
 10
42.53437110525482
 20
204.8951328947825
 30
0.0
 11
42.86872645525483
 21
204.8951328947825
 31
0.0
  0
LINE
  5
8FCF
  8
0
 10
42.86872645525483
 20
204.8951328947825
 30
0.0
 11
42.86872645525483
 21
205.2291167947825
 31
0.0
  0
LINE
  5
8FD0
  8
0
 10
42.86872645525483
 20
205.2291167947825
 30
0.0
 11
42.53437110525482
 21
205.2291167947825
 31
0.0
  0
LINE
  5
8FD1
  8
0
 10
42.53437110525482
 20
205.2291167947825
 30
0.0
 11
42.53437110525482
 21
204.8951328947825
 31
0.0
  0
LINE
  5
8FD2
  8
0
 10
43.86950110525484
 20
204.8951328947825
 30
0.0
 11
44.53709840525482
 21
204.8951328947825
 31
0.0
  0
LINE
  5
8FD3
  8
0
 10
44.53709840525482
 20
204.8951328947825
 30
0.0
 11
44.53709840525482
 21
205.2291167947825
 31
0.0
  0
LINE
  5
8FD4
  8
0
 10
44.53709840525482
 20
205.2291167947825
 30
0.0
 11
43.86950110525484
 21
205.2291167947825
 31
0.0
  0
LINE
  5
8FD5
  8
0
 10
43.86950110525484
 20
205.2291167947825
 30
0.0
 11
43.86950110525484
 21
204.8951328947825
 31
0.0
  0
LINE
  5
8FD6
  8
0
 10
44.87108610525482
 20
204.8951328947825
 30
0.0
 11
46.87350560525482
 21
204.8951328947825
 31
0.0
  0
LINE
  5
8FD7
  8
0
 10
46.87350560525482
 20
204.8951328947825
 30
0.0
 11
46.87350560525482
 21
205.2291167947825
 31
0.0
  0
LINE
  5
8FD8
  8
0
 10
46.87350560525482
 20
205.2291167947825
 30
0.0
 11
44.87108610525482
 21
205.2291167947825
 31
0.0
  0
LINE
  5
8FD9
  8
0
 10
44.87108610525482
 20
205.2291167947825
 30
0.0
 11
44.87108610525482
 21
204.8951328947825
 31
0.0
  0
LINE
  5
8FDA
  8
0
 10
48.54274110525483
 20
204.8951328947825
 30
0.0
 11
48.87672595525481
 21
204.8951328947825
 31
0.0
  0
LINE
  5
8FDB
  8
0
 10
48.87672595525481
 20
204.8951328947825
 30
0.0
 11
48.87672595525481
 21
205.2291167947825
 31
0.0
  0
LINE
  5
8FDC
  8
0
 10
48.87672595525481
 20
205.2291167947825
 30
0.0
 11
48.54274110525483
 21
205.2291167947825
 31
0.0
  0
LINE
  5
8FDD
  8
0
 10
48.54274110525483
 20
205.2291167947825
 30
0.0
 11
48.54274110525483
 21
204.8951328947825
 31
0.0
  0
LINE
  5
8FDE
  8
0
 10
49.87749110525482
 20
204.8951328947825
 30
0.0
 11
50.54508840525483
 21
204.8951328947825
 31
0.0
  0
LINE
  5
8FDF
  8
0
 10
50.54508840525483
 20
204.8951328947825
 30
0.0
 11
50.54508840525483
 21
205.2291167947825
 31
0.0
  0
LINE
  5
8FE0
  8
0
 10
50.54508840525483
 20
205.2291167947825
 30
0.0
 11
49.87749110525482
 21
205.2291167947825
 31
0.0
  0
LINE
  5
8FE1
  8
0
 10
49.87749110525482
 20
205.2291167947825
 30
0.0
 11
49.87749110525482
 21
204.8951328947825
 31
0.0
  0
LINE
  5
8FE2
  8
0
 10
50.87907610525482
 20
204.8951328947825
 30
0.0
 11
51.88066110525483
 21
204.8951328947825
 31
0.0
  0
LINE
  5
8FE3
  8
0
 10
51.88066110525483
 20
204.8951328947825
 30
0.0
 11
51.88066110525483
 21
205.2291167947825
 31
0.0
  0
LINE
  5
8FE4
  8
0
 10
51.88066110525483
 20
205.2291167947825
 30
0.0
 11
50.87907610525482
 21
205.2291167947825
 31
0.0
  0
LINE
  5
8FE5
  8
0
 10
50.87907610525482
 20
205.2291167947825
 30
0.0
 11
50.87907610525482
 21
204.8951328947825
 31
0.0
  0
LINE
  5
8FE6
  8
0
 10
52.21392110525483
 20
204.8951328947825
 30
0.0
 11
52.88151840525484
 21
204.8951328947825
 31
0.0
  0
LINE
  5
8FE7
  8
0
 10
52.88151840525484
 20
204.8951328947825
 30
0.0
 11
52.88151840525484
 21
205.2291167947825
 31
0.0
  0
LINE
  5
8FE8
  8
0
 10
52.88151840525484
 20
205.2291167947825
 30
0.0
 11
52.21392110525483
 21
205.2291167947825
 31
0.0
  0
LINE
  5
8FE9
  8
0
 10
52.21392110525483
 20
205.2291167947825
 30
0.0
 11
52.21392110525483
 21
204.8951328947825
 31
0.0
  0
LINE
  5
8FEA
  8
0
 10
53.21550610525483
 20
204.8951328947825
 30
0.0
 11
53.54986240525483
 21
204.8951328947825
 31
0.0
  0
LINE
  5
8FEB
  8
0
 10
53.54986240525483
 20
204.8951328947825
 30
0.0
 11
53.54986240525483
 21
205.2291167947825
 31
0.0
  0
LINE
  5
8FEC
  8
0
 10
53.54986240525483
 20
205.2291167947825
 30
0.0
 11
53.21550610525483
 21
205.2291167947825
 31
0.0
  0
LINE
  5
8FED
  8
0
 10
53.21550610525483
 20
205.2291167947825
 30
0.0
 11
53.21550610525483
 21
204.8951328947825
 31
0.0
  0
LINE
  5
8FEE
  8
0
 10
42.53437110525482
 20
204.5611128947825
 30
0.0
 11
43.20196840525483
 21
204.5611128947825
 31
0.0
  0
LINE
  5
8FEF
  8
0
 10
43.20196840525483
 20
204.5611128947825
 30
0.0
 11
43.20196840525483
 21
204.8950977447825
 31
0.0
  0
LINE
  5
8FF0
  8
0
 10
43.20196840525483
 20
204.8950977447825
 30
0.0
 11
42.53437110525482
 21
204.8950977447825
 31
0.0
  0
LINE
  5
8FF1
  8
0
 10
42.53437110525482
 20
204.8950977447825
 30
0.0
 11
42.53437110525482
 21
204.5611128947825
 31
0.0
  0
LINE
  5
8FF2
  8
0
 10
43.53586110525484
 20
204.5611128947825
 30
0.0
 11
43.86984500525483
 21
204.5611128947825
 31
0.0
  0
LINE
  5
8FF3
  8
0
 10
43.86984500525483
 20
204.5611128947825
 30
0.0
 11
43.86984500525483
 21
204.8950977447825
 31
0.0
  0
LINE
  5
8FF4
  8
0
 10
43.86984500525483
 20
204.8950977447825
 30
0.0
 11
43.53586110525484
 21
204.8950977447825
 31
0.0
  0
LINE
  5
8FF5
  8
0
 10
43.53586110525484
 20
204.8950977447825
 30
0.0
 11
43.53586110525484
 21
204.5611128947825
 31
0.0
  0
LINE
  5
8FF6
  8
0
 10
44.20352110525482
 20
204.5611128947825
 30
0.0
 11
46.20594060525482
 21
204.5611128947825
 31
0.0
  0
LINE
  5
8FF7
  8
0
 10
46.20594060525482
 20
204.5611128947825
 30
0.0
 11
46.20594060525482
 21
204.8950977447825
 31
0.0
  0
LINE
  5
8FF8
  8
0
 10
46.20594060525482
 20
204.8950977447825
 30
0.0
 11
44.20352110525482
 21
204.8950977447825
 31
0.0
  0
LINE
  5
8FF9
  8
0
 10
44.20352110525482
 20
204.8950977447825
 30
0.0
 11
44.20352110525482
 21
204.5611128947825
 31
0.0
  0
LINE
  5
8FFA
  8
0
 10
47.54153610525481
 20
204.5611128947825
 30
0.0
 11
48.20913435525483
 21
204.5611128947825
 31
0.0
  0
LINE
  5
8FFB
  8
0
 10
48.20913435525483
 20
204.5611128947825
 30
0.0
 11
48.20913435525483
 21
204.8950977447825
 31
0.0
  0
LINE
  5
8FFC
  8
0
 10
48.20913435525483
 20
204.8950977447825
 30
0.0
 11
47.54153610525481
 21
204.8950977447825
 31
0.0
  0
LINE
  5
8FFD
  8
0
 10
47.54153610525481
 20
204.8950977447825
 30
0.0
 11
47.54153610525481
 21
204.5611128947825
 31
0.0
  0
LINE
  5
8FFE
  8
0
 10
48.87666610525483
 20
204.5611128947825
 30
0.0
 11
49.54426340525481
 21
204.5611128947825
 31
0.0
  0
LINE
  5
8FFF
  8
0
 10
49.54426340525481
 20
204.5611128947825
 30
0.0
 11
49.54426340525481
 21
204.8950977447825
 31
0.0
  0
LINE
  5
9000
  8
0
 10
49.54426340525481
 20
204.8950977447825
 30
0.0
 11
48.87666610525483
 21
204.8950977447825
 31
0.0
  0
LINE
  5
9001
  8
0
 10
48.87666610525483
 20
204.8950977447825
 30
0.0
 11
48.87666610525483
 21
204.5611128947825
 31
0.0
  0
LINE
  5
9002
  8
0
 10
50.54591110525482
 20
204.5611128947825
 30
0.0
 11
52.54833060525482
 21
204.5611128947825
 31
0.0
  0
LINE
  5
9003
  8
0
 10
52.54833060525482
 20
204.5611128947825
 30
0.0
 11
52.54833060525482
 21
204.8950977447825
 31
0.0
  0
LINE
  5
9004
  8
0
 10
52.54833060525482
 20
204.8950977447825
 30
0.0
 11
50.54591110525482
 21
204.8950977447825
 31
0.0
  0
LINE
  5
9005
  8
0
 10
50.54591110525482
 20
204.8950977447825
 30
0.0
 11
50.54591110525482
 21
204.5611128947825
 31
0.0
  0
LINE
  5
9006
  8
0
 10
45.20510610525483
 20
204.2275678947825
 30
0.0
 11
45.53909095525484
 21
204.2275678947825
 31
0.0
  0
LINE
  5
9007
  8
0
 10
45.53909095525484
 20
204.2275678947825
 30
0.0
 11
45.53909095525484
 21
204.5615527447825
 31
0.0
  0
LINE
  5
9008
  8
0
 10
45.53909095525484
 20
204.5615527447825
 30
0.0
 11
45.20510610525483
 21
204.5615527447825
 31
0.0
  0
LINE
  5
9009
  8
0
 10
45.20510610525483
 20
204.5615527447825
 30
0.0
 11
45.20510610525483
 21
204.2275678947825
 31
0.0
  0
LINE
  5
900A
  8
0
 10
46.20593110525482
 20
204.2275678947825
 30
0.0
 11
46.53991500525484
 21
204.2275678947825
 31
0.0
  0
LINE
  5
900B
  8
0
 10
46.53991500525484
 20
204.2275678947825
 30
0.0
 11
46.53991500525484
 21
204.5615527447825
 31
0.0
  0
LINE
  5
900C
  8
0
 10
46.53991500525484
 20
204.5615527447825
 30
0.0
 11
46.20593110525482
 21
204.5615527447825
 31
0.0
  0
LINE
  5
900D
  8
0
 10
46.20593110525482
 20
204.5615527447825
 30
0.0
 11
46.20593110525482
 21
204.2275678947825
 31
0.0
  0
LINE
  5
900E
  8
0
 10
46.87349610525482
 20
204.2275678947825
 30
0.0
 11
47.20748095525482
 21
204.2275678947825
 31
0.0
  0
LINE
  5
900F
  8
0
 10
47.20748095525482
 20
204.2275678947825
 30
0.0
 11
47.20748095525482
 21
204.5615527447825
 31
0.0
  0
LINE
  5
9010
  8
0
 10
47.20748095525482
 20
204.5615527447825
 30
0.0
 11
46.87349610525482
 21
204.5615527447825
 31
0.0
  0
LINE
  5
9011
  8
0
 10
46.87349610525482
 20
204.5615527447825
 30
0.0
 11
46.87349610525482
 21
204.2275678947825
 31
0.0
  0
LINE
  5
9012
  8
0
 10
47.54153610525481
 20
204.2275678947825
 30
0.0
 11
47.87589145525482
 21
204.2275678947825
 31
0.0
  0
LINE
  5
9013
  8
0
 10
47.87589145525482
 20
204.2275678947825
 30
0.0
 11
47.87589145525482
 21
204.5615527447825
 31
0.0
  0
LINE
  5
9014
  8
0
 10
47.87589145525482
 20
204.5615527447825
 30
0.0
 11
47.54153610525481
 21
204.5615527447825
 31
0.0
  0
LINE
  5
9015
  8
0
 10
47.54153610525481
 20
204.5615527447825
 30
0.0
 11
47.54153610525481
 21
204.2275678947825
 31
0.0
  0
LINE
  5
9016
  8
0
 10
48.54274110525483
 20
204.2275678947825
 30
0.0
 11
49.54395560525484
 21
204.2275678947825
 31
0.0
  0
LINE
  5
9017
  8
0
 10
49.54395560525484
 20
204.2275678947825
 30
0.0
 11
49.54395560525484
 21
204.5615527447825
 31
0.0
  0
LINE
  5
9018
  8
0
 10
49.54395560525484
 20
204.5615527447825
 30
0.0
 11
48.54274110525483
 21
204.5615527447825
 31
0.0
  0
LINE
  5
9019
  8
0
 10
48.54274110525483
 20
204.5615527447825
 30
0.0
 11
48.54274110525483
 21
204.2275678947825
 31
0.0
  0
LINE
  5
901A
  8
0
 10
49.87749110525482
 20
204.2275678947825
 30
0.0
 11
50.87907610525482
 21
204.2275678947825
 31
0.0
  0
LINE
  5
901B
  8
0
 10
50.87907610525482
 20
204.2275678947825
 30
0.0
 11
50.87907610525482
 21
204.5615527447825
 31
0.0
  0
LINE
  5
901C
  8
0
 10
50.87907610525482
 20
204.5615527447825
 30
0.0
 11
49.87749110525482
 21
204.5615527447825
 31
0.0
  0
LINE
  5
901D
  8
0
 10
49.87749110525482
 20
204.5615527447825
 30
0.0
 11
49.87749110525482
 21
204.2275678947825
 31
0.0
  0
LINE
  5
901E
  8
0
 10
51.88066110525483
 20
204.2275678947825
 30
0.0
 11
52.21464595525481
 21
204.2275678947825
 31
0.0
  0
LINE
  5
901F
  8
0
 10
52.21464595525481
 20
204.2275678947825
 30
0.0
 11
52.21464595525481
 21
204.5615527447825
 31
0.0
  0
LINE
  5
9020
  8
0
 10
52.21464595525481
 20
204.5615527447825
 30
0.0
 11
51.88066110525483
 21
204.5615527447825
 31
0.0
  0
LINE
  5
9021
  8
0
 10
51.88066110525483
 20
204.5615527447825
 30
0.0
 11
51.88066110525483
 21
204.2275678947825
 31
0.0
  0
LINE
  5
9022
  8
0
 10
52.54832110525481
 20
204.2275678947825
 30
0.0
 11
53.54990610525482
 21
204.2275678947825
 31
0.0
  0
LINE
  5
9023
  8
0
 10
53.54990610525482
 20
204.2275678947825
 30
0.0
 11
53.54990610525482
 21
204.5615527447825
 31
0.0
  0
LINE
  5
9024
  8
0
 10
53.54990610525482
 20
204.5615527447825
 30
0.0
 11
52.54832110525481
 21
204.5615527447825
 31
0.0
  0
LINE
  5
9025
  8
0
 10
52.54832110525481
 20
204.5615527447825
 30
0.0
 11
52.54832110525481
 21
204.2275678947825
 31
0.0
  0
LINE
  5
9026
  8
0
 10
42.53437110525482
 20
203.8935478947825
 30
0.0
 11
44.87115260525485
 21
203.8935478947825
 31
0.0
  0
LINE
  5
9027
  8
0
 10
44.87115260525485
 20
203.8935478947825
 30
0.0
 11
44.87115260525485
 21
204.2275317947825
 31
0.0
  0
LINE
  5
9028
  8
0
 10
44.87115260525485
 20
204.2275317947825
 30
0.0
 11
42.53437110525482
 21
204.2275317947825
 31
0.0
  0
LINE
  5
9029
  8
0
 10
42.53437110525482
 20
204.2275317947825
 30
0.0
 11
42.53437110525482
 21
203.8935478947825
 31
0.0
  0
LINE
  5
902A
  8
0
 10
46.20593110525482
 20
203.8935478947825
 30
0.0
 11
47.20751610525485
 21
203.8935478947825
 31
0.0
  0
LINE
  5
902B
  8
0
 10
47.20751610525485
 20
203.8935478947825
 30
0.0
 11
47.20751610525485
 21
204.2275317947825
 31
0.0
  0
LINE
  5
902C
  8
0
 10
47.20751610525485
 20
204.2275317947825
 30
0.0
 11
46.20593110525482
 21
204.2275317947825
 31
0.0
  0
LINE
  5
902D
  8
0
 10
46.20593110525482
 20
204.2275317947825
 30
0.0
 11
46.20593110525482
 21
203.8935478947825
 31
0.0
  0
LINE
  5
902E
  8
0
 10
47.54153610525481
 20
203.8935478947825
 30
0.0
 11
48.20913435525483
 21
203.8935478947825
 31
0.0
  0
LINE
  5
902F
  8
0
 10
48.20913435525483
 20
203.8935478947825
 30
0.0
 11
48.20913435525483
 21
204.2275317947825
 31
0.0
  0
LINE
  5
9030
  8
0
 10
48.20913435525483
 20
204.2275317947825
 30
0.0
 11
47.54153610525481
 21
204.2275317947825
 31
0.0
  0
LINE
  5
9031
  8
0
 10
47.54153610525481
 20
204.2275317947825
 30
0.0
 11
47.54153610525481
 21
203.8935478947825
 31
0.0
  0
LINE
  5
9032
  8
0
 10
48.54274110525483
 20
203.8935478947825
 30
0.0
 11
48.87672595525481
 21
203.8935478947825
 31
0.0
  0
LINE
  5
9033
  8
0
 10
48.87672595525481
 20
203.8935478947825
 30
0.0
 11
48.87672595525481
 21
204.2275317947825
 31
0.0
  0
LINE
  5
9034
  8
0
 10
48.87672595525481
 20
204.2275317947825
 30
0.0
 11
48.54274110525483
 21
204.2275317947825
 31
0.0
  0
LINE
  5
9035
  8
0
 10
48.54274110525483
 20
204.2275317947825
 30
0.0
 11
48.54274110525483
 21
203.8935478947825
 31
0.0
  0
LINE
  5
9036
  8
0
 10
49.20992610525485
 20
203.8935478947825
 30
0.0
 11
49.87752435525482
 21
203.8935478947825
 31
0.0
  0
LINE
  5
9037
  8
0
 10
49.87752435525482
 20
203.8935478947825
 30
0.0
 11
49.87752435525482
 21
204.2275317947825
 31
0.0
  0
LINE
  5
9038
  8
0
 10
49.87752435525482
 20
204.2275317947825
 30
0.0
 11
49.20992610525485
 21
204.2275317947825
 31
0.0
  0
LINE
  5
9039
  8
0
 10
49.20992610525485
 20
204.2275317947825
 30
0.0
 11
49.20992610525485
 21
203.8935478947825
 31
0.0
  0
LINE
  5
903A
  8
0
 10
50.21151110525483
 20
203.8935478947825
 30
0.0
 11
50.87910840525484
 21
203.8935478947825
 31
0.0
  0
LINE
  5
903B
  8
0
 10
50.87910840525484
 20
203.8935478947825
 30
0.0
 11
50.87910840525484
 21
204.2275317947825
 31
0.0
  0
LINE
  5
903C
  8
0
 10
50.87910840525484
 20
204.2275317947825
 30
0.0
 11
50.21151110525483
 21
204.2275317947825
 31
0.0
  0
LINE
  5
903D
  8
0
 10
50.21151110525483
 20
204.2275317947825
 30
0.0
 11
50.21151110525483
 21
203.8935478947825
 31
0.0
  0
LINE
  5
903E
  8
0
 10
51.21309610525483
 20
203.8935478947825
 30
0.0
 11
51.54708000525483
 21
203.8935478947825
 31
0.0
  0
LINE
  5
903F
  8
0
 10
51.54708000525483
 20
203.8935478947825
 30
0.0
 11
51.54708000525483
 21
204.2275317947825
 31
0.0
  0
LINE
  5
9040
  8
0
 10
51.54708000525483
 20
204.2275317947825
 30
0.0
 11
51.21309610525483
 21
204.2275317947825
 31
0.0
  0
LINE
  5
9041
  8
0
 10
51.21309610525483
 20
204.2275317947825
 30
0.0
 11
51.21309610525483
 21
203.8935478947825
 31
0.0
  0
LINE
  5
9042
  8
0
 10
51.88066110525483
 20
203.8935478947825
 30
0.0
 11
52.21464595525481
 21
203.8935478947825
 31
0.0
  0
LINE
  5
9043
  8
0
 10
52.21464595525481
 20
203.8935478947825
 30
0.0
 11
52.21464595525481
 21
204.2275317947825
 31
0.0
  0
LINE
  5
9044
  8
0
 10
52.21464595525481
 20
204.2275317947825
 30
0.0
 11
51.88066110525483
 21
204.2275317947825
 31
0.0
  0
LINE
  5
9045
  8
0
 10
51.88066110525483
 20
204.2275317947825
 30
0.0
 11
51.88066110525483
 21
203.8935478947825
 31
0.0
  0
LINE
  5
9046
  8
0
 10
52.54832110525481
 20
203.8935478947825
 30
0.0
 11
53.21554695525484
 21
203.8935478947825
 31
0.0
  0
LINE
  5
9047
  8
0
 10
53.21554695525484
 20
203.8935478947825
 30
0.0
 11
53.21554695525484
 21
204.2275317947825
 31
0.0
  0
LINE
  5
9048
  8
0
 10
53.21554695525484
 20
204.2275317947825
 30
0.0
 11
52.54832110525481
 21
204.2275317947825
 31
0.0
  0
LINE
  5
9049
  8
0
 10
52.54832110525481
 20
204.2275317947825
 30
0.0
 11
52.54832110525481
 21
203.8935478947825
 31
0.0
  0
LINE
  5
904A
  8
0
 10
42.53437110525482
 20
203.5602878947825
 30
0.0
 11
42.86872645525483
 21
203.5602878947825
 31
0.0
  0
LINE
  5
904B
  8
0
 10
42.86872645525483
 20
203.5602878947825
 30
0.0
 11
42.86872645525483
 21
203.8942717947825
 31
0.0
  0
LINE
  5
904C
  8
0
 10
42.86872645525483
 20
203.8942717947825
 30
0.0
 11
42.53437110525482
 21
203.8942717947825
 31
0.0
  0
LINE
  5
904D
  8
0
 10
42.53437110525482
 20
203.8942717947825
 30
0.0
 11
42.53437110525482
 21
203.5602878947825
 31
0.0
  0
LINE
  5
904E
  8
0
 10
44.53744610525482
 20
203.5602878947825
 30
0.0
 11
44.87143000525481
 21
203.5602878947825
 31
0.0
  0
LINE
  5
904F
  8
0
 10
44.87143000525481
 20
203.5602878947825
 30
0.0
 11
44.87143000525481
 21
203.8942717947825
 31
0.0
  0
LINE
  5
9050
  8
0
 10
44.87143000525481
 20
203.8942717947825
 30
0.0
 11
44.53744610525482
 21
203.8942717947825
 31
0.0
  0
LINE
  5
9051
  8
0
 10
44.53744610525482
 20
203.8942717947825
 30
0.0
 11
44.53744610525482
 21
203.5602878947825
 31
0.0
  0
LINE
  5
9052
  8
0
 10
45.5387461052548
 20
203.5602878947825
 30
0.0
 11
46.53996060525481
 21
203.5602878947825
 31
0.0
  0
LINE
  5
9053
  8
0
 10
46.53996060525481
 20
203.5602878947825
 30
0.0
 11
46.53996060525481
 21
203.8942717947825
 31
0.0
  0
LINE
  5
9054
  8
0
 10
46.53996060525481
 20
203.8942717947825
 30
0.0
 11
45.5387461052548
 21
203.8942717947825
 31
0.0
  0
LINE
  5
9055
  8
0
 10
45.5387461052548
 20
203.8942717947825
 30
0.0
 11
45.5387461052548
 21
203.5602878947825
 31
0.0
  0
LINE
  5
9056
  8
0
 10
47.54153610525481
 20
203.5602878947825
 30
0.0
 11
47.87589145525482
 21
203.5602878947825
 31
0.0
  0
LINE
  5
9057
  8
0
 10
47.87589145525482
 20
203.5602878947825
 30
0.0
 11
47.87589145525482
 21
203.8942717947825
 31
0.0
  0
LINE
  5
9058
  8
0
 10
47.87589145525482
 20
203.8942717947825
 30
0.0
 11
47.54153610525481
 21
203.8942717947825
 31
0.0
  0
LINE
  5
9059
  8
0
 10
47.54153610525481
 20
203.8942717947825
 30
0.0
 11
47.54153610525481
 21
203.5602878947825
 31
0.0
  0
LINE
  5
905A
  8
0
 10
49.20992610525485
 20
203.5602878947825
 30
0.0
 11
49.54428145525483
 21
203.5602878947825
 31
0.0
  0
LINE
  5
905B
  8
0
 10
49.54428145525483
 20
203.5602878947825
 30
0.0
 11
49.54428145525483
 21
203.8942717947825
 31
0.0
  0
LINE
  5
905C
  8
0
 10
49.54428145525483
 20
203.8942717947825
 30
0.0
 11
49.20992610525485
 21
203.8942717947825
 31
0.0
  0
LINE
  5
905D
  8
0
 10
49.20992610525485
 20
203.8942717947825
 30
0.0
 11
49.20992610525485
 21
203.5602878947825
 31
0.0
  0
LINE
  5
905E
  8
0
 10
50.21151110525483
 20
203.5602878947825
 30
0.0
 11
50.87910840525484
 21
203.5602878947825
 31
0.0
  0
LINE
  5
905F
  8
0
 10
50.87910840525484
 20
203.5602878947825
 30
0.0
 11
50.87910840525484
 21
203.8942717947825
 31
0.0
  0
LINE
  5
9060
  8
0
 10
50.87910840525484
 20
203.8942717947825
 30
0.0
 11
50.21151110525483
 21
203.8942717947825
 31
0.0
  0
LINE
  5
9061
  8
0
 10
50.21151110525483
 20
203.8942717947825
 30
0.0
 11
50.21151110525483
 21
203.5602878947825
 31
0.0
  0
LINE
  5
9062
  8
0
 10
51.88066110525483
 20
203.5602878947825
 30
0.0
 11
52.88224610525481
 21
203.5602878947825
 31
0.0
  0
LINE
  5
9063
  8
0
 10
52.88224610525481
 20
203.5602878947825
 30
0.0
 11
52.88224610525481
 21
203.8942717947825
 31
0.0
  0
LINE
  5
9064
  8
0
 10
52.88224610525481
 20
203.8942717947825
 30
0.0
 11
51.88066110525483
 21
203.8942717947825
 31
0.0
  0
LINE
  5
9065
  8
0
 10
51.88066110525483
 20
203.8942717947825
 30
0.0
 11
51.88066110525483
 21
203.5602878947825
 31
0.0
  0
LINE
  5
9066
  8
0
 10
53.21550610525483
 20
203.5602878947825
 30
0.0
 11
53.54986240525483
 21
203.5602878947825
 31
0.0
  0
LINE
  5
9067
  8
0
 10
53.54986240525483
 20
203.5602878947825
 30
0.0
 11
53.54986240525483
 21
203.8942717947825
 31
0.0
  0
LINE
  5
9068
  8
0
 10
53.54986240525483
 20
203.8942717947825
 30
0.0
 11
53.21550610525483
 21
203.8942717947825
 31
0.0
  0
LINE
  5
9069
  8
0
 10
53.21550610525483
 20
203.8942717947825
 30
0.0
 11
53.21550610525483
 21
203.5602878947825
 31
0.0
  0
LINE
  5
906A
  8
0
 10
42.53437110525482
 20
203.2262678947825
 30
0.0
 11
42.86872645525483
 21
203.2262678947825
 31
0.0
  0
LINE
  5
906B
  8
0
 10
42.86872645525483
 20
203.2262678947825
 30
0.0
 11
42.86872645525483
 21
203.5602527447825
 31
0.0
  0
LINE
  5
906C
  8
0
 10
42.86872645525483
 20
203.5602527447825
 30
0.0
 11
42.53437110525482
 21
203.5602527447825
 31
0.0
  0
LINE
  5
906D
  8
0
 10
42.53437110525482
 20
203.5602527447825
 30
0.0
 11
42.53437110525482
 21
203.2262678947825
 31
0.0
  0
LINE
  5
906E
  8
0
 10
43.20193610525482
 20
203.2262678947825
 30
0.0
 11
44.20352110525482
 21
203.2262678947825
 31
0.0
  0
LINE
  5
906F
  8
0
 10
44.20352110525482
 20
203.2262678947825
 30
0.0
 11
44.20352110525482
 21
203.5602527447825
 31
0.0
  0
LINE
  5
9070
  8
0
 10
44.20352110525482
 20
203.5602527447825
 30
0.0
 11
43.20193610525482
 21
203.5602527447825
 31
0.0
  0
LINE
  5
9071
  8
0
 10
43.20193610525482
 20
203.5602527447825
 30
0.0
 11
43.20193610525482
 21
203.2262678947825
 31
0.0
  0
LINE
  5
9072
  8
0
 10
44.53744610525482
 20
203.2262678947825
 30
0.0
 11
44.87143000525481
 21
203.2262678947825
 31
0.0
  0
LINE
  5
9073
  8
0
 10
44.87143000525481
 20
203.2262678947825
 30
0.0
 11
44.87143000525481
 21
203.5602527447825
 31
0.0
  0
LINE
  5
9074
  8
0
 10
44.87143000525481
 20
203.5602527447825
 30
0.0
 11
44.53744610525482
 21
203.5602527447825
 31
0.0
  0
LINE
  5
9075
  8
0
 10
44.53744610525482
 20
203.5602527447825
 30
0.0
 11
44.53744610525482
 21
203.2262678947825
 31
0.0
  0
LINE
  5
9076
  8
0
 10
45.87267110525482
 20
203.2262678947825
 30
0.0
 11
46.53989695525482
 21
203.2262678947825
 31
0.0
  0
LINE
  5
9077
  8
0
 10
46.53989695525482
 20
203.2262678947825
 30
0.0
 11
46.53989695525482
 21
203.5602527447825
 31
0.0
  0
LINE
  5
9078
  8
0
 10
46.53989695525482
 20
203.5602527447825
 30
0.0
 11
45.87267110525482
 21
203.5602527447825
 31
0.0
  0
LINE
  5
9079
  8
0
 10
45.87267110525482
 20
203.5602527447825
 30
0.0
 11
45.87267110525482
 21
203.2262678947825
 31
0.0
  0
LINE
  5
907A
  8
0
 10
46.87349610525482
 20
203.2262678947825
 30
0.0
 11
47.54109435525484
 21
203.2262678947825
 31
0.0
  0
LINE
  5
907B
  8
0
 10
47.54109435525484
 20
203.2262678947825
 30
0.0
 11
47.54109435525484
 21
203.5602527447825
 31
0.0
  0
LINE
  5
907C
  8
0
 10
47.54109435525484
 20
203.5602527447825
 30
0.0
 11
46.87349610525482
 21
203.5602527447825
 31
0.0
  0
LINE
  5
907D
  8
0
 10
46.87349610525482
 20
203.5602527447825
 30
0.0
 11
46.87349610525482
 21
203.2262678947825
 31
0.0
  0
LINE
  5
907E
  8
0
 10
48.54274110525483
 20
203.2262678947825
 30
0.0
 11
49.20996790525484
 21
203.2262678947825
 31
0.0
  0
LINE
  5
907F
  8
0
 10
49.20996790525484
 20
203.2262678947825
 30
0.0
 11
49.20996790525484
 21
203.5602527447825
 31
0.0
  0
LINE
  5
9080
  8
0
 10
49.20996790525484
 20
203.5602527447825
 30
0.0
 11
48.54274110525483
 21
203.5602527447825
 31
0.0
  0
LINE
  5
9081
  8
0
 10
48.54274110525483
 20
203.5602527447825
 30
0.0
 11
48.54274110525483
 21
203.2262678947825
 31
0.0
  0
LINE
  5
9082
  8
0
 10
49.54432610525481
 20
203.2262678947825
 30
0.0
 11
49.87831095525482
 21
203.2262678947825
 31
0.0
  0
LINE
  5
9083
  8
0
 10
49.87831095525482
 20
203.2262678947825
 30
0.0
 11
49.87831095525482
 21
203.5602527447825
 31
0.0
  0
LINE
  5
9084
  8
0
 10
49.87831095525482
 20
203.5602527447825
 30
0.0
 11
49.54432610525481
 21
203.5602527447825
 31
0.0
  0
LINE
  5
9085
  8
0
 10
49.54432610525481
 20
203.5602527447825
 30
0.0
 11
49.54432610525481
 21
203.2262678947825
 31
0.0
  0
LINE
  5
9086
  8
0
 10
50.54591110525482
 20
203.2262678947825
 30
0.0
 11
52.54833060525482
 21
203.2262678947825
 31
0.0
  0
LINE
  5
9087
  8
0
 10
52.54833060525482
 20
203.2262678947825
 30
0.0
 11
52.54833060525482
 21
203.5602527447825
 31
0.0
  0
LINE
  5
9088
  8
0
 10
52.54833060525482
 20
203.5602527447825
 30
0.0
 11
50.54591110525482
 21
203.5602527447825
 31
0.0
  0
LINE
  5
9089
  8
0
 10
50.54591110525482
 20
203.5602527447825
 30
0.0
 11
50.54591110525482
 21
203.2262678947825
 31
0.0
  0
LINE
  5
908A
  8
0
 10
42.53437110525482
 20
202.8919628947825
 30
0.0
 11
42.86872645525483
 21
202.8919628947825
 31
0.0
  0
LINE
  5
908B
  8
0
 10
42.86872645525483
 20
202.8919628947825
 30
0.0
 11
42.86872645525483
 21
203.2263182447825
 31
0.0
  0
LINE
  5
908C
  8
0
 10
42.86872645525483
 20
203.2263182447825
 30
0.0
 11
42.53437110525482
 21
203.2263182447825
 31
0.0
  0
LINE
  5
908D
  8
0
 10
42.53437110525482
 20
203.2263182447825
 30
0.0
 11
42.53437110525482
 21
202.8919628947825
 31
0.0
  0
LINE
  5
908E
  8
0
 10
43.20193610525482
 20
202.8919628947825
 30
0.0
 11
44.20352110525482
 21
202.8919628947825
 31
0.0
  0
LINE
  5
908F
  8
0
 10
44.20352110525482
 20
202.8919628947825
 30
0.0
 11
44.20352110525482
 21
203.2263182447825
 31
0.0
  0
LINE
  5
9090
  8
0
 10
44.20352110525482
 20
203.2263182447825
 30
0.0
 11
43.20193610525482
 21
203.2263182447825
 31
0.0
  0
LINE
  5
9091
  8
0
 10
43.20193610525482
 20
203.2263182447825
 30
0.0
 11
43.20193610525482
 21
202.8919628947825
 31
0.0
  0
LINE
  5
9092
  8
0
 10
44.53744610525482
 20
202.8919628947825
 30
0.0
 11
44.87143000525481
 21
202.8919628947825
 31
0.0
  0
LINE
  5
9093
  8
0
 10
44.87143000525481
 20
202.8919628947825
 30
0.0
 11
44.87143000525481
 21
203.2263182447825
 31
0.0
  0
LINE
  5
9094
  8
0
 10
44.87143000525481
 20
203.2263182447825
 30
0.0
 11
44.53744610525482
 21
203.2263182447825
 31
0.0
  0
LINE
  5
9095
  8
0
 10
44.53744610525482
 20
203.2263182447825
 30
0.0
 11
44.53744610525482
 21
202.8919628947825
 31
0.0
  0
LINE
  5
9096
  8
0
 10
45.5387461052548
 20
202.8919628947825
 30
0.0
 11
46.87357210525482
 21
202.8919628947825
 31
0.0
  0
LINE
  5
9097
  8
0
 10
46.87357210525482
 20
202.8919628947825
 30
0.0
 11
46.87357210525482
 21
203.2263182447825
 31
0.0
  0
LINE
  5
9098
  8
0
 10
46.87357210525482
 20
203.2263182447825
 30
0.0
 11
45.5387461052548
 21
203.2263182447825
 31
0.0
  0
LINE
  5
9099
  8
0
 10
45.5387461052548
 20
203.2263182447825
 30
0.0
 11
45.5387461052548
 21
202.8919628947825
 31
0.0
  0
LINE
  5
909A
  8
0
 10
47.20751610525485
 20
202.8919628947825
 30
0.0
 11
47.54150000525482
 21
202.8919628947825
 31
0.0
  0
LINE
  5
909B
  8
0
 10
47.54150000525482
 20
202.8919628947825
 30
0.0
 11
47.54150000525482
 21
203.2263182447825
 31
0.0
  0
LINE
  5
909C
  8
0
 10
47.54150000525482
 20
203.2263182447825
 30
0.0
 11
47.20751610525485
 21
203.2263182447825
 31
0.0
  0
LINE
  5
909D
  8
0
 10
47.20751610525485
 20
203.2263182447825
 30
0.0
 11
47.20751610525485
 21
202.8919628947825
 31
0.0
  0
LINE
  5
909E
  8
0
 10
47.87508110525482
 20
202.8919628947825
 30
0.0
 11
48.20906595525483
 21
202.8919628947825
 31
0.0
  0
LINE
  5
909F
  8
0
 10
48.20906595525483
 20
202.8919628947825
 30
0.0
 11
48.20906595525483
 21
203.2263182447825
 31
0.0
  0
LINE
  5
90A0
  8
0
 10
48.20906595525483
 20
203.2263182447825
 30
0.0
 11
47.87508110525482
 21
203.2263182447825
 31
0.0
  0
LINE
  5
90A1
  8
0
 10
47.87508110525482
 20
203.2263182447825
 30
0.0
 11
47.87508110525482
 21
202.8919628947825
 31
0.0
  0
LINE
  5
90A2
  8
0
 10
49.20992610525485
 20
202.8919628947825
 30
0.0
 11
49.54428145525483
 21
202.8919628947825
 31
0.0
  0
LINE
  5
90A3
  8
0
 10
49.54428145525483
 20
202.8919628947825
 30
0.0
 11
49.54428145525483
 21
203.2263182447825
 31
0.0
  0
LINE
  5
90A4
  8
0
 10
49.54428145525483
 20
203.2263182447825
 30
0.0
 11
49.20992610525485
 21
203.2263182447825
 31
0.0
  0
LINE
  5
90A5
  8
0
 10
49.20992610525485
 20
203.2263182447825
 30
0.0
 11
49.20992610525485
 21
202.8919628947825
 31
0.0
  0
LINE
  5
90A6
  8
0
 10
49.87749110525482
 20
202.8919628947825
 30
0.0
 11
50.54508840525483
 21
202.8919628947825
 31
0.0
  0
LINE
  5
90A7
  8
0
 10
50.54508840525483
 20
202.8919628947825
 30
0.0
 11
50.54508840525483
 21
203.2263182447825
 31
0.0
  0
LINE
  5
90A8
  8
0
 10
50.54508840525483
 20
203.2263182447825
 30
0.0
 11
49.87749110525482
 21
203.2263182447825
 31
0.0
  0
LINE
  5
90A9
  8
0
 10
49.87749110525482
 20
203.2263182447825
 30
0.0
 11
49.87749110525482
 21
202.8919628947825
 31
0.0
  0
LINE
  5
90AA
  8
0
 10
50.87907610525482
 20
202.8919628947825
 30
0.0
 11
51.21306095525483
 21
202.8919628947825
 31
0.0
  0
LINE
  5
90AB
  8
0
 10
51.21306095525483
 20
202.8919628947825
 30
0.0
 11
51.21306095525483
 21
203.2263182447825
 31
0.0
  0
LINE
  5
90AC
  8
0
 10
51.21306095525483
 20
203.2263182447825
 30
0.0
 11
50.87907610525482
 21
203.2263182447825
 31
0.0
  0
LINE
  5
90AD
  8
0
 10
50.87907610525482
 20
203.2263182447825
 30
0.0
 11
50.87907610525482
 21
202.8919628947825
 31
0.0
  0
LINE
  5
90AE
  8
0
 10
51.54673610525481
 20
202.8919628947825
 30
0.0
 11
52.21396290525485
 21
202.8919628947825
 31
0.0
  0
LINE
  5
90AF
  8
0
 10
52.21396290525485
 20
202.8919628947825
 30
0.0
 11
52.21396290525485
 21
203.2263182447825
 31
0.0
  0
LINE
  5
90B0
  8
0
 10
52.21396290525485
 20
203.2263182447825
 30
0.0
 11
51.54673610525481
 21
203.2263182447825
 31
0.0
  0
LINE
  5
90B1
  8
0
 10
51.54673610525481
 20
203.2263182447825
 30
0.0
 11
51.54673610525481
 21
202.8919628947825
 31
0.0
  0
LINE
  5
90B2
  8
0
 10
52.54832110525481
 20
202.8919628947825
 30
0.0
 11
52.88230500525481
 21
202.8919628947825
 31
0.0
  0
LINE
  5
90B3
  8
0
 10
52.88230500525481
 20
202.8919628947825
 30
0.0
 11
52.88230500525481
 21
203.2263182447825
 31
0.0
  0
LINE
  5
90B4
  8
0
 10
52.88230500525481
 20
203.2263182447825
 30
0.0
 11
52.54832110525481
 21
203.2263182447825
 31
0.0
  0
LINE
  5
90B5
  8
0
 10
52.54832110525481
 20
203.2263182447825
 30
0.0
 11
52.54832110525481
 21
202.8919628947825
 31
0.0
  0
LINE
  5
90B6
  8
0
 10
53.21550610525483
 20
202.8919628947825
 30
0.0
 11
53.54986240525483
 21
202.8919628947825
 31
0.0
  0
LINE
  5
90B7
  8
0
 10
53.54986240525483
 20
202.8919628947825
 30
0.0
 11
53.54986240525483
 21
203.2263182447825
 31
0.0
  0
LINE
  5
90B8
  8
0
 10
53.54986240525483
 20
203.2263182447825
 30
0.0
 11
53.21550610525483
 21
203.2263182447825
 31
0.0
  0
LINE
  5
90B9
  8
0
 10
53.21550610525483
 20
203.2263182447825
 30
0.0
 11
53.21550610525483
 21
202.8919628947825
 31
0.0
  0
LINE
  5
90BA
  8
0
 10
42.53437110525482
 20
202.5587028947825
 30
0.0
 11
42.86872645525483
 21
202.5587028947825
 31
0.0
  0
LINE
  5
90BB
  8
0
 10
42.86872645525483
 20
202.5587028947825
 30
0.0
 11
42.86872645525483
 21
202.8926867947825
 31
0.0
  0
LINE
  5
90BC
  8
0
 10
42.86872645525483
 20
202.8926867947825
 30
0.0
 11
42.53437110525482
 21
202.8926867947825
 31
0.0
  0
LINE
  5
90BD
  8
0
 10
42.53437110525482
 20
202.8926867947825
 30
0.0
 11
42.53437110525482
 21
202.5587028947825
 31
0.0
  0
LINE
  5
90BE
  8
0
 10
43.20193610525482
 20
202.5587028947825
 30
0.0
 11
44.20352110525482
 21
202.5587028947825
 31
0.0
  0
LINE
  5
90BF
  8
0
 10
44.20352110525482
 20
202.5587028947825
 30
0.0
 11
44.20352110525482
 21
202.8926867947825
 31
0.0
  0
LINE
  5
90C0
  8
0
 10
44.20352110525482
 20
202.8926867947825
 30
0.0
 11
43.20193610525482
 21
202.8926867947825
 31
0.0
  0
LINE
  5
90C1
  8
0
 10
43.20193610525482
 20
202.8926867947825
 30
0.0
 11
43.20193610525482
 21
202.5587028947825
 31
0.0
  0
LINE
  5
90C2
  8
0
 10
44.53744610525482
 20
202.5587028947825
 30
0.0
 11
44.87143000525481
 21
202.5587028947825
 31
0.0
  0
LINE
  5
90C3
  8
0
 10
44.87143000525481
 20
202.5587028947825
 30
0.0
 11
44.87143000525481
 21
202.8926867947825
 31
0.0
  0
LINE
  5
90C4
  8
0
 10
44.87143000525481
 20
202.8926867947825
 30
0.0
 11
44.53744610525482
 21
202.8926867947825
 31
0.0
  0
LINE
  5
90C5
  8
0
 10
44.53744610525482
 20
202.8926867947825
 30
0.0
 11
44.53744610525482
 21
202.5587028947825
 31
0.0
  0
LINE
  5
90C6
  8
0
 10
45.87267110525482
 20
202.5587028947825
 30
0.0
 11
47.20749710525484
 21
202.5587028947825
 31
0.0
  0
LINE
  5
90C7
  8
0
 10
47.20749710525484
 20
202.5587028947825
 30
0.0
 11
47.20749710525484
 21
202.8926867947825
 31
0.0
  0
LINE
  5
90C8
  8
0
 10
47.20749710525484
 20
202.8926867947825
 30
0.0
 11
45.87267110525482
 21
202.8926867947825
 31
0.0
  0
LINE
  5
90C9
  8
0
 10
45.87267110525482
 20
202.8926867947825
 30
0.0
 11
45.87267110525482
 21
202.5587028947825
 31
0.0
  0
LINE
  5
90CA
  8
0
 10
47.87508110525482
 20
202.5587028947825
 30
0.0
 11
48.20906595525483
 21
202.5587028947825
 31
0.0
  0
LINE
  5
90CB
  8
0
 10
48.20906595525483
 20
202.5587028947825
 30
0.0
 11
48.20906595525483
 21
202.8926867947825
 31
0.0
  0
LINE
  5
90CC
  8
0
 10
48.20906595525483
 20
202.8926867947825
 30
0.0
 11
47.87508110525482
 21
202.8926867947825
 31
0.0
  0
LINE
  5
90CD
  8
0
 10
47.87508110525482
 20
202.8926867947825
 30
0.0
 11
47.87508110525482
 21
202.5587028947825
 31
0.0
  0
LINE
  5
90CE
  8
0
 10
48.54274110525483
 20
202.5587028947825
 30
0.0
 11
48.87672595525481
 21
202.5587028947825
 31
0.0
  0
LINE
  5
90CF
  8
0
 10
48.87672595525481
 20
202.5587028947825
 30
0.0
 11
48.87672595525481
 21
202.8926867947825
 31
0.0
  0
LINE
  5
90D0
  8
0
 10
48.87672595525481
 20
202.8926867947825
 30
0.0
 11
48.54274110525483
 21
202.8926867947825
 31
0.0
  0
LINE
  5
90D1
  8
0
 10
48.54274110525483
 20
202.8926867947825
 30
0.0
 11
48.54274110525483
 21
202.5587028947825
 31
0.0
  0
LINE
  5
90D2
  8
0
 10
49.20992610525485
 20
202.5587028947825
 30
0.0
 11
49.54428145525483
 21
202.5587028947825
 31
0.0
  0
LINE
  5
90D3
  8
0
 10
49.54428145525483
 20
202.5587028947825
 30
0.0
 11
49.54428145525483
 21
202.8926867947825
 31
0.0
  0
LINE
  5
90D4
  8
0
 10
49.54428145525483
 20
202.8926867947825
 30
0.0
 11
49.20992610525485
 21
202.8926867947825
 31
0.0
  0
LINE
  5
90D5
  8
0
 10
49.20992610525485
 20
202.8926867947825
 30
0.0
 11
49.20992610525485
 21
202.5587028947825
 31
0.0
  0
LINE
  5
90D6
  8
0
 10
49.87749110525482
 20
202.5587028947825
 30
0.0
 11
50.21147500525484
 21
202.5587028947825
 31
0.0
  0
LINE
  5
90D7
  8
0
 10
50.21147500525484
 20
202.5587028947825
 30
0.0
 11
50.21147500525484
 21
202.8926867947825
 31
0.0
  0
LINE
  5
90D8
  8
0
 10
50.21147500525484
 20
202.8926867947825
 30
0.0
 11
49.87749110525482
 21
202.8926867947825
 31
0.0
  0
LINE
  5
90D9
  8
0
 10
49.87749110525482
 20
202.8926867947825
 30
0.0
 11
49.87749110525482
 21
202.5587028947825
 31
0.0
  0
LINE
  5
90DA
  8
0
 10
50.54591110525482
 20
202.5587028947825
 30
0.0
 11
50.87989595525482
 21
202.5587028947825
 31
0.0
  0
LINE
  5
90DB
  8
0
 10
50.87989595525482
 20
202.5587028947825
 30
0.0
 11
50.87989595525482
 21
202.8926867947825
 31
0.0
  0
LINE
  5
90DC
  8
0
 10
50.87989595525482
 20
202.8926867947825
 30
0.0
 11
50.54591110525482
 21
202.8926867947825
 31
0.0
  0
LINE
  5
90DD
  8
0
 10
50.54591110525482
 20
202.8926867947825
 30
0.0
 11
50.54591110525482
 21
202.5587028947825
 31
0.0
  0
LINE
  5
90DE
  8
0
 10
51.54673610525481
 20
202.5587028947825
 30
0.0
 11
52.21396290525485
 21
202.5587028947825
 31
0.0
  0
LINE
  5
90DF
  8
0
 10
52.21396290525485
 20
202.5587028947825
 30
0.0
 11
52.21396290525485
 21
202.8926867947825
 31
0.0
  0
LINE
  5
90E0
  8
0
 10
52.21396290525485
 20
202.8926867947825
 30
0.0
 11
51.54673610525481
 21
202.8926867947825
 31
0.0
  0
LINE
  5
90E1
  8
0
 10
51.54673610525481
 20
202.8926867947825
 30
0.0
 11
51.54673610525481
 21
202.5587028947825
 31
0.0
  0
LINE
  5
90E2
  8
0
 10
52.88158110525484
 20
202.5587028947825
 30
0.0
 11
53.54917840525485
 21
202.5587028947825
 31
0.0
  0
LINE
  5
90E3
  8
0
 10
53.54917840525485
 20
202.5587028947825
 30
0.0
 11
53.54917840525485
 21
202.8926867947825
 31
0.0
  0
LINE
  5
90E4
  8
0
 10
53.54917840525485
 20
202.8926867947825
 30
0.0
 11
52.88158110525484
 21
202.8926867947825
 31
0.0
  0
LINE
  5
90E5
  8
0
 10
52.88158110525484
 20
202.8926867947825
 30
0.0
 11
52.88158110525484
 21
202.5587028947825
 31
0.0
  0
LINE
  5
90E6
  8
0
 10
42.53437110525482
 20
202.2247778947825
 30
0.0
 11
42.86872645525483
 21
202.2247778947825
 31
0.0
  0
LINE
  5
90E7
  8
0
 10
42.86872645525483
 20
202.2247778947825
 30
0.0
 11
42.86872645525483
 21
202.5587627447825
 31
0.0
  0
LINE
  5
90E8
  8
0
 10
42.86872645525483
 20
202.5587627447825
 30
0.0
 11
42.53437110525482
 21
202.5587627447825
 31
0.0
  0
LINE
  5
90E9
  8
0
 10
42.53437110525482
 20
202.5587627447825
 30
0.0
 11
42.53437110525482
 21
202.2247778947825
 31
0.0
  0
LINE
  5
90EA
  8
0
 10
44.53744610525482
 20
202.2247778947825
 30
0.0
 11
44.87143000525481
 21
202.2247778947825
 31
0.0
  0
LINE
  5
90EB
  8
0
 10
44.87143000525481
 20
202.2247778947825
 30
0.0
 11
44.87143000525481
 21
202.5587627447825
 31
0.0
  0
LINE
  5
90EC
  8
0
 10
44.87143000525481
 20
202.5587627447825
 30
0.0
 11
44.53744610525482
 21
202.5587627447825
 31
0.0
  0
LINE
  5
90ED
  8
0
 10
44.53744610525482
 20
202.5587627447825
 30
0.0
 11
44.53744610525482
 21
202.2247778947825
 31
0.0
  0
LINE
  5
90EE
  8
0
 10
45.87267110525482
 20
202.2247778947825
 30
0.0
 11
46.53989695525482
 21
202.2247778947825
 31
0.0
  0
LINE
  5
90EF
  8
0
 10
46.53989695525482
 20
202.2247778947825
 30
0.0
 11
46.53989695525482
 21
202.5587627447825
 31
0.0
  0
LINE
  5
90F0
  8
0
 10
46.53989695525482
 20
202.5587627447825
 30
0.0
 11
45.87267110525482
 21
202.5587627447825
 31
0.0
  0
LINE
  5
90F1
  8
0
 10
45.87267110525482
 20
202.5587627447825
 30
0.0
 11
45.87267110525482
 21
202.2247778947825
 31
0.0
  0
LINE
  5
90F2
  8
0
 10
47.20751610525485
 20
202.2247778947825
 30
0.0
 11
48.20910110525483
 21
202.2247778947825
 31
0.0
  0
LINE
  5
90F3
  8
0
 10
48.20910110525483
 20
202.2247778947825
 30
0.0
 11
48.20910110525483
 21
202.5587627447825
 31
0.0
  0
LINE
  5
90F4
  8
0
 10
48.20910110525483
 20
202.5587627447825
 30
0.0
 11
47.20751610525485
 21
202.5587627447825
 31
0.0
  0
LINE
  5
90F5
  8
0
 10
47.20751610525485
 20
202.5587627447825
 30
0.0
 11
47.20751610525485
 21
202.2247778947825
 31
0.0
  0
LINE
  5
90F6
  8
0
 10
48.87666610525483
 20
202.2247778947825
 30
0.0
 11
49.54426340525481
 21
202.2247778947825
 31
0.0
  0
LINE
  5
90F7
  8
0
 10
49.54426340525481
 20
202.2247778947825
 30
0.0
 11
49.54426340525481
 21
202.5587627447825
 31
0.0
  0
LINE
  5
90F8
  8
0
 10
49.54426340525481
 20
202.5587627447825
 30
0.0
 11
48.87666610525483
 21
202.5587627447825
 31
0.0
  0
LINE
  5
90F9
  8
0
 10
48.87666610525483
 20
202.5587627447825
 30
0.0
 11
48.87666610525483
 21
202.2247778947825
 31
0.0
  0
LINE
  5
90FA
  8
0
 10
51.54673610525481
 20
202.2247778947825
 30
0.0
 11
52.88156210525483
 21
202.2247778947825
 31
0.0
  0
LINE
  5
90FB
  8
0
 10
52.88156210525483
 20
202.2247778947825
 30
0.0
 11
52.88156210525483
 21
202.5587627447825
 31
0.0
  0
LINE
  5
90FC
  8
0
 10
52.88156210525483
 20
202.5587627447825
 30
0.0
 11
51.54673610525481
 21
202.5587627447825
 31
0.0
  0
LINE
  5
90FD
  8
0
 10
51.54673610525481
 20
202.5587627447825
 30
0.0
 11
51.54673610525481
 21
202.2247778947825
 31
0.0
  0
LINE
  5
90FE
  8
0
 10
42.53437110525482
 20
201.8911378947825
 30
0.0
 11
44.87115260525485
 21
201.8911378947825
 31
0.0
  0
LINE
  5
90FF
  8
0
 10
44.87115260525485
 20
201.8911378947825
 30
0.0
 11
44.87115260525485
 21
202.2251227447825
 31
0.0
  0
LINE
  5
9100
  8
0
 10
44.87115260525485
 20
202.2251227447825
 30
0.0
 11
42.53437110525482
 21
202.2251227447825
 31
0.0
  0
LINE
  5
9101
  8
0
 10
42.53437110525482
 20
202.2251227447825
 30
0.0
 11
42.53437110525482
 21
201.8911378947825
 31
0.0
  0
LINE
  5
9102
  8
0
 10
45.20510610525483
 20
201.8911378947825
 30
0.0
 11
45.53909095525484
 21
201.8911378947825
 31
0.0
  0
LINE
  5
9103
  8
0
 10
45.53909095525484
 20
201.8911378947825
 30
0.0
 11
45.53909095525484
 21
202.2251227447825
 31
0.0
  0
LINE
  5
9104
  8
0
 10
45.53909095525484
 20
202.2251227447825
 30
0.0
 11
45.20510610525483
 21
202.2251227447825
 31
0.0
  0
LINE
  5
9105
  8
0
 10
45.20510610525483
 20
202.2251227447825
 30
0.0
 11
45.20510610525483
 21
201.8911378947825
 31
0.0
  0
LINE
  5
9106
  8
0
 10
46.20593110525482
 20
201.8911378947825
 30
0.0
 11
46.53991500525484
 21
201.8911378947825
 31
0.0
  0
LINE
  5
9107
  8
0
 10
46.53991500525484
 20
201.8911378947825
 30
0.0
 11
46.53991500525484
 21
202.2251227447825
 31
0.0
  0
LINE
  5
9108
  8
0
 10
46.53991500525484
 20
202.2251227447825
 30
0.0
 11
46.20593110525482
 21
202.2251227447825
 31
0.0
  0
LINE
  5
9109
  8
0
 10
46.20593110525482
 20
202.2251227447825
 30
0.0
 11
46.20593110525482
 21
201.8911378947825
 31
0.0
  0
LINE
  5
910A
  8
0
 10
47.20751610525485
 20
201.8911378947825
 30
0.0
 11
47.54150000525482
 21
201.8911378947825
 31
0.0
  0
LINE
  5
910B
  8
0
 10
47.54150000525482
 20
201.8911378947825
 30
0.0
 11
47.54150000525482
 21
202.2251227447825
 31
0.0
  0
LINE
  5
910C
  8
0
 10
47.54150000525482
 20
202.2251227447825
 30
0.0
 11
47.20751610525485
 21
202.2251227447825
 31
0.0
  0
LINE
  5
910D
  8
0
 10
47.20751610525485
 20
202.2251227447825
 30
0.0
 11
47.20751610525485
 21
201.8911378947825
 31
0.0
  0
LINE
  5
910E
  8
0
 10
48.20910110525483
 20
201.8911378947825
 30
0.0
 11
48.54308500525482
 21
201.8911378947825
 31
0.0
  0
LINE
  5
910F
  8
0
 10
48.54308500525482
 20
201.8911378947825
 30
0.0
 11
48.54308500525482
 21
202.2251227447825
 31
0.0
  0
LINE
  5
9110
  8
0
 10
48.54308500525482
 20
202.2251227447825
 30
0.0
 11
48.20910110525483
 21
202.2251227447825
 31
0.0
  0
LINE
  5
9111
  8
0
 10
48.20910110525483
 20
202.2251227447825
 30
0.0
 11
48.20910110525483
 21
201.8911378947825
 31
0.0
  0
LINE
  5
9112
  8
0
 10
48.87666610525483
 20
201.8911378947825
 30
0.0
 11
49.21065000525482
 21
201.8911378947825
 31
0.0
  0
LINE
  5
9113
  8
0
 10
49.21065000525482
 20
201.8911378947825
 30
0.0
 11
49.21065000525482
 21
202.2251227447825
 31
0.0
  0
LINE
  5
9114
  8
0
 10
49.21065000525482
 20
202.2251227447825
 30
0.0
 11
48.87666610525483
 21
202.2251227447825
 31
0.0
  0
LINE
  5
9115
  8
0
 10
48.87666610525483
 20
202.2251227447825
 30
0.0
 11
48.87666610525483
 21
201.8911378947825
 31
0.0
  0
LINE
  5
9116
  8
0
 10
49.87749110525482
 20
201.8911378947825
 30
0.0
 11
51.21231710525484
 21
201.8911378947825
 31
0.0
  0
LINE
  5
9117
  8
0
 10
51.21231710525484
 20
201.8911378947825
 30
0.0
 11
51.21231710525484
 21
202.2251227447825
 31
0.0
  0
LINE
  5
9118
  8
0
 10
51.21231710525484
 20
202.2251227447825
 30
0.0
 11
49.87749110525482
 21
202.2251227447825
 31
0.0
  0
LINE
  5
9119
  8
0
 10
49.87749110525482
 20
202.2251227447825
 30
0.0
 11
49.87749110525482
 21
201.8911378947825
 31
0.0
  0
LINE
  5
911A
  8
0
 10
51.54673610525481
 20
201.8911378947825
 30
0.0
 11
51.88072000525483
 21
201.8911378947825
 31
0.0
  0
LINE
  5
911B
  8
0
 10
51.88072000525483
 20
201.8911378947825
 30
0.0
 11
51.88072000525483
 21
202.2251227447825
 31
0.0
  0
LINE
  5
911C
  8
0
 10
51.88072000525483
 20
202.2251227447825
 30
0.0
 11
51.54673610525481
 21
202.2251227447825
 31
0.0
  0
LINE
  5
911D
  8
0
 10
51.54673610525481
 20
202.2251227447825
 30
0.0
 11
51.54673610525481
 21
201.8911378947825
 31
0.0
  0
LINE
  5
911E
  8
0
 10
52.21392110525483
 20
201.8911378947825
 30
0.0
 11
52.54827645525484
 21
201.8911378947825
 31
0.0
  0
LINE
  5
911F
  8
0
 10
52.54827645525484
 20
201.8911378947825
 30
0.0
 11
52.54827645525484
 21
202.2251227447825
 31
0.0
  0
LINE
  5
9120
  8
0
 10
52.54827645525484
 20
202.2251227447825
 30
0.0
 11
52.21392110525483
 21
202.2251227447825
 31
0.0
  0
LINE
  5
9121
  8
0
 10
52.21392110525483
 20
202.2251227447825
 30
0.0
 11
52.21392110525483
 21
201.8911378947825
 31
0.0
  0
LINE
  5
9122
  8
0
 10
52.88158110525484
 20
201.8911378947825
 30
0.0
 11
53.21556500525483
 21
201.8911378947825
 31
0.0
  0
LINE
  5
9123
  8
0
 10
53.21556500525483
 20
201.8911378947825
 30
0.0
 11
53.21556500525483
 21
202.2251227447825
 31
0.0
  0
LINE
  5
9124
  8
0
 10
53.21556500525483
 20
202.2251227447825
 30
0.0
 11
52.88158110525484
 21
202.2251227447825
 31
0.0
  0
LINE
  5
9125
  8
0
 10
52.88158110525484
 20
202.2251227447825
 30
0.0
 11
52.88158110525484
 21
201.8911378947825
 31
0.0
  0
CIRCLE
  5
92FB
  8
0
 10
63.52186071078967
 20
209.8911378947827
 30
0.0
 40
1.5
  0
LINE
  5
9B11
  8
0
 10
50.9824951168568
 20
232.0632888421086
 30
0.0
 11
52.12611815685676
 21
232.0632888421086
 31
0.0
  0
LINE
  5
9B12
  8
0
 10
52.12611815685676
 20
232.0632888421086
 30
0.0
 11
52.12611815685676
 21
226.1082690021084
 31
0.0
  0
LINE
  5
9B13
  8
0
 10
52.12611815685676
 20
226.1082690021084
 30
0.0
 11
50.9824951168568
 21
226.1082690021084
 31
0.0
  0
LINE
  5
9B14
  8
0
 10
50.9824951168568
 20
226.1082690021084
 30
0.0
 11
50.9824951168568
 21
232.0632888421086
 31
0.0
  0
LINE
  5
9B15
  8
0
 10
59.90707287685717
 20
230.4253067621083
 30
0.0
 11
61.05049879685674
 21
230.4253067621083
 31
0.0
  0
LINE
  5
9B16
  8
0
 10
61.05049879685674
 20
230.4253067621083
 30
0.0
 11
61.05049879685674
 21
226.1082690021084
 31
0.0
  0
LINE
  5
9B17
  8
0
 10
61.05049879685674
 20
226.1082690021084
 30
0.0
 11
59.90707287685717
 21
226.1082690021084
 31
0.0
  0
LINE
  5
9B18
  8
0
 10
59.90707287685717
 20
226.1082690021084
 30
0.0
 11
59.90707287685717
 21
230.4253067621083
 31
0.0
  0
LINE
  5
9B19
  8
0
 10
60.13497527795897
 20
230.923139663605
 30
0.0
 11
60.04352135685684
 21
230.8550619621086
 31
0.0
  0
LINE
  5
9B1A
  8
0
 10
60.04352135685684
 20
230.8550619621086
 30
0.0
 11
60.06822017909116
 21
230.9527562528109
 31
0.0
  0
LINE
  5
9B1B
  8
0
 10
59.87502185810462
 20
231.9529178655101
 30
0.0
 11
59.8071319168568
 21
232.0440584421084
 31
0.0
  0
LINE
  5
9B1C
  8
0
 10
59.8071319168568
 20
232.0440584421084
 30
0.0
 11
59.90488425292978
 21
232.0193824013335
 31
0.0
  0
LINE
  5
9B1D
  8
0
 10
60.90499310420654
 20
232.2126312655558
 30
0.0
 11
60.99606231685692
 21
232.2804490021089
 31
0.0
  0
LINE
  5
9B1E
  8
0
 10
60.99606231685692
 20
232.2804490021089
 30
0.0
 11
60.97139713446148
 21
232.1825687490071
 31
0.0
  0
LINE
  5
9B1F
  8
0
 10
61.16516338733135
 20
231.1824891076548
 30
0.0
 11
61.23277767685676
 21
231.0916474021086
 31
0.0
  0
LINE
  5
9B20
  8
0
 10
61.23277767685676
 20
231.0916474021086
 30
0.0
 11
61.13502475627791
 21
231.1162975429205
 31
0.0
  0
LINE
  5
9B21
  8
0
 10
60.70367401377388
 20
230.8393357554049
 30
0.0
 11
60.68724023685689
 21
230.7270235621089
 31
0.0
  0
LINE
  5
9B22
  8
0
 10
60.68724023685689
 20
230.7270235621089
 30
0.0
 11
60.63559066998113
 21
230.8135899901034
 31
0.0
  0
LINE
  5
9B23
  8
0
 10
59.79194143583453
 20
231.3841984375684
 30
0.0
 11
59.67922007685655
 21
231.4006654821086
 31
0.0
  0
LINE
  5
9B24
  8
0
 10
59.67922007685655
 20
231.4006654821086
 30
0.0
 11
59.76559718205061
 21
231.4522051300545
 31
0.0
  0
LINE
  5
9B25
  8
0
 10
60.33618766449689
 20
232.2960561077088
 30
0.0
 11
60.35266935685667
 21
232.408489642109
 31
0.0
  0
LINE
  5
9B26
  8
0
 10
60.35266935685667
 20
232.408489642109
 30
0.0
 11
60.40441033803626
 21
232.3218508307635
 31
0.0
  0
LINE
  5
9B27
  8
0
 10
61.24847395617252
 20
231.7516374206351
 30
0.0
 11
61.36068615685707
 21
231.7351736421086
 31
0.0
  0
LINE
  5
9B28
  8
0
 10
61.36068615685707
 20
231.7351736421086
 30
0.0
 11
61.27399198498887
 21
231.6834177406744
 31
0.0
  0
LINE
  5
9B29
  8
0
 10
60.41087208845391
 20
230.8244908922778
 30
0.0
 11
60.35266935685667
 21
230.7270235621089
 31
0.0
  0
LINE
  5
9B2A
  8
0
 10
60.35266935685667
 20
230.7270235621089
 30
0.0
 11
60.33810185698047
 21
230.8264256639249
 31
0.0
  0
LINE
  5
9B2B
  8
0
 10
59.77699738429527
 20
231.6767543355126
 30
0.0
 11
59.67909015685672
 21
231.7351736421086
 31
0.0
  0
LINE
  5
9B2C
  8
0
 10
59.67909015685672
 20
231.7351736421086
 30
0.0
 11
59.77881582015397
 21
231.7497403327415
 31
0.0
  0
LINE
  5
9B2D
  8
0
 10
60.62891590188354
 20
232.3109044506999
 30
0.0
 11
60.68717639685718
 21
232.408489642109
 31
0.0
  0
LINE
  5
9B2E
  8
0
 10
60.68717639685718
 20
232.408489642109
 30
0.0
 11
60.70177459553196
 21
232.3088120046967
 31
0.0
  0
LINE
  5
9B2F
  8
0
 10
61.26303994635981
 20
231.4587463285442
 30
0.0
 11
61.36068615685707
 21
231.400403402109
 31
0.0
  0
LINE
  5
9B30
  8
0
 10
60.96847517643863
 20
230.965196524713
 30
0.0
 11
60.99625831685688
 21
230.8550619621086
 31
0.0
  0
LINE
  5
9B31
  8
0
 10
60.99625831685688
 20
230.8550619621086
 30
0.0
 11
60.91543910138279
 21
230.9152703654498
 31
0.0
  0
LINE
  5
9B32
  8
0
 10
59.91749508680158
 20
231.1195191577725
 30
0.0
 11
59.8071319168568
 21
231.0916474021086
 31
0.0
  0
LINE
  5
9B33
  8
0
 10
59.8071319168568
 20
231.0916474021086
 30
0.0
 11
59.86718926716293
 21
231.1723002937414
 31
0.0
  0
LINE
  5
9B34
  8
0
 10
60.0713127801111
 20
232.1704459150604
 30
0.0
 11
60.04352135685684
 21
232.2804490021089
 31
0.0
  0
LINE
  5
9B35
  8
0
 10
60.04352135685684
 20
232.2804490021089
 30
0.0
 11
60.12454461489023
 21
232.2201898787015
 31
0.0
  0
LINE
  5
9B36
  8
0
 10
61.12278772418603
 20
232.0163310795787
 30
0.0
 11
61.23277767685676
 21
232.0440584421084
 31
0.0
  0
LINE
  5
9B37
  8
0
 10
61.23277767685676
 20
232.0440584421084
 30
0.0
 11
61.17248734306958
 21
231.9631293221836
 31
0.0
  0
LINE
  5
9B38
  8
0
 10
60.20212488052101
 20
230.8870439878591
 30
0.0
 11
60.11842807685679
 21
230.8104042021085
 31
0.0
  0
LINE
  5
9B39
  8
0
 10
60.11842807685679
 20
230.8104042021085
 30
0.0
 11
60.13497527795897
 21
230.923139663605
 31
0.0
  0
LINE
  5
9B3A
  8
0
 10
59.83937154461518
 20
231.8856412587392
 30
0.0
 11
59.76266679685676
 21
231.9694104421086
 31
0.0
  0
LINE
  5
9B3B
  8
0
 10
59.76266679685676
 20
231.9694104421086
 30
0.0
 11
59.87502185810462
 21
231.9529178655101
 31
0.0
  0
LINE
  5
9B3C
  8
0
 10
60.83788039467998
 20
232.2484664773878
 30
0.0
 11
60.92148039685679
 21
232.3250429221088
 31
0.0
  0
LINE
  5
9B3D
  8
0
 10
60.92148039685679
 20
232.3250429221088
 30
0.0
 11
60.90499310420654
 21
232.2126312655558
 31
0.0
  0
LINE
  5
9B3E
  8
0
 10
61.20051978715099
 20
231.2499305210521
 30
0.0
 11
61.27737159685665
 21
231.1659694821082
 31
0.0
  0
LINE
  5
9B3F
  8
0
 10
60.77643125302728
 20
230.8618945847246
 30
0.0
 11
60.77139815685695
 21
230.7482106021088
 31
0.0
  0
LINE
  5
9B40
  8
0
 10
60.77139815685695
 20
230.7482106021088
 30
0.0
 11
60.70367401377388
 21
230.8393357554049
 31
0.0
  0
LINE
  5
9B41
  8
0
 10
59.8139638974896
 20
231.3112509280744
 30
0.0
 11
59.70053367685676
 21
231.3161659621086
 31
0.0
  0
LINE
  5
9B42
  8
0
 10
59.70053367685676
 20
231.3161659621086
 30
0.0
 11
59.79194143583453
 21
231.3841984375684
 31
0.0
  0
LINE
  5
9B43
  8
0
 10
60.26338708585143
 20
232.2738090366128
 30
0.0
 11
60.26837815685639
 21
232.3871603621086
 31
0.0
  0
LINE
  5
9B44
  8
0
 10
60.26837815685639
 20
232.3871603621086
 30
0.0
 11
60.33618766449689
 21
232.2960561077088
 31
0.0
  0
LINE
  5
9B45
  8
0
 10
61.22605328535536
 20
231.8243893472398
 30
0.0
 11
61.33950135685672
 21
231.8193830821086
 31
0.0
  0
LINE
  5
9B46
  8
0
 10
61.33950135685672
 20
231.8193830821086
 30
0.0
 11
61.24847395617252
 21
231.7516374206351
 31
0.0
  0
LINE
  5
9B47
  8
0
 10
60.4867205281459
 20
230.8175385998428
 30
0.0
 11
60.43852855685662
 21
230.7144403621086
 31
0.0
  0
LINE
  5
9B48
  8
0
 10
60.43852855685662
 20
230.7144403621086
 30
0.0
 11
60.41087208845391
 21
230.8244908922778
 31
0.0
  0
LINE
  5
9B49
  8
0
 10
59.7694554545298
 20
231.6010132150849
 30
0.0
 11
59.66663911685708
 21
231.6489224421083
 31
0.0
  0
LINE
  5
9B4A
  8
0
 10
59.66663911685708
 20
231.6489224421083
 30
0.0
 11
59.77699738429527
 21
231.6767543355126
 31
0.0
  0
LINE
  5
9B4B
  8
0
 10
60.55304512097626
 20
232.3182512167731
 30
0.0
 11
60.60105511685714
 21
232.4211366821086
 31
0.0
  0
LINE
  5
9B4C
  8
0
 10
60.60105511685714
 20
232.4211366821086
 30
0.0
 11
60.62891590188354
 21
232.3109044506999
 31
0.0
  0
LINE
  5
9B4D
  8
0
 10
61.270509925677
 20
231.5345308472896
 30
0.0
 11
61.3733365568566
 21
231.486524682109
 31
0.0
  0
LINE
  5
9B4E
  8
0
 10
61.3733365568566
 20
231.486524682109
 30
0.0
 11
61.26303994635981
 21
231.4587463285442
 31
0.0
  0
LINE
  5
9B4F
  8
0
 10
61.02714387091572
 20
231.013611890793
 30
0.0
 11
61.06588311685681
 21
230.9069571621084
 31
0.0
  0
LINE
  5
9B50
  8
0
 10
59.9657004236621
 20
231.0605898330331
 30
0.0
 11
59.85908983685675
 21
231.0217728421084
 31
0.0
  0
LINE
  5
9B51
  8
0
 10
59.85908983685675
 20
231.0217728421084
 30
0.0
 11
59.91749508680158
 21
231.1195191577725
 31
0.0
  0
LINE
  5
9B52
  8
0
 10
60.012882890154
 20
232.1216598997497
 30
0.0
 11
59.97407351685678
 21
232.2285022821087
 31
0.0
  0
LINE
  5
9B53
  8
0
 10
59.97407351685678
 20
232.2285022821087
 30
0.0
 11
60.0713127801111
 21
232.1704459150604
 31
0.0
  0
LINE
  5
9B54
  8
0
 10
61.07385674956384
 20
232.0746498374255
 30
0.0
 11
61.1809328768565
 21
232.1134973221086
 31
0.0
  0
LINE
  5
9B55
  8
0
 10
61.1809328768565
 20
232.1134973221086
 30
0.0
 11
61.12278772418603
 21
232.0163310795787
 31
0.0
  0
LINE
  5
9B56
  8
0
 10
60.27269934656869
 20
230.8585881816524
 30
0.0
 11
60.19705207685701
 21
230.7737667621085
 31
0.0
  0
LINE
  5
9B57
  8
0
 10
60.19705207685701
 20
230.7737667621085
 30
0.0
 11
60.20212488052101
 21
230.8870439878591
 31
0.0
  0
LINE
  5
9B58
  8
0
 10
59.8108409131957
 20
231.8150906615882
 30
0.0
 11
59.72602935685671
 21
231.8906576421085
 31
0.0
  0
LINE
  5
9B59
  8
0
 10
59.72602935685671
 20
231.8906576421085
 30
0.0
 11
59.83937154461518
 21
231.8856412587392
 31
0.0
  0
LINE
  5
9B5A
  8
0
 10
60.76719768671109
 20
232.2767133437095
 30
0.0
 11
60.84292359685668
 21
232.3616714021085
 31
0.0
  0
LINE
  5
9B5B
  8
0
 10
60.84292359685668
 20
232.3616714021085
 30
0.0
 11
60.83788039467998
 21
232.2484664773878
 31
0.0
  0
LINE
  5
9B5C
  8
0
 10
61.22923539242464
 20
231.3205039002368
 30
0.0
 11
61.31413559685706
 21
231.2448432421087
 31
0.0
  0
LINE
  5
9B5D
  8
0
 10
60.84664274330925
 20
230.8913274151308
 30
0.0
 11
60.85315815685652
 21
230.7780059621085
 31
0.0
  0
LINE
  5
9B5E
  8
0
 10
60.85315815685652
 20
230.7780059621085
 30
0.0
 11
60.77643125302728
 21
230.8618945847246
 31
0.0
  0
LINE
  5
9B5F
  8
0
 10
59.84367646117443
 20
231.2411606529862
 30
0.0
 11
59.73020135685709
 21
231.2345616421088
 31
0.0
  0
LINE
  5
9B60
  8
0
 10
59.73020135685709
 20
231.2345616421088
 30
0.0
 11
59.8139638974896
 21
231.3112509280744
 31
0.0
  0
LINE
  5
9B61
  8
0
 10
60.19333142915701
 20
232.2441120064472
 30
0.0
 11
60.18681415685677
 21
232.3574512421086
 31
0.0
  0
LINE
  5
9B62
  8
0
 10
60.18681415685677
 20
232.3574512421086
 30
0.0
 11
60.26338708585143
 21
232.2738090366128
 31
0.0
  0
LINE
  5
9B63
  8
0
 10
61.19674338518797
 20
231.8945317438582
 30
0.0
 11
61.30983367685684
 21
231.9010344421084
 31
0.0
  0
LINE
  5
9B64
  8
0
 10
61.30983367685684
 20
231.9010344421084
 30
0.0
 11
61.22605328535536
 21
231.8243893472398
 31
0.0
  0
LINE
  5
9B65
  8
0
 10
60.56288158759224
 20
230.8177225673306
 30
0.0
 11
60.52556039685686
 21
230.7104632421086
 31
0.0
  0
LINE
  5
9B66
  8
0
 10
60.52556039685686
 20
230.7104632421086
 30
0.0
 11
60.4867205281459
 21
230.8175385998428
 31
0.0
  0
LINE
  5
9B67
  8
0
 10
59.77009028473248
 20
231.5249263215472
 30
0.0
 11
59.66272583685685
 21
231.562279242109
 31
0.0
  0
LINE
  5
9B68
  8
0
 10
59.66272583685685
 20
231.562279242109
 30
0.0
 11
59.7694554545298
 21
231.6010132150849
 31
0.0
  0
LINE
  5
9B69
  8
0
 10
60.47702819435716
 20
232.3178037597162
 30
0.0
 11
60.51428199685705
 21
232.4248539621084
 31
0.0
  0
LINE
  5
9B6A
  8
0
 10
60.51428199685705
 20
232.4248539621084
 30
0.0
 11
60.55304512097626
 21
232.3182512167731
 31
0.0
  0
LINE
  5
9B6B
  8
0
 10
61.26977259734639
 20
231.6106247064471
 30
0.0
 11
61.37711655685661
 21
231.5731678821084
 31
0.0
  0
LINE
  5
9B6C
  8
0
 10
61.0806953686976
 20
231.0678024798598
 30
0.0
 11
61.13009943685682
 21
230.9654995621084
 31
0.0
  0
LINE
  5
9B6D
  8
0
 10
61.13009943685682
 20
230.9654995621084
 30
0.0
 11
61.02714387091572
 21
231.013611890793
 31
0.0
  0
LINE
  5
9B6E
  8
0
 10
60.01987561762115
 20
231.0071655008668
 30
0.0
 11
59.91763335685681
 21
230.9577469221084
 31
0.0
  0
LINE
  5
9B6F
  8
0
 10
59.91763335685681
 20
230.9577469221084
 30
0.0
 11
59.9657004236621
 21
231.0605898330331
 31
0.0
  0
LINE
  5
9B70
  8
0
 10
59.95915664469811
 20
232.0677028629397
 30
0.0
 11
59.90987623685686
 21
232.1696877221083
 31
0.0
  0
LINE
  5
9B71
  8
0
 10
59.90987623685686
 20
232.1696877221083
 30
0.0
 11
60.012882890154
 21
232.1216598997497
 31
0.0
  0
LINE
  5
9B72
  8
0
 10
61.0201461693693
 20
232.1287829832662
 30
0.0
 11
61.12221239685658
 21
232.1780955621088
 31
0.0
  0
LINE
  5
9B73
  8
0
 10
61.12221239685658
 20
232.1780955621088
 30
0.0
 11
61.07385674956384
 21
232.0746498374255
 31
0.0
  0
LINE
  5
9B74
  8
0
 10
60.33810185698047
 20
230.8264256639249
 30
0.0
 11
60.27919399685715
 21
230.7450813221084
 31
0.0
  0
LINE
  5
9B75
  8
0
 10
60.27919399685715
 20
230.7450813221084
 30
0.0
 11
60.27269934656869
 21
230.8585881816524
 31
0.0
  0
LINE
  5
9B76
  8
0
 10
59.77881582015306
 20
231.7497403327415
 30
0.0
 11
59.69740439685637
 21
231.8086445221087
 31
0.0
  0
LINE
  5
9B77
  8
0
 10
59.69740439685637
 20
231.8086445221087
 30
0.0
 11
59.8108409131957
 21
231.8150906615882
 31
0.0
  0
LINE
  5
9B78
  8
0
 10
60.70177459553196
 20
232.3088120046967
 30
0.0
 11
60.760708876857
 21
232.3903120421081
 31
0.0
  0
LINE
  5
9B79
  8
0
 10
60.760708876857
 20
232.3903120421081
 30
0.0
 11
60.76719768671109
 21
232.2767133437095
 31
0.0
  0
LINE
  5
9B7A
  8
0
 10
61.26134601064058
 20
231.3859221698202
 30
0.0
 11
61.34282663685661
 21
231.3269448421087
 31
0.0
  0
LINE
  5
9B7B
  8
0
 10
61.34282663685661
 20
231.3269448421087
 30
0.0
 11
61.22923539242464
 21
231.3205039002368
 31
0.0
  0
LINE
  5
9B7C
  8
0
 10
60.91543910138279
 20
230.9152703654498
 30
0.0
 11
60.93139015685682
 21
230.8156861221086
 31
0.0
  0
LINE
  5
9B7D
  8
0
 10
60.93139015685682
 20
230.8156861221086
 30
0.0
 11
60.84664274330925
 21
230.8913274151308
 31
0.0
  0
LINE
  5
9B7E
  8
0
 10
59.86718926716293
 20
231.1723002937414
 30
0.0
 11
59.76807863685661
 21
231.1563856421088
 31
0.0
  0
LINE
  5
9B7F
  8
0
 10
59.76807863685661
 20
231.1563856421088
 30
0.0
 11
59.84367646117443
 21
231.2411606529862
 31
0.0
  0
LINE
  5
9B80
  8
0
 10
60.12454461489023
 20
232.2201898787015
 30
0.0
 11
60.1086482368566
 21
232.3196310821085
 31
0.0
  0
LINE
  5
9B81
  8
0
 10
60.1086482368566
 20
232.3196310821085
 30
0.0
 11
60.19333142915701
 21
232.2441120064472
 31
0.0
  0
LINE
  5
9B82
  8
0
 10
61.17248734306958
 20
231.9631293221836
 30
0.0
 11
61.27221959685647
 21
231.9790614821085
 31
0.0
  0
LINE
  5
9B83
  8
0
 10
61.27221959685647
 20
231.9790614821085
 30
0.0
 11
61.19674338518797
 21
231.8945317438582
 31
0.0
  0
LINE
  5
9B84
  8
0
 10
60.63559066998113
 20
230.8135899901034
 30
0.0
 11
60.61220359685666
 21
230.7154203621084
 31
0.0
  0
LINE
  5
9B85
  8
0
 10
59.76559718205061
 20
231.4522051300545
 30
0.0
 11
59.66761575685695
 21
231.4755061221084
 31
0.0
  0
LINE
  5
9B86
  8
0
 10
59.66761575685695
 20
231.4755061221084
 30
0.0
 11
59.77009028473248
 21
231.5249263215472
 31
0.0
  0
LINE
  5
9B87
  8
0
 10
60.40441033803626
 20
232.3218508307635
 30
0.0
 11
60.42777207685657
 21
232.4198341221089
 31
0.0
  0
LINE
  5
9B88
  8
0
 10
60.42777207685657
 20
232.4198341221089
 30
0.0
 11
60.47702819435716
 21
232.3178037597162
 31
0.0
  0
LINE
  5
9B89
  8
0
 10
61.27399198498887
 20
231.6834177406744
 30
0.0
 11
61.37216391685678
 21
231.6600037221086
 31
0.0
  0
LINE
  5
9B8A
  8
0
 10
61.37216391685678
 20
231.6600037221086
 30
0.0
 11
61.26977259734639
 21
231.6106247064471
 31
0.0
  0
LINE
  5
9B8B
  8
0
 10
61.13502475627791
 20
231.1162975429205
 30
0.0
 11
61.187861196857
 21
231.030367722109
 31
0.0
  0
LINE
  5
9B8C
  8
0
 10
60.06822017909116
 20
230.9527562528109
 30
0.0
 11
59.98243431685722
 21
230.8999806821083
 31
0.0
  0
LINE
  5
9B8D
  8
0
 10
59.98243431685722
 20
230.8999806821083
 30
0.0
 11
60.01987561762115
 21
231.0071655008668
 31
0.0
  0
LINE
  5
9B8E
  8
0
 10
59.90488425292978
 20
232.0193824013335
 30
0.0
 11
59.85224327685654
 21
232.1049494821085
 31
0.0
  0
LINE
  5
9B8F
  8
0
 10
59.85224327685654
 20
232.1049494821085
 30
0.0
 11
59.95915664469811
 21
232.0677028629397
 31
0.0
  0
LINE
  5
9B90
  8
0
 10
60.97139713446148
 20
232.1825687490071
 30
0.0
 11
61.05740807685669
 21
232.2354664421085
 31
0.0
  0
LINE
  5
9B91
  8
0
 10
55.26074279685662
 20
228.1705978021085
 30
0.0
 11
55.26074279685662
 21
227.9443096421086
 31
0.0
  0
LINE
  5
9B92
  8
0
 10
52.69116487685704
 20
229.2818808421088
 30
0.0
 11
53.79990663685629
 21
229.2818808421088
 31
0.0
  0
LINE
  5
9B93
  8
0
 10
55.49193319685691
 20
226.1082690021084
 30
0.0
 11
56.62251719685645
 21
226.1082690021084
 31
0.0
  0
LINE
  5
9B94
  8
0
 10
58.09508983685663
 20
229.8122938021087
 30
0.0
 11
58.09508983685663
 21
230.4253067621083
 31
0.0
  0
LINE
  5
9B95
  8
0
 10
58.09508983685663
 20
230.4253067621083
 30
0.0
 11
57.03530663685677
 21
230.4253067621083
 31
0.0
  0
LINE
  5
9B96
  8
0
 10
57.03530663685677
 20
230.4253067621083
 30
0.0
 11
57.03530663685677
 21
226.1082690021084
 31
0.0
  0
LINE
  5
9B97
  8
0
 10
57.03530663685677
 20
226.1082690021084
 30
0.0
 11
58.17866647685668
 21
226.1082690021084
 31
0.0
  0
LINE
  5
9B98
  8
0
 10
58.17866647685668
 20
226.1082690021084
 30
0.0
 11
58.17866647685668
 21
227.4397149221085
 31
0.0
  0
LINE
  5
9B99
  8
0
 10
59.47960023685681
 20
229.3071771621088
 30
0.0
 11
59.47960023685681
 21
230.4555568421082
 31
0.0
  0
LINE
  5
9B9A
  8
0
 10
64.11745191685685
 20
229.3719154021081
 30
0.0
 11
65.27750199685687
 21
229.3719154021081
 31
0.0
  0
LINE
  5
9B9B
  8
0
 10
62.59590503685666
 20
227.3287554021089
 30
0.0
 11
61.39726087685693
 21
227.3287554021089
 31
0.0
  0
LINE
  5
9B9C
  8
0
 10
44.87127447685697
 20
233.6954715621085
 30
0.0
 11
45.39836215685654
 21
233.6954715621085
 31
0.0
  0
LINE
  5
9B9D
  8
0
 10
45.43636823685682
 20
229.3110870821082
 30
0.0
 11
44.93451079685718
 21
229.3110870821082
 31
0.0
  0
LINE
  5
9B9E
  8
0
 10
44.67165127685684
 20
229.6025021221084
 30
0.0
 11
44.67165127685684
 21
233.2240590821083
 31
0.0
  0
LINE
  5
9B9F
  8
0
 10
44.72243767685694
 20
228.8267666021083
 30
0.0
 11
45.25786935685682
 21
228.8267666021083
 31
0.0
  0
LINE
  5
9BA0
  8
0
 10
45.70398775685698
 20
234.1801840421084
 30
0.0
 11
42.03314631685652
 21
234.1801840421084
 31
0.0
  0
LINE
  5
9BA1
  8
0
 10
42.03314631685652
 20
234.1801840421084
 30
0.0
 11
42.03314631685652
 21
233.7338035621086
 31
0.0
  0
LINE
  5
9BA2
  8
0
 10
42.03314631685652
 20
233.7338035621086
 30
0.0
 11
42.34776887685683
 21
233.7338035621086
 31
0.0
  0
LINE
  5
9BA3
  8
0
 10
43.11659511685656
 20
232.8588438821088
 30
0.0
 11
43.11659511685656
 21
227.2732750821086
 31
0.0
  0
LINE
  5
9BA4
  8
0
 10
42.08419143685677
 20
226.3541806821084
 30
0.0
 11
42.08419143685677
 21
225.9081910821086
 31
0.0
  0
LINE
  5
9BA5
  8
0
 10
42.08419143685677
 20
225.9081910821086
 30
0.0
 11
46.02917079685648
 21
225.9081910821086
 31
0.0
  0
LINE
  5
9BA6
  8
0
 10
46.02917079685648
 20
225.9081910821086
 30
0.0
 11
46.02917079685648
 21
226.3543094821088
 31
0.0
  0
LINE
  5
9BA7
  8
0
 10
44.67165127685684
 20
227.3208650021087
 30
0.0
 11
44.67165127685684
 21
228.6231046821084
 31
0.0
  0
LINE
  5
9BA8
  8
0
  6
CONTINUOUS
 10
60.56288158759224
 20
230.8177225673306
 30
0.0
 11
60.61220359685666
 21
230.7154203621084
 31
0.0
  0
LINE
  5
9BA9
  8
0
  6
CONTINUOUS
 10
60.96847517643863
 20
230.965196524713
 30
0.0
 11
61.06588311685681
 21
230.9069571621084
 31
0.0
  0
LINE
  5
9BAA
  8
0
  6
CONTINUOUS
 10
61.0806953686976
 20
231.0678024798598
 30
0.0
 11
61.187861196857
 21
231.030367722109
 31
0.0
  0
LINE
  5
9BAB
  8
0
  6
CONTINUOUS
 10
61.16516338733135
 20
231.1824891076548
 30
0.0
 11
61.27737159685665
 21
231.1659694821082
 31
0.0
  0
LINE
  5
9BAC
  8
0
  6
CONTINUOUS
 10
61.20051978715099
 20
231.2499305210521
 30
0.0
 11
61.31413559685706
 21
231.2448432421087
 31
0.0
  0
LINE
  5
9BAD
  8
0
  6
CONTINUOUS
 10
61.26134601064058
 20
231.3859221698202
 30
0.0
 11
61.36068615685707
 21
231.400403402109
 31
0.0
  0
LINE
  5
9BAE
  8
0
  6
CONTINUOUS
 10
61.270509925677
 20
231.5345308472896
 30
0.0
 11
61.37711655685661
 21
231.5731678821084
 31
0.0
  0
LINE
  5
9BAF
  8
0
  6
CONTINUOUS
 10
61.05740807685669
 20
232.2354664421085
 30
0.0
 11
61.0201461693693
 21
232.1287829832662
 31
0.0
  0
LINE
  5
9BB0
  8
0
 10
54.60330254796798
 20
238.2779688598865
 30
0.0
 11
56.88752193996805
 21
238.7501751958861
 31
0.0
  0
LINE
  5
9BB1
  8
0
 10
56.88752193996805
 20
238.7501751958861
 30
0.0
 11
54.60338184396795
 21
239.2221503638865
 31
0.0
  0
LINE
  5
9BB2
  8
0
 10
54.60338184396795
 20
239.2221503638865
 30
0.0
 11
55.88873505996861
 21
241.0060751638874
 31
0.0
  0
LINE
  5
9BB3
  8
0
 10
55.88873505996861
 20
241.0060751638874
 30
0.0
 11
54.10465435596797
 21
239.7208012438863
 31
0.0
  0
LINE
  5
9BB4
  8
0
 10
54.10465435596797
 20
239.7208012438863
 30
0.0
 11
53.82589984044279
 21
241.0698877831827
 31
0.0
  0
LINE
  5
9BB5
  8
0
 10
53.41422135681086
 20
240.9476390642357
 30
0.0
 11
53.16078465996742
 21
239.720957147886
 31
0.0
  0
LINE
  5
9BB6
  8
0
 10
53.16078465996742
 20
239.720957147886
 30
0.0
 11
52.31630278512074
 21
240.3292054411248
 31
0.0
  0
LINE
  5
9BB7
  8
0
 10
52.04114494434833
 20
240.0836869964695
 30
0.0
 11
52.66189723596761
 21
239.2221503638865
 31
0.0
  0
LINE
  5
9BB8
  8
0
 10
52.66189723596761
 20
239.2221503638865
 30
0.0
 11
51.6007322024422
 21
239.0027276936906
 31
0.0
  0
LINE
  5
9BB9
  8
0
 10
51.62145527260981
 20
238.4931232209809
 30
0.0
 11
52.6621324359682
 21
238.2782793238865
 31
0.0
  0
LINE
  5
9BBA
  8
0
 10
52.6621324359682
 20
238.2782793238865
 30
0.0
 11
52.04907205628405
 21
237.4273226464728
 31
0.0
  0
LINE
  5
9BBB
  8
0
 10
52.28871939702475
 20
237.1510300995168
 30
0.0
 11
53.16078465996742
 21
237.779237339886
 31
0.0
  0
LINE
  5
9BBC
  8
0
 10
53.16078465996742
 20
237.779237339886
 30
0.0
 11
53.46670710367079
 21
236.2986146043021
 31
0.0
  0
LINE
  5
9BBD
  8
0
 10
53.77137802213264
 20
236.1665702332092
 30
0.0
 11
54.10465435596797
 21
237.7794725398861
 31
0.0
  0
LINE
  5
9BBE
  8
0
 10
54.10465435596797
 20
237.7794725398861
 30
0.0
 11
55.88889096396741
 21
236.4940440598865
 31
0.0
  0
LINE
  5
9BBF
  8
0
 10
55.88889096396741
 20
236.4940440598865
 30
0.0
 11
54.60330254796798
 21
238.2779688598865
 31
0.0
  0
LINE
  5
9BC0
  8
0
 10
58.36152477018976
 20
224.9475111286018
 30
0.0
 11
58.36152477018976
 21
225.410413304331
 31
0.0
  0
LINE
  5
9BC1
  8
0
 10
57.58389194420187
 20
224.7932032427842
 30
0.0
 11
57.58389194420187
 21
224.9475111286018
 31
0.0
  0
LINE
  5
9BC2
  8
0
 10
58.36152477018976
 20
224.9475111286018
 30
0.0
 11
57.58389194420187
 21
224.9475111286018
 31
0.0
  0
LINE
  5
9BC3
  8
0
 10
58.35782365944414
 20
224.7932032427842
 30
0.0
 11
57.58389194420187
 21
224.7932032427842
 31
0.0
  0
LINE
  5
9BC4
  8
0
 10
58.75008906553393
 20
225.410413304331
 30
0.0
 11
58.36152477018976
 21
225.410413304331
 31
0.0
  0
LINE
  5
9BC5
  8
0
 10
58.75008906553393
 20
225.410413304331
 30
0.0
 11
58.75008906553393
 21
224.940141090682
 31
0.0
  0
LINE
  5
9BC6
  8
0
 10
59.49780749571681
 20
224.940141090682
 30
0.0
 11
58.75008906553393
 21
224.940141090682
 31
0.0
  0
LINE
  5
9BC7
  8
0
 10
59.49780749571681
 20
224.7907572913349
 30
0.0
 11
59.49780749571681
 21
224.940141090682
 31
0.0
  0
LINE
  5
9BC8
  8
0
 10
58.74498796941879
 20
224.7907572913349
 30
0.0
 11
59.49780749571681
 21
224.7907572913349
 31
0.0
  0
ARC
  5
9BC9
  8
0
 10
56.5146873144792
 20
225.6007362730905
 30
0.0
 40
1.78373366193507
 50
310.0456923729903
 51
327.1738262384467
  0
ARC
  5
9BCA
  8
0
 10
56.25651791752688
 20
224.944138654463
 30
0.0
 40
1.92069235163314
 50
325.488517875747
 51
349.9185299046333
  0
LINE
  5
9BCB
  8
0
 10
58.01359269708945
 20
224.6337882751603
 30
0.0
 11
58.14755447859051
 21
224.6079246833941
 31
0.0
  0
LINE
  5
9BCC
  8
0
 10
57.45980943199692
 20
224.0921827069568
 30
0.0
 11
57.83919273847795
 21
223.8559293360184
 31
0.0
  0
ARC
  5
9BCD
  8
0
 10
56.22875497254762
 20
226.0500062785858
 30
0.0
 40
2.312697174244312
 50
302.1611570594345
 51
308.3070197817706
  0
LINE
  5
9BCE
  8
0
 10
58.35782365944414
 20
224.7932032427842
 30
0.0
 11
58.35782365944414
 21
223.9044506723156
 31
0.0
  0
LINE
  5
9BCF
  8
0
 10
58.02107968023273
 20
223.9118389618951
 30
0.0
 11
58.02107968023273
 21
223.7651355749957
 31
0.0
  0
LINE
  5
9BD0
  8
0
 10
58.02107968023273
 20
223.9118389618951
 30
0.0
 11
58.25988413308158
 21
223.833503613795
 31
0.0
  0
ARC
  5
9BD1
  8
0
 10
58.28315699277726
 20
223.9044506723156
 30
0.0
 40
0.0746666666666667
 50
251.8388875732299
 51
0.0
  0
LINE
  5
9BD2
  8
0
 10
58.74498796941879
 20
223.8773370466887
 30
0.0
 11
58.74498796941879
 21
224.7907572913349
 31
0.0
  0
LINE
  5
9BD3
  8
0
 10
58.36789030949939
 20
223.6238034718725
 30
0.0
 11
58.02107968023273
 21
223.7651355749957
 31
0.0
  0
ARC
  5
9BD4
  8
0
 10
58.47121019164086
 20
223.8773370466887
 30
0.0
 40
0.2737777777777778
 50
247.8281449539039
 51
0.0
  0
LINE
  5
9BD5
  8
0
 10
59.05427140421961
 20
224.6443742236951
 30
0.0
 11
59.16637915676
 21
224.5391138632584
 31
0.0
  0
LINE
  5
9BD6
  8
0
 10
58.93140859331533
 20
224.6028566081353
 30
0.0
 11
59.05427140421961
 21
224.6443742236951
 31
0.0
  0
LINE
  5
9BD7
  8
0
 10
59.56812368847676
 20
224.046194990481
 30
0.0
 11
59.13668292439723
 21
223.859824998109
 31
0.0
  0
ARC
  5
9BD8
  8
0
 10
56.54297614292653
 20
223.5431430976836
 30
0.0
 40
2.61296810051403
 50
6.961145816582685
 51
23.92618042379387
  0
ARC
  5
9BD9
  8
0
 10
57.49391840801371
 20
222.7841922379206
 30
0.0
 40
2.4279576794027
 50
31.31746538013244
 51
50.00949102187557
  0
LINE
  5
9BDA
  8
0
 10
61.34510914602441
 20
225.2716765651538
 30
0.0
 11
61.34510914602441
 21
225.1173686793358
 31
0.0
  0
LINE
  5
9BDB
  8
0
 10
61.34510914602441
 20
225.2716765651538
 30
0.0
 11
59.85344299742445
 21
225.2716765651538
 31
0.0
  0
LINE
  5
9BDC
  8
0
 10
59.85344299742445
 20
225.1173686793358
 30
0.0
 11
59.85344299742445
 21
225.2716765651538
 31
0.0
  0
LINE
  5
9BDD
  8
0
 10
61.34510914602441
 20
225.1173686793358
 30
0.0
 11
59.85344299742445
 21
225.1173686793358
 31
0.0
  0
LINE
  5
9BDE
  8
0
 10
61.4855352886222
 20
224.7953753997807
 30
0.0
 11
59.69599721336562
 21
224.7953753997807
 31
0.0
  0
LINE
  5
9BDF
  8
0
 10
59.69599721336562
 20
224.6342500647314
 30
0.0
 11
59.69599721336562
 21
224.7953753997807
 31
0.0
  0
LINE
  5
9BE0
  8
0
 10
60.99630183440985
 20
224.6342500647314
 30
0.0
 11
59.69599721336562
 21
224.6342500647314
 31
0.0
  0
LINE
  5
9BE1
  8
0
 10
61.4855352886222
 20
224.6564201839664
 30
0.0
 11
61.4855352886222
 21
224.7953753997807
 31
0.0
  0
LINE
  5
9BE2
  8
0
 10
59.85514070973221
 20
223.7357105846444
 30
0.0
 11
59.90345790072951
 21
223.6109511402063
 31
0.0
  0
ARC
  5
9BE3
  8
0
 10
59.38489231898137
 20
225.7243593553529
 30
0.0
 40
2.043491493068839
 50
283.3041404476278
 51
312.187984758957
  0
ARC
  5
9BE4
  8
0
 10
59.72960287778204
 20
225.0690630693424
 30
0.0
 40
1.33924926570833
 50
320.1134675612491
 51
341.0544644537722
  0
ARC
  5
9BE5
  8
0
 10
60.28015248987793
 20
224.9681605107379
 30
0.0
 40
1.245042056656759
 50
284.1440925346391
 51
345.4996819276624
  0
ARC
  5
9BE6
  8
0
 10
59.86880951040683
 20
225.3897722206192
 30
0.0
 40
1.77915849408482
 50
271.1158826182763
 51
293.7159784209443
  0
LINE
  5
9BE7
  8
0
 10
62.1412955670059
 20
224.2933919782816
 30
0.0
 11
62.1412955670059
 21
225.3337257891179
 31
0.0
  0
LINE
  5
9BE8
  8
0
 10
62.1412955670059
 20
225.3337257891179
 30
0.0
 11
61.73249874100082
 21
225.3337257891179
 31
0.0
  0
LINE
  5
9BE9
  8
0
 10
61.73249874100082
 20
224.2933919782816
 30
0.0
 11
61.73249874100082
 21
225.3337257891179
 31
0.0
  0
LINE
  5
9BEA
  8
0
 10
62.1412955670059
 20
224.2933919782816
 30
0.0
 11
61.73249874100082
 21
224.2933919782816
 31
0.0
  0
LINE
  5
9BEB
  8
0
 10
63.07892191309401
 20
224.588485213564
 30
0.0
 11
63.07892191309401
 21
225.3337257891179
 31
0.0
  0
LINE
  5
9BEC
  8
0
 10
62.68049882099302
 20
224.6430957797282
 30
0.0
 11
62.68049882099302
 21
225.3337257891179
 31
0.0
  0
LINE
  5
9BED
  8
0
 10
62.68049882099302
 20
225.3337257891179
 30
0.0
 11
63.07892191309401
 21
225.3337257891179
 31
0.0
  0
LINE
  5
9BEE
  8
0
 10
61.84759125682211
 20
223.673049408433
 30
0.0
 11
61.93138877212931
 21
223.5654831493247
 31
0.0
  0
ARC
  5
9BEF
  8
0
 10
61.73526096789118
 20
224.6121006339716
 30
0.0
 40
0.9457458950466363
 50
276.8213681552839
 51
1.878103949386534
  0
ARC
  5
9BF0
  8
0
 10
61.87426527407359
 20
224.9016281790954
 30
0.0
 40
1.337365557583815
 50
272.4480452339944
 51
323.9127955890404
  0
ARC
  5
9BF1
  8
0
 10
62.03129566426622
 20
224.6085272780582
 30
0.0
 40
1.047817942956835
 50
331.8321656005633
 51
358.9040121443402
  0
LINE
  5
9BF2
  8
0
 10
64.71642104433812
 20
225.063241301665
 30
0.0
 11
64.71642104433812
 21
225.1826735998874
 31
0.0
  0
LINE
  5
9BF3
  8
0
 10
63.36816650495774
 20
225.0438673377211
 30
0.0
 11
63.36816650495774
 21
225.1826735998874
 31
0.0
  0
LINE
  5
9BF4
  8
0
 10
64.71642104433812
 20
225.1826735998874
 30
0.0
 11
63.36816650495774
 21
225.1826735998874
 31
0.0
  0
LINE
  5
9BF5
  8
0
 10
64.23955169759637
 20
225.0438673377211
 30
0.0
 11
63.36816650495774
 21
225.0438673377211
 31
0.0
  0
LINE
  5
9BF6
  8
0
 10
62.98337905088482
 20
223.7254404579825
 30
0.0
 11
63.06039726727175
 21
223.6054733264526
 31
0.0
  0
ARC
  5
9BF7
  8
0
 10
62.37740299873093
 20
225.5604456116542
 30
0.0
 40
1.932472739726369
 50
288.2748377643809
 51
344.4954648401278
  0
ARC
  5
9BF8
  8
0
 10
62.39068372267246
 20
226.165549145638
 30
0.0
 40
2.646224561861322
 50
284.6600032593546
 51
312.5396667739578
  0
LINE
  5
9BF9
  8
0
 10
64.81691565058435
 20
223.584160644229
 30
0.0
 11
65.12240321401231
 21
223.9279893637712
 31
0.0
  0
ARC
  5
9BFA
  8
0
 10
62.78856148968742
 20
222.1753088756185
 30
0.0
 40
2.469632342666266
 50
34.78302390875149
 51
55.71309290050228
  0
ARC
  5
9BFB
  8
0
 10
62.9624848521018
 20
225.6001438974971
 30
0.0
 40
1.834272761572525
 50
316.4306178633717
 51
342.9799715932805
  0
ARC
  5
9BFC
  8
0
 10
62.71363163530276
 20
220.0716005528947
 30
0.0
 40
4.546857725842939
 50
58.01034014976575
 51
69.6947510335346
  0
ARC
  5
A107
  8
0
 10
53.62970639697372
 20
238.7350865187162
 30
0.0
 40
5.33214218313847
 50
74.3144994222587
 51
104.1724498576072
  0
ARC
  5
A108
  8
0
 10
53.63719310871357
 20
238.7456158483547
 30
0.0
 40
5.323775476131433
 50
104.2783165563116
 51
166.1870765708273
  0
ARC
  5
A109
  8
0
 10
53.64133191370598
 20
238.7525415117471
 30
0.0
 40
5.326146654840227
 50
166.270054507626
 51
215.0482339935348
  0
ARC
  5
A10A
  8
0
 10
53.62940012956011
 20
238.7439102500399
 30
0.0
 40
5.311421839969246
 50
215.0459241187442
 51
273.2408824576858
  0
ARC
  5
A10B
  8
0
 10
53.63143619020713
 20
238.7515092709036
 30
0.0
 40
5.318894171081752
 50
273.2143571100679
 51
346.1779060677009
  0
ARC
  5
A10C
  8
0
 10
53.64154207740796
 20
238.7440280754363
 30
0.0
 40
5.307295827239366
 50
346.2302669880835
 51
43.7848887185153
  0
ARC
  5
A10D
  8
0
 10
55.70429788432028
 20
238.3225635248301
 30
0.0
 40
4.459640505811445
 50
66.63259795322786
 51
109.905871685035
  0
ARC
  5
A10E
  8
0
 10
55.48614554150353
 20
238.8427953699285
 30
0.0
 40
3.896315762598357
 50
109.4942419685547
 51
167.6530237580676
  0
ARC
  5
A10F
  8
0
 10
54.74744579647222
 20
237.3224464718585
 30
0.0
 40
3.866330758866939
 50
121.49327701854
 51
142.5031668973392
  0
ARC
  5
A110
  8
0
 10
54.69575980310071
 20
237.3858976960741
 30
0.0
 40
3.78524088928143
 50
91.77940320266853
 51
121.3278955587065
  0
ARC
  5
A111
  8
0
 10
54.68348645526393
 20
237.2682324562795
 30
0.0
 40
3.90250076108918
 50
65.20023754136542
 51
91.54565188015125
  0
ARC
  5
A112
  8
0
 10
54.5097554146399
 20
236.9088437867061
 30
0.0
 40
4.301623157105358
 50
30.14973546883468
 51
65.10747394303505
  0
ARC
  5
A113
  8
0
 10
54.29351862566185
 20
236.7694650552811
 30
0.0
 40
4.558626665475829
 50
8.9769926527231
 51
30.2994981683211
  0
ARC
  5
A114
  8
0
 10
55.40717092376019
 20
240.2893023130492
 30
0.0
 40
4.401593171265135
 50
288.3388974970104
 51
320.3520397443187
  0
ARC
  5
A115
  8
0
 10
55.35629633250599
 20
240.3478116724687
 30
0.0
 40
4.473237795108389
 50
252.8403059470313
 51
288.7216405446108
  0
ARC
  5
A116
  8
0
 10
55.2080589115256
 20
239.919266497309
 30
0.0
 40
4.020062191481092
 50
209.1938724537273
 51
253.0569803949627
  0
ARC
  5
A117
  8
0
 10
55.02000816794106
 20
239.7659969626084
 30
0.0
 40
3.781373116886767
 50
175.5970978715927
 51
208.5563260925432
  0
ARC
  5
A118
  8
0
 10
55.24427287128492
 20
239.7234473098546
 30
0.0
 40
4.008321764107
 50
141.0080554268091
 51
175.2367758980932
  0
ARC
  5
A119
  8
0
 10
55.58905229317253
 20
239.4514742873619
 30
0.0
 40
4.447428119007347
 50
96.68547469604
 51
141.0795845301956
  0
ARC
  5
A11A
  8
0
 10
55.38954236543685
 20
238.9015761025598
 30
0.0
 40
3.790160167539093
 50
178.4707117364453
 51
186.1865889351898
  0
ARC
  5
A11B
  8
0
 10
42.35595743419009
 20
231.6312915858094
 30
0.0
 40
2.102527922038834
 50
84.9561999668056
 51
90.22314612645847
  0
ARC
  5
A11C
  8
0
 10
42.48802372906371
 20
232.8785659172553
 30
0.0
 40
0.848754935304436
 50
65.19337763183492
 51
86.43460068621052
  0
ARC
  5
A11D
  8
0
 10
42.6472474800596
 20
233.2638857645841
 30
0.0
 40
0.432524910680116
 50
13.9863879207907
 51
62.92338893732329
  0
ARC
  5
A11E
  8
0
 10
41.97679210851965
 20
233.0598790651563
 30
0.0
 40
1.132979464242894
 50
3.904131892889081
 51
15.80295944671843
  0
ARC
  5
A11F
  8
0
 10
39.91717572266302
 20
232.8893727714804
 30
0.0
 40
3.199565044350259
 50
359.4532997353156
 51
4.439158366316591
  0
ARC
  5
A120
  8
0
 10
42.09848132486903
 20
228.3160090455579
 30
0.0
 40
1.961880406277173
 50
269.5826669607686
 51
281.2467372863051
  0
ARC
  5
A121
  8
0
 10
42.32568579859668
 20
227.2422175562501
 30
0.0
 40
0.8645009778283242
 50
280.3576091429006
 51
308.9726038906425
  0
ARC
  5
A122
  8
0
 10
42.39730952214273
 20
227.0954572643712
 30
0.0
 40
0.7063050293075379
 50
311.9446536813444
 51
353.5803040312001
  0
ARC
  5
A123
  8
0
 10
41.45875165978424
 20
227.2566854932268
 30
0.0
 40
1.657926458748007
 50
351.6696629683137
 51
0.5733241568768106
  0
ARC
  5
A124
  8
0
 10
46.74033401452641
 20
232.2628643839869
 30
0.0
 40
5.95119938757511
 50
257.5813101393111
 51
263.1368024967187
  0
ARC
  5
A125
  8
0
 10
45.75063144462851
 20
227.8189369774905
 30
0.0
 40
1.398452974297173
 50
235.2289453505774
 51
258.0263291625699
  0
ARC
  5
A126
  8
0
 10
45.40572338769655
 20
227.2440389475362
 30
0.0
 40
0.7308682337771808
 50
181.3642075179843
 51
231.7348554842791
  0
ARC
  5
A127
  8
0
 10
45.95041944077497
 20
227.3199820995356
 30
0.0
 40
1.278768468710234
 50
179.9604411616191
 51
184.1860155147163
  0
ARC
  5
A128
  8
0
 10
33.22875335713434
 20
228.4535460672389
 30
0.0
 40
11.44415409390602
 50
0.848935483152986
 51
1.690006264274332
  0
ARC
  5
A129
  8
0
 10
44.70342547741788
 20
228.79377805483
 30
0.0
 40
0.0356002396173115
 50
132.0995794755948
 51
184.3854082312399
  0
ARC
  5
A12A
  8
0
 10
44.7117376596058
 20
228.7534279760094
 30
0.0
 40
0.0741150757083008
 50
81.69918243476886
 51
115.7331729843349
  0
ARC
  5
A12B
  8
0
 10
44.91831029065858
 20
229.5834045350824
 30
0.0
 40
0.2727989215437704
 50
229.3422064805662
 51
273.4045849244121
  0
ARC
  5
A12C
  8
0
 10
44.94464848448206
 20
229.5524872076498
 30
0.0
 40
0.2695085644996453
 50
184.8442539947764
 51
220.7801867736532
  0
ARC
  5
A12D
  8
0
 10
45.23608322764136
 20
229.6005032023984
 30
0.0
 40
0.5644354903320787
 50
179.7970894737595
 51
187.2033550483905
  0
ARC
  5
A12E
  8
0
 10
45.24423008002901
 20
234.4519843033126
 30
0.0
 40
5.625234236528772
 50
270.1389228840429
 51
282.574963880413
  0
ARC
  5
A12F
  8
0
 10
45.70357304034977
 20
232.7862971754468
 30
0.0
 40
3.900438044695806
 50
281.31631568977
 51
306.6736079669237
  0
ARC
  5
A130
  8
0
 10
46.0675371166181
 20
232.0841901585269
 30
0.0
 40
3.122533740917625
 50
309.0122993056875
 51
333.1868714432045
  0
ARC
  5
A131
  8
0
 10
46.78214621315982
 20
231.6418418307345
 30
0.0
 40
2.286370135056757
 50
335.0025208531055
 51
3.132350940942409
  0
ARC
  5
A132
  8
0
 10
46.67398901651711
 20
231.5563008115277
 30
0.0
 40
2.400356917899017
 50
5.030415615660186
 51
45.88015556804394
  0
ARC
  5
A133
  8
0
 10
46.02389455579998
 20
230.6135390683405
 30
0.0
 40
3.534812041936091
 50
48.95520224166617
 51
77.68716474380041
  0
ARC
  5
A134
  8
0
 10
45.7460831555791
 20
229.4284137093697
 30
0.0
 40
4.751956788280896
 50
77.46176455392263
 51
90.50756358638267
  0
ARC
  5
A135
  8
0
 10
44.86914345818198
 20
233.5626312490758
 30
0.0
 40
0.1328574047888303
 50
89.08094236461791
 51
124.4007292599872
  0
ARC
  5
A136
  8
0
 10
44.92148369101278
 20
233.5016331529731
 30
0.0
 40
0.2129371461418388
 50
126.7487054586267
 51
162.0338218173676
  0
ARC
  5
A137
  8
0
 10
45.42921822193571
 20
233.3135129223747
 30
0.0
 40
0.7542713589800576
 50
160.3370642577249
 51
177.7002884087945
  0
ARC
  5
A138
  8
0
 10
46.36590144124082
 20
233.2287475251347
 30
0.0
 40
1.69425665145904
 50
176.1068976128699
 51
180.1585523306186
  0
ARC
  5
A139
  8
0
 10
45.37356275037325
 20
231.5295065414831
 30
0.0
 40
2.219308321722258
 50
271.6216628224748
 51
290.5180238120254
  0
ARC
  5
A13A
  8
0
 10
45.55354670475757
 20
230.9596612080406
 30
0.0
 40
1.622827402472289
 50
291.6184361004764
 51
329.2928533987833
  0
ARC
  5
A13B
  8
0
 10
44.62443842257298
 20
231.4713051516753
 30
0.0
 40
2.683157532333741
 50
330.0305147082963
 51
359.7069691972517
  0
ARC
  5
A13C
  8
0
 10
44.49651675808994
 20
231.5819300132497
 30
0.0
 40
2.813793035039953
 50
357.4671544818835
 51
18.09389103936943
  0
ARC
  5
A13D
  8
0
 10
45.34875832821626
 20
231.8783594084227
 30
0.0
 40
1.911708557628758
 50
17.58181129013311
 51
44.10613559949745
  0
ARC
  5
A13E
  8
0
 10
45.60837962687503
 20
232.0888258185489
 30
0.0
 40
1.579081423259486
 50
45.17904980442386
 51
71.36379322642686
  0
ARC
  5
A13F
  8
0
 10
45.43169608899953
 20
231.5424113947972
 30
0.0
 40
2.153318191790253
 50
71.55515292962627
 51
90.8869891698155
  0
ARC
  5
A140
  8
0
 10
48.45918952960565
 20
228.6333898033733
 30
0.0
 40
0.9504697930117868
 50
45.647846390803
 51
90.95907175324457
  0
ARC
  5
A141
  8
0
 10
48.19057423128973
 20
228.4027653640589
 30
0.0
 40
1.303524477208397
 50
356.2866180422669
 51
44.29157541670799
  0
ARC
  5
A142
  8
0
 10
47.74044742681963
 20
228.23443199563
 30
0.0
 40
1.752924040513615
 50
332.8282653512688
 51
2.743720271344923
  0
ARC
  5
A143
  8
0
 10
48.43247162729938
 20
227.9488196814348
 30
0.0
 40
1.008745565207887
 50
281.1029522262601
 51
329.3086861457625
  0
ARC
  5
A144
  8
0
 10
48.44503473972435
 20
228.0211003797026
 30
0.0
 40
1.077573765673208
 50
254.3735857114849
 51
279.7072195183892
  0
ARC
  5
A145
  8
0
 10
48.45865623713581
 20
227.9612224128058
 30
0.0
 40
1.023995873514749
 50
198.078198350464
 51
252.7369026576832
  0
ARC
  5
A146
  8
0
 10
49.50470998084262
 20
228.2675040480057
 30
0.0
 40
2.113718303506307
 50
164.6942276189749
 51
197.1716014617761
  0
ARC
  5
A147
  8
0
 10
48.50065069068077
 20
228.5323245518997
 30
0.0
 40
1.07541041250608
 50
123.3084104466144
 51
164.1819940011187
  0
ARC
  5
A148
  8
0
 10
48.42975451827684
 20
228.6234841131545
 30
0.0
 40
0.9603375863241239
 50
89.19299068101529
 51
122.7601092117214
  0
ARC
  5
A149
  8
0
 10
48.74599718647406
 20
228.2713850432316
 30
0.0
 40
2.529168051565525
 50
164.9665044400625
 51
190.6145490228779
  0
ARC
  5
A14A
  8
0
 10
48.3794325311286
 20
228.0952012251071
 30
0.0
 40
2.13903317801624
 50
187.7835408718213
 51
220.8538282758054
  0
ARC
  5
A14B
  8
0
 10
48.36290865327192
 20
228.2577244691344
 30
0.0
 40
2.23684800464541
 50
224.28151327257
 51
262.3352180838961
  0
ARC
  5
A14C
  8
0
 10
48.44410295745791
 20
228.4258886810153
 30
0.0
 40
2.415036709056927
 50
260.9581187463501
 51
295.9617934482598
  0
ARC
  5
A14D
  8
0
 10
48.46881443093605
 20
228.192376931416
 30
0.0
 40
2.195729658493223
 50
298.0499757225375
 51
338.9010076102918
  0
ARC
  5
A14E
  8
0
 10
48.07925792781026
 20
228.2778126901284
 30
0.0
 40
2.590632549888452
 50
340.2397223934027
 51
12.59603457387198
  0
ARC
  5
A14F
  8
0
 10
48.55389651119873
 20
228.3963517132518
 30
0.0
 40
2.101602444292964
 50
12.26400142418717
 51
42.00204460107005
  0
ARC
  5
A150
  8
0
 10
48.55340540655578
 20
228.4238375616426
 30
0.0
 40
2.083678402800012
 50
41.43135548057312
 51
84.31090183999093
  0
ARC
  5
A151
  8
0
 10
54.44238830636209
 20
228.9527741918458
 30
0.0
 40
0.7218683279506627
 50
130.1010359850325
 51
152.8765297157256
  0
ARC
  5
A152
  8
0
 10
54.38442435428135
 20
228.9390583569298
 30
0.0
 40
0.6970539232955045
 50
93.62160758700021
 51
125.7261982466873
  0
ARC
  5
A153
  8
0
 10
54.49550482082111
 20
227.9945823953067
 30
0.0
 40
1.647456117640462
 50
86.14425926686532
 51
95.40251107253543
  0
ARC
  5
A154
  8
0
 10
54.54423721877026
 20
228.1663771291085
 30
0.0
 40
1.473239699002557
 50
75.78444603343868
 51
87.58609443775887
  0
ARC
  5
A155
  8
0
 10
54.80892063113762
 20
229.1636071290444
 30
0.0
 40
0.4417023764257507
 50
38.65642909797035
 51
77.30076056538167
  0
ARC
  5
A156
  8
0
 10
54.63722881674161
 20
229.0930992332357
 30
0.0
 40
0.622013293909289
 50
359.8735965182385
 51
33.84363804094146
  0
ARC
  5
A157
  8
0
 10
51.67911811270653
 20
228.9728330821083
 30
0.0
 40
3.582096140528945
 50
359.0859929973961
 51
1.902062204167362
  0
ARC
  5
A158
  8
0
 10
54.32177715937542
 20
231.2426157676463
 30
0.0
 40
2.509234634269819
 50
284.9657500733399
 51
291.97550982172
  0
ARC
  5
A159
  8
0
 10
52.64245385887486
 20
237.3904532813395
 30
0.0
 40
8.882278806531481
 50
280.2043110183695
 51
285.1898042810342
  0
ARC
  5
A15A
  8
0
 10
55.10755945142216
 20
223.4910566914875
 30
0.0
 40
5.234101951295329
 50
99.80708673503382
 51
108.902900218375
  0
ARC
  5
A15B
  8
0
 10
53.80234854898924
 20
227.2414531762049
 30
0.0
 40
1.263280702218469
 50
108.0038789458555
 51
139.5346921255566
  0
ARC
  5
A15C
  8
0
 10
53.74244764032571
 20
227.3252899658862
 30
0.0
 40
1.163565746446632
 50
140.7612947780745
 51
168.9659435881561
  0
ARC
  5
A15D
  8
0
 10
53.97681523829021
 20
227.2835890272374
 30
0.0
 40
1.401587473098195
 50
169.1264415873884
 51
196.8129880402175
  0
ARC
  5
A15E
  8
0
 10
53.77683507748739
 20
227.2500699637894
 30
0.0
 40
1.200736629503124
 50
198.0421705376476
 51
235.7348582477595
  0
ARC
  5
A15F
  8
0
 10
53.93369472243609
 20
227.5481161823228
 30
0.0
 40
1.535844315416191
 50
237.1590292494224
 51
270.7198132743666
  0
ARC
  5
A160
  8
0
 10
54.01363110535343
 20
227.822128467859
 30
0.0
 40
1.810751131158588
 50
268.0808101764746
 51
292.8635926074776
  0
ARC
  5
A161
  8
0
 10
53.88282183575754
 20
228.049134587506
 30
0.0
 40
2.070998767971581
 50
293.7580989581123
 51
314.7899657835182
  0
ARC
  5
A162
  8
0
 10
58.86200473000099
 20
227.217577540596
 30
0.0
 40
2.499173832420186
 50
192.2727471956715
 51
206.3510707099188
  0
ARC
  5
A163
  8
0
 10
60.8276307107858
 20
227.3923966437254
 30
0.0
 40
4.463878389973498
 50
178.3054146575074
 51
189.1007693226514
  0
ARC
  5
A164
  8
0
 10
-122.3404779120985
 20
230.4452612961593
 30
0.0
 40
178.7300508439498
 50
359.0636135939208
 51
359.5331222948618
  0
ARC
  5
A165
  8
0
 10
53.30452549634913
 20
228.9884434523263
 30
0.0
 40
3.07911375910394
 50
0.0082366020401114
 51
13.70501902078777
  0
ARC
  5
A166
  8
0
 10
55.44388379996934
 20
229.4575745906736
 30
0.0
 40
0.8909843556742496
 50
16.99219239725965
 51
58.1546877716457
  0
ARC
  5
A167
  8
0
 10
54.97608523618618
 20
228.7980056528743
 30
0.0
 40
1.698813368729804
 50
56.4891308086457
 51
88.52476597508146
  0
ARC
  5
A168
  8
0
 10
54.61316639129569
 20
226.2210067198117
 30
0.0
 40
4.294545824498953
 50
84.56646884241289
 51
99.63736677787178
  0
ARC
  5
A169
  8
0
 10
54.13967752931254
 20
229.0003052084419
 30
0.0
 40
1.475204576717583
 50
99.5783577095598
 51
133.4108128523492
  0
ARC
  5
A16A
  8
0
 10
54.39336012037586
 20
228.8599364991064
 30
0.0
 40
1.753711970549818
 50
136.2812462218209
 51
166.0780026216429
  0
ARC
  5
A16B
  8
0
 10
53.27121216602632
 20
234.6295082245094
 30
0.0
 40
6.758384124597473
 50
280.6962555586756
 51
287.1203411217375
  0
ARC
  5
A16C
  8
0
 10
55.23844411769096
 20
224.5367783272538
 30
0.0
 40
3.524614443440088
 50
101.6686696910119
 51
109.1101391117779
  0
ARC
  5
A16D
  8
0
 10
54.24780114577194
 20
227.3431193377531
 30
0.0
 40
0.5488788980844314
 50
107.304431562489
 51
142.6785974978685
  0
ARC
  5
A16E
  8
0
 10
54.16061746956558
 20
227.4055113962516
 30
0.0
 40
0.4417308257590526
 50
142.2581992011812
 51
180.7216068092584
  0
ARC
  5
A16F
  8
0
 10
54.26475672049062
 20
227.3946924141666
 30
0.0
 40
0.5458603467606972
 50
179.4483220443287
 51
220.6412737198986
  0
ARC
  5
A170
  8
0
 10
54.31853279352947
 20
227.4229332771467
 30
0.0
 40
0.6052123636331186
 50
219.3540008203597
 51
262.0493699394853
  0
ARC
  5
A171
  8
0
 10
54.35795008110861
 20
227.7219536823131
 30
0.0
 40
0.9068136346841665
 50
262.1960849641753
 51
288.4736708280116
  0
ARC
  5
A172
  8
0
 10
54.31018420135035
 20
227.8652828483716
 30
0.0
 40
1.057892482791887
 50
288.4676009339727
 51
313.9760865401699
  0
ARC
  5
A173
  8
0
 10
54.56843688096325
 20
227.5823955887978
 30
0.0
 40
0.6750814753682137
 50
314.8739683616077
 51
353.3371743964237
  0
ARC
  5
A174
  8
0
 10
51.80432293624369
 20
227.894679274563
 30
0.0
 40
3.456776160850171
 50
353.5117984853132
 51
0.8226475095749395
  0
ARC
  5
A175
  8
0
 10
62.41484515251656
 20
228.573106359788
 30
0.0
 40
7.34861436909221
 50
195.7421928264704
 51
199.597791318071
  0
ARC
  5
A176
  8
0
 10
75.18631218033342
 20
227.4760683616157
 30
0.0
 40
17.00768455573995
 50
177.5431527159519
 51
180.1224681839423
  0
ARC
  5
A177
  8
0
 10
62.17308935800025
 20
228.0814625928773
 30
0.0
 40
3.98074969577439
 50
168.3575610519279
 51
178.2196605600729
  0
ARC
  5
A178
  8
0
 10
59.26394801097692
 20
228.6605532245776
 30
0.0
 40
1.014793522696064
 50
138.3863021467757
 51
167.2340218536034
  0
ARC
  5
A179
  8
0
 10
58.90834637183792
 20
228.8937726270768
 30
0.0
 40
0.5972547683434593
 50
96.77586538956693
 51
132.447773558299
  0
ARC
  5
A17A
  8
0
 10
58.9391397153743
 20
228.7418728379632
 30
0.0
 40
0.7518332906437697
 50
71.72267914678095
 51
97.74042030460403
  0
ARC
  5
A17B
  8
0
 10
58.76568800754009
 20
228.23007376882
 30
0.0
 40
1.29221607752043
 50
56.46328333653608
 51
71.5367949068481
  0
ARC
  5
A17C
  8
0
 10
60.69935289574352
 20
228.2080459904746
 30
0.0
 40
3.058724754046294
 50
139.5470247594357
 51
148.3665835328131
  0
ARC
  5
A17D
  8
0
 10
59.04756343606124
 20
229.6400111712677
 30
0.0
 40
0.8729050829687197
 50
109.5979517564685
 51
140.7231812093455
  0
ARC
  5
A17E
  8
0
 10
59.07795105936697
 20
229.5124978534171
 30
0.0
 40
1.003323721815536
 50
86.36469047660621
 51
108.7902753767986
  0
ARC
  5
A17F
  8
0
 10
59.07698552933522
 20
229.1373196686004
 30
0.0
 40
1.377997254265745
 50
78.8464369797154
 51
87.3137665652716
  0
ARC
  5
A180
  8
0
 10
59.06326719858248
 20
229.0675902966629
 30
0.0
 40
1.449063259500479
 50
73.30291166206497
 51
78.8475905402678
  0
ARC
  5
A181
  8
0
 10
63.66424728098923
 20
228.9259290254956
 30
0.0
 40
1.673766598535952
 50
15.45353000298215
 51
35.65921843237705
  0
ARC
  5
A182
  8
0
 10
63.9493665455289
 20
229.1156368109455
 30
0.0
 40
1.331569712949468
 50
36.17886961743995
 51
65.18032133965824
  0
ARC
  5
A183
  8
0
 10
63.56608375979579
 20
228.0470289289252
 30
0.0
 40
2.464419661937123
 50
67.52176510600236
 51
89.95176516883794
  0
ARC
  5
A184
  8
0
 10
63.38651319318046
 20
226.7855063529716
 30
0.0
 40
3.730366476747655
 50
87.208954205559
 51
101.0994306540248
  0
ARC
  5
A185
  8
0
 10
62.94850651561237
 20
228.984557939537
 30
0.0
 40
1.488141506149253
 50
100.8503522773502
 51
133.1120733601343
  0
ARC
  5
A186
  8
0
 10
62.76145707744769
 20
229.1943322971339
 30
0.0
 40
1.207186880999289
 50
133.4355814373259
 51
160.5403057677102
  0
ARC
  5
A187
  8
0
 10
62.85913337287178
 20
229.187154383637
 30
0.0
 40
1.30192991328094
 50
161.6745785399147
 51
192.4880693726293
  0
ARC
  5
A188
  8
0
 10
62.62543913118898
 20
229.1332187024077
 30
0.0
 40
1.06210390647494
 50
192.3733574320922
 51
226.4953370670955
  0
ARC
  5
A189
  8
0
 10
62.7867683025471
 20
229.2884852539058
 30
0.0
 40
1.285822665205259
 50
226.0440591685035
 51
249.5155775654861
  0
ARC
  5
A18A
  8
0
 10
64.73357905773736
 20
234.1892413850995
 30
0.0
 40
6.558883186265355
 50
248.5661847695237
 51
256.3648823317473
  0
ARC
  5
A18B
  8
0
 10
73.48599801232089
 20
269.2980471187921
 30
0.0
 40
42.74209767946007
 50
256.0575388595495
 51
257.0500330678841
  0
ARC
  5
A18C
  8
0
 10
63.76554476188187
 20
226.9182277661771
 30
0.0
 40
0.738586693301286
 50
53.94494987543574
 51
78.91973275289719
  0
ARC
  5
A18D
  8
0
 10
63.97533764177857
 20
227.3050376236708
 30
0.0
 40
0.3079156393342173
 50
351.7054337157878
 51
43.07738885190844
  0
ARC
  5
A18E
  8
0
 10
63.9230150829616
 20
227.2876893721784
 30
0.0
 40
0.3580422081846633
 50
305.5545895016557
 51
355.6635972446031
  0
ARC
  5
A18F
  8
0
 10
63.60152364599219
 20
227.8083967773086
 30
0.0
 40
0.9694871848616392
 50
270.6346537603574
 51
303.1173831021159
  0
ARC
  5
A190
  8
0
 10
63.47389066174813
 20
228.3682990955788
 30
0.0
 40
1.535577099296554
 50
255.0528385911238
 51
275.1699625266891
  0
ARC
  5
A191
  8
0
 10
63.27465533834277
 20
227.5786349993567
 30
0.0
 40
0.72133028502093
 50
220.3482025964636
 51
254.1645624218344
  0
ARC
  5
A192
  8
0
 10
63.35127921402284
 20
227.6306643211665
 30
0.0
 40
0.8134735047535518
 50
201.7856653156537
 51
219.6469566048348
  0
ARC
  5
A193
  8
0
 10
63.02558367137107
 20
227.7411056480733
 30
0.0
 40
1.679722551042641
 50
194.210622631723
 51
218.9435761559331
  0
ARC
  5
A194
  8
0
 10
63.03591206439529
 20
227.778385558372
 30
0.0
 40
1.711336039747307
 50
219.6970036238812
 51
248.5406571485441
  0
ARC
  5
A195
  8
0
 10
63.33653074007512
 20
228.6338675702914
 30
0.0
 40
2.617702860846573
 50
249.2671616286075
 51
267.747025064058
  0
ARC
  5
A196
  8
0
 10
63.46981174030481
 20
229.1618193139805
 30
0.0
 40
3.152491240768179
 50
265.7033250605309
 51
289.3905439589275
  0
ARC
  5
A197
  8
0
 10
63.94426730960436
 20
227.6043288174486
 30
0.0
 40
1.527408099999837
 50
292.0004687572242
 51
331.724337857628
  0
ARC
  5
A198
  8
0
 10
64.13360255601569
 20
227.4613671332501
 30
0.0
 40
1.293448633509429
 50
333.3286501185845
 51
10.01278361973784
  0
ARC
  5
A199
  8
0
 10
64.43045511397327
 20
227.5489748013493
 30
0.0
 40
0.9864943557164728
 50
7.999299177210288
 51
56.09544702440662
  0
ARC
  5
A19A
  8
0
 10
63.41324836749425
 20
225.8490017264377
 30
0.0
 40
2.966650730685512
 50
58.10472620690868
 51
77.57165611660318
  0
ARC
  5
A19B
  8
0
 10
69.64394504282001
 20
253.1738900604628
 30
0.0
 40
25.05969444260865
 50
254.9920383624129
 51
257.1055378385227
  0
ARC
  5
A19C
  8
0
 10
63.57116716342526
 20
230.7082813006276
 30
0.0
 40
1.788471967299355
 50
241.9968666432906
 51
256.5329008491028
  0
ARC
  5
A19D
  8
0
 10
62.87463969629846
 20
229.3425009492482
 30
0.0
 40
0.2569089219111538
 50
181.4229295114256
 51
236.1252737546306
  0
ARC
  5
A19E
  8
0
 10
62.88986033395869
 20
229.3369945631815
 30
0.0
 40
0.272051738584831
 50
114.9382961617164
 51
180.1839102890763
  0
ARC
  5
A19F
  8
0
 10
63.2918476123609
 20
228.427890278768
 30
0.0
 40
1.266027764923893
 50
87.40586972974698
 51
114.0870118917362
  0
ARC
  5
A1A0
  8
0
 10
63.39235586872047
 20
228.1086705094522
 30
0.0
 40
1.584539315298479
 50
81.26152734193053
 51
91.56252783870202
  0
ARC
  5
A1A1
  8
0
 10
63.52585264114893
 20
228.9144575516881
 30
0.0
 40
0.767883455285971
 50
58.63150134670395
 51
81.97250411125933
  0
ARC
  5
A1A2
  8
0
 10
63.58578561950713
 20
229.0491470306937
 30
0.0
 40
0.6219714409278794
 50
31.26144626097709
 51
56.88664282448937
  0
ARC
  5
A1A3
  8
0
 10
59.23256996357841
 20
225.2464568468678
 30
0.0
 40
0.1450093835969383
 50
152.3324835633369
 51
201.6883497501618
  0
ARC
  5
A1A4
  8
0
 10
59.28284993014151
 20
225.2134726245625
 30
0.0
 40
0.2049400430791757
 50
94.26849177823954
 51
150.6923636878295
  0
ARC
  5
A1A5
  8
0
 10
59.29528997282745
 20
225.1758627207905
 30
0.0
 40
0.2435610534233947
 50
65.67526895000753
 51
96.52886377924538
  0
ARC
  5
A1A6
  8
0
 10
59.32619666219085
 20
225.2323597040562
 30
0.0
 40
0.1794155440342952
 50
15.00501194484098
 51
67.2375225199484
  0
ARC
  5
A1A7
  8
0
 10
59.35879971028919
 20
225.2462048785769
 30
0.0
 40
0.1444238304842776
 50
334.5475718261175
 51
13.04798857661176
  0
ARC
  5
A1A8
  8
0
 10
59.31704976757641
 20
225.2690762156774
 30
0.0
 40
0.1919699607925253
 50
283.3392084596539
 51
333.7390166514077
  0
ARC
  5
A1A9
  8
0
 10
59.29549833912475
 20
225.3182171810577
 30
0.0
 40
0.2449468824808138
 50
249.2475068279205
 51
285.5929160340207
  0
ARC
  5
A1AA
  8
0
 10
59.27216905525685
 20
225.2681442914263
 30
0.0
 40
0.1899001165681578
 50
203.3534454850997
 51
250.4765665943434
  0
ARC
  5
A1AB
  8
0
 10
59.23345617450283
 20
225.2463951657438
 30
0.0
 40
0.220563220518459
 50
149.5924277991477
 51
208.5026443066654
  0
ARC
  5
A1AC
  8
0
 10
59.28313473185261
 20
225.211401374562
 30
0.0
 40
0.2811654578303905
 50
99.15226556107046
 51
148.5662219609088
  0
ARC
  5
A1AD
  8
0
 10
59.2952505223746
 20
225.1742862753457
 30
0.0
 40
0.3197925578412533
 50
69.2643536209876
 51
100.2377265552896
  0
ARC
  5
A1AE
  8
0
 10
59.31447537002515
 20
225.2179488125969
 30
0.0
 40
0.2721632922277281
 50
34.33047436698349
 51
69.79498100629444
  0
ARC
  5
A1AF
  8
0
 10
59.35674565702001
 20
225.246516006714
 30
0.0
 40
0.2211457863352724
 50
330.8904082426659
 51
34.39478799471744
  0
ARC
  5
A1B0
  8
0
 10
59.31254421196311
 20
225.2747322841811
 30
0.0
 40
0.2735090128067355
 50
281.5278040705497
 51
330.2307053142199
  0
ARC
  5
A1B1
  8
0
 10
59.29551632932066
 20
225.3182220987069
 30
0.0
 40
0.3196244185618837
 50
249.2057013607624
 51
282.960819197814
  0
ARC
  5
A1B2
  8
0
 10
59.27496521886661
 20
225.2723127102894
 30
0.0
 40
0.2694253491506349
 50
209.1338557825221
 51
249.8253936421853
  0
LINE
  5
A240
  8
D002
 10
77.3234742502047
 20
202.7911378947829
 30
0.0
 11
77.3234742502047
 21
203.3375845041897
 31
0.0
1001
GENIUS_GENODEF_13
1002
{
1000
HIER
1070
     0
1002
}
1002
{
1000
MANEDIT
1070
     0
1002
}
1002
{
1000
NOSEL
1070
     0
1002
}
1002
{
1000
BEHIND
1070
     0
1002
}
1002
{
1000
OTHER
1070
     0
1002
}
1002
{
1000
REACTOR
1002
}
1001
GENIUS_GENOBJ-N-CEN_13
1002
{
1000
OWNER
1000
GEN
1002
}
1001
GENIUS_GENCEN_19
1002
{
1040
3.0
1002
}
  0
LINE
  5
A241
  8
D002
 10
77.62347425020488
 20
202.7911378947829
 30
0.0
 11
77.62347425020488
 21
203.3375845041897
 31
0.0
1001
GENIUS_GENODEF_13
1002
{
1000
HIER
1070
     0
1002
}
1002
{
1000
MANEDIT
1070
     0
1002
}
1002
{
1000
NOSEL
1070
     0
1002
}
1002
{
1000
BEHIND
1070
     0
1002
}
1002
{
1000
OTHER
1070
     0
1002
}
1002
{
1000
REACTOR
1002
}
1001
GENIUS_GENOBJ-N-CEN_13
1002
{
1000
OWNER
1000
GEN
1002
}
1001
GENIUS_GENCEN_19
1002
{
1040
3.0
1002
}
  0
LINE
  5
A242
  8
D002
 10
77.62347425020488
 20
206.891137894783
 30
0.0
 11
78.26930105515174
 21
207.53696469973
 31
0.0
  0
LINE
  5
A243
  8
D002
 10
77.62347425020488
 20
207.391137894783
 30
0.0
 11
78.01930105515174
 21
207.78696469973
 31
0.0
  0
ARC
  5
A244
  8
D002
 10
77.47347425020479
 20
208.991137894783
 30
0.0
 40
0.1499999999999773
 50
0.0
 51
180.0
  0
ARC
  5
A245
  8
D002
 10
78.14430105515174
 20
207.66196469973
 30
0.0
 40
0.1767766952966168
 50
315.0000000000293
 51
135.0000000000033
  0
LINE
  5
A246
  8
D002
 10
77.3234742502047
 20
206.891137894783
 30
0.0
 11
76.67764744525783
 21
207.53696469973
 31
0.0
  0
LINE
  5
A247
  8
D002
 10
77.3234742502047
 20
207.391137894783
 30
0.0
 11
76.92764744525783
 21
207.78696469973
 31
0.0
  0
ARC
  5
A248
  8
D002
 10
76.80264744525783
 20
207.66196469973
 30
0.0
 40
0.1767766952966168
 50
44.99999999999675
 51
224.9999999999707
  0
LINE
  5
A249
  8
D002
 10
77.62347425020488
 20
208.091137894783
 30
0.0
 11
78.02226014742627
 21
208.4899237920044
 31
0.0
  0
LINE
  5
A24A
  8
D002
 10
77.62347425020488
 20
208.4446912853762
 30
0.0
 11
77.8454834521296
 21
208.6667004873009
 31
0.0
  0
ARC
  5
A24B
  8
D002
 10
77.9338717997777
 20
208.5783121396528
 30
0.0
 40
0.1249999999999206
 50
314.999999999894
 51
134.9999999999309
  0
LINE
  5
A24C
  8
D002
 10
79.30373013853063
 20
204.6612340842154
 30
0.0
 11
79.4496959075845
 21
204.11648241794
 31
0.0
  0
LINE
  5
A24D
  8
D002
 10
79.6099163563785
 20
204.4844573889187
 30
0.0
 11
79.69117736415677
 21
204.1811871792158
 31
0.0
  0
ARC
  5
A24E
  8
D002
 10
80.03083418544378
 20
204.9462667461185
 30
0.0
 40
0.1249999999999206
 50
285.0000000000046
 51
105.0000000000046
  0
LINE
  5
A24F
  8
D002
 10
77.62347425020488
 20
204.891137894783
 30
0.0
 11
77.62347425020488
 21
205.2836210593937
 31
0.0
1001
GENIUS_GENODEF_13
1002
{
1000
HIER
1070
     0
1002
}
1002
{
1000
MANEDIT
1070
     0
1002
}
1002
{
1000
NOSEL
1070
     0
1002
}
1002
{
1000
BEHIND
1070
     0
1002
}
1002
{
1000
OTHER
1070
     0
1002
}
1002
{
1000
REACTOR
1002
}
1001
GENIUS_GENOBJ-N-CEN_13
1002
{
1000
OWNER
1000
GEN
1002
}
1001
GENIUS_GENCEN_19
1002
{
1040
3.0
1002
}
  0
LINE
  5
A250
  8
D002
 10
79.75991635637837
 20
204.7442650100541
 30
0.0
 11
80.06318656608158
 21
204.8255260178325
 31
0.0
  0
ARC
  5
A251
  8
D002
 10
79.57043663587086
 20
204.1488347985778
 30
0.0
 40
0.1249999999999206
 50
194.9999999999509
 51
15.00000000000457
  0
LINE
  5
A252
  8
D002
 10
79.45373013853049
 20
204.9210417053507
 30
0.0
 11
79.99848180480598
 21
205.0670074744047
 31
0.0
  0
LINE
  5
A253
  8
D002
 10
77.62347425020488
 20
203.691137894783
 30
0.0
 11
77.62347425020488
 21
204.391137894783
 31
0.0
1001
GENIUS_GENODEF_13
1002
{
1000
HIER
1070
     0
1002
}
1002
{
1000
MANEDIT
1070
     0
1002
}
1002
{
1000
NOSEL
1070
     0
1002
}
1002
{
1000
BEHIND
1070
     0
1002
}
1002
{
1000
OTHER
1070
     0
1002
}
1002
{
1000
REACTOR
1002
}
1001
GENIUS_GENOBJ-N-CEN_13
1002
{
1000
OWNER
1000
GEN
1002
}
1001
GENIUS_GENCEN_19
1002
{
1040
3.0
1002
}
  0
LINE
  5
A254
  8
D002
 10
77.3234742502047
 20
203.691137894783
 30
0.0
 11
77.3234742502047
 21
204.391137894783
 31
0.0
1001
GENIUS_GENODEF_13
1002
{
1000
HIER
1070
     0
1002
}
1002
{
1000
MANEDIT
1070
     0
1002
}
1002
{
1000
NOSEL
1070
     0
1002
}
1002
{
1000
BEHIND
1070
     0
1002
}
1002
{
1000
OTHER
1070
     0
1002
}
1002
{
1000
REACTOR
1002
}
1001
GENIUS_GENOBJ-N-CEN_13
1002
{
1000
OWNER
1000
GEN
1002
}
1001
GENIUS_GENCEN_19
1002
{
1040
3.0
1002
}
  0
LINE
  5
A255
  8
D002
 10
77.3234742502047
 20
208.4446912853762
 30
0.0
 11
77.3234742502047
 21
208.991137894783
 31
0.0
1001
GENIUS_GENODEF_13
1002
{
1000
HIER
1070
     0
1002
}
1002
{
1000
MANEDIT
1070
     0
1002
}
1002
{
1000
NOSEL
1070
     0
1002
}
1002
{
1000
BEHIND
1070
     0
1002
}
1002
{
1000
OTHER
1070
     0
1002
}
1002
{
1000
REACTOR
1002
}
1001
GENIUS_GENOBJ-N-CEN_13
1002
{
1000
OWNER
1000
GEN
1002
}
1001
GENIUS_GENCEN_19
1002
{
1040
3.0
1002
}
  0
LINE
  5
A256
  8
D002
 10
77.62347425020488
 20
208.4446912853762
 30
0.0
 11
77.62347425020488
 21
208.991137894783
 31
0.0
1001
GENIUS_GENODEF_13
1002
{
1000
HIER
1070
     0
1002
}
1002
{
1000
MANEDIT
1070
     0
1002
}
1002
{
1000
NOSEL
1070
     0
1002
}
1002
{
1000
BEHIND
1070
     0
1002
}
1002
{
1000
OTHER
1070
     0
1002
}
1002
{
1000
REACTOR
1002
}
1001
GENIUS_GENOBJ-N-CEN_13
1002
{
1000
OWNER
1000
GEN
1002
}
1001
GENIUS_GENCEN_19
1002
{
1040
3.0
1002
}
  0
ARC
  5
A257
  8
D002
 10
77.01307670063187
 20
208.5783121396528
 30
0.0
 40
0.1249999999999206
 50
45.00000000006909
 51
224.9999999999585
  0
LINE
  5
A258
  8
D002
 10
77.3234742502047
 20
208.4446912853762
 30
0.0
 11
77.10146504827998
 21
208.6667004873009
 31
0.0
  0
LINE
  5
A259
  8
D002
 10
77.3234742502047
 20
208.091137894783
 30
0.0
 11
76.92468835298331
 21
208.4899237920044
 31
0.0
  0
LINE
  5
A25A
  8
D002
 10
77.62347425020488
 20
207.391137894783
 30
0.0
 11
77.62347425020488
 21
208.091137894783
 31
0.0
1001
GENIUS_GENODEF_13
1002
{
1000
HIER
1070
     0
1002
}
1002
{
1000
MANEDIT
1070
     0
1002
}
1002
{
1000
NOSEL
1070
     0
1002
}
1002
{
1000
BEHIND
1070
     0
1002
}
1002
{
1000
OTHER
1070
     0
1002
}
1002
{
1000
REACTOR
1002
}
1001
GENIUS_GENOBJ-N-CEN_13
1002
{
1000
OWNER
1000
GEN
1002
}
1001
GENIUS_GENCEN_19
1002
{
1040
3.0
1002
}
  0
LINE
  5
A25B
  8
D002
 10
77.3234742502047
 20
207.391137894783
 30
0.0
 11
77.3234742502047
 21
208.091137894783
 31
0.0
1001
GENIUS_GENODEF_13
1002
{
1000
HIER
1070
     0
1002
}
1002
{
1000
MANEDIT
1070
     0
1002
}
1002
{
1000
NOSEL
1070
     0
1002
}
1002
{
1000
BEHIND
1070
     0
1002
}
1002
{
1000
OTHER
1070
     0
1002
}
1002
{
1000
REACTOR
1002
}
1001
GENIUS_GENOBJ-N-CEN_13
1002
{
1000
OWNER
1000
GEN
1002
}
1001
GENIUS_GENCEN_19
1002
{
1040
3.0
1002
}
  0
LINE
  5
A25C
  8
D002
 10
77.62347425020488
 20
203.3375845041897
 30
0.0
 11
77.8454834521296
 21
203.1155753022649
 31
0.0
  0
LINE
  5
A25D
  8
D002
 10
77.3234742502047
 20
204.391137894783
 30
0.0
 11
76.92764744525783
 21
203.995311089836
 31
0.0
  0
ARC
  5
A25E
  8
D002
 10
77.47347425020479
 20
202.7911378947829
 30
0.0
 40
0.1499999999999773
 50
180.0
 51
0.0
  0
ARC
  5
A25F
  8
D002
 10
78.14430105515174
 20
204.120311089836
 30
0.0
 40
0.1767766952966168
 50
224.9999999999968
 51
44.99999999999675
  0
ARC
  5
A260
  8
D002
 10
76.80264744525783
 20
204.120311089836
 30
0.0
 40
0.1767766952966168
 50
135.0000000000033
 51
315.0000000000032
  0
LINE
  5
A261
  8
D002
 10
77.62347425020488
 20
204.391137894783
 30
0.0
 11
78.01930105515174
 21
203.995311089836
 31
0.0
  0
LINE
  5
A262
  8
D002
 10
77.3234742502047
 20
204.891137894783
 30
0.0
 11
76.67764744525783
 21
204.245311089836
 31
0.0
  0
ARC
  5
A263
  8
D002
 10
77.9338717997777
 20
203.2039636499132
 30
0.0
 40
0.1249999999999206
 50
225.0000000000691
 51
44.99999999995854
  0
LINE
  5
A264
  8
D002
 10
77.3234742502047
 20
203.691137894783
 30
0.0
 11
76.92468835298331
 21
203.2923519975616
 31
0.0
  0
LINE
  5
A265
  8
D002
 10
77.62347425020488
 20
203.691137894783
 30
0.0
 11
78.02226014742627
 21
203.2923519975616
 31
0.0
  0
LINE
  5
A266
  8
D002
 10
77.62347425020488
 20
204.891137894783
 30
0.0
 11
78.26930105515174
 21
204.245311089836
 31
0.0
  0
ARC
  5
A267
  8
D002
 10
77.01307670063187
 20
203.2039636499132
 30
0.0
 40
0.1249999999999206
 50
134.9999999998941
 51
314.999999999894
  0
LINE
  5
A268
  8
D002
 10
77.3234742502047
 20
203.3375845041897
 30
0.0
 11
77.10146504827998
 21
203.1155753022649
 31
0.0
  0
LINE
  5
A269
  8
D002
 10
78.69751235588154
 20
206.7710417053507
 30
0.0
 11
78.84239502199097
 21
207.3117511764071
 31
0.0
  0
ARC
  5
A26A
  8
D002
 10
78.67164184651796
 20
207.3575043518802
 30
0.0
 40
0.1767766952966168
 50
344.9999999999747
 51
164.9999999999747
  0
LINE
  5
A26B
  8
D002
 10
75.33703214403107
 20
204.4844573889187
 30
0.0
 11
74.86379549847305
 21
204.2112340842154
 31
0.0
1001
GENIUS_GENODEF_13
1002
{
1000
HIER
1070
     0
1002
}
1002
{
1000
MANEDIT
1070
     0
1002
}
1002
{
1000
NOSEL
1070
     0
1002
}
1002
{
1000
BEHIND
1070
     0
1002
}
1002
{
1000
OTHER
1070
     0
1002
}
1002
{
1000
REACTOR
1002
}
1001
GENIUS_GENOBJ-N-CEN_13
1002
{
1000
OWNER
1000
GEN
1002
}
1001
GENIUS_GENCEN_19
1002
{
1040
3.0
1002
}
  0
LINE
  5
A26C
  8
D002
 10
78.41449965398914
 20
206.2612340842153
 30
0.0
 11
79.2967154759919
 21
206.0248450671598
 31
0.0
  0
LINE
  5
A26D
  8
D002
 10
79.45373013853049
 20
206.8612340842153
 30
0.0
 11
79.99848180480598
 21
206.7152683151614
 31
0.0
  0
LINE
  5
A26E
  8
D002
 10
79.75991635637837
 20
207.038010779512
 30
0.0
 11
80.06318656608158
 21
206.9567497717336
 31
0.0
  0
ARC
  5
A26F
  8
D002
 10
80.03083418544378
 20
206.8360090434476
 30
0.0
 40
0.1249999999999206
 50
254.9999999999954
 51
74.99999999999544
  0
LINE
  5
A270
  8
D002
 10
79.30373013853063
 20
207.1210417053507
 30
0.0
 11
79.4496959075845
 21
207.6657933716261
 31
0.0
  0
LINE
  5
A271
  8
D002
 10
76.09943614452817
 20
205.2710417053507
 30
0.0
 11
75.49321836187909
 21
204.9210417053506
 31
0.0
1001
GENIUS_GENODEF_13
1002
{
1000
HIER
1070
     0
1002
}
1002
{
1000
MANEDIT
1070
     0
1002
}
1002
{
1000
NOSEL
1070
     0
1002
}
1002
{
1000
BEHIND
1070
     0
1002
}
1002
{
1000
OTHER
1070
     0
1002
}
1002
{
1000
REACTOR
1002
}
1001
GENIUS_GENOBJ-N-CEN_13
1002
{
1000
OWNER
1000
GEN
1002
}
1001
GENIUS_GENCEN_19
1002
{
1040
3.0
1002
}
  0
ARC
  5
A272
  8
D002
 10
76.27530665389162
 20
204.4247714376858
 30
0.0
 40
0.1767766952966168
 50
164.9999999999747
 51
345.0000000000139
  0
LINE
  5
A273
  8
D002
 10
76.09943614452817
 20
205.2710417053507
 30
0.0
 11
75.55872667347165
 21
205.4159243714601
 31
0.0
  0
ARC
  5
A274
  8
D002
 10
80.15815300193657
 20
207.441137894783
 30
0.0
 40
0.1499999999999773
 50
300.0000000000254
 51
120.0000000000254
  0
LINE
  5
A275
  8
D002
 10
78.41449965398914
 20
206.2612340842153
 30
0.0
 11
78.07459926287851
 21
206.0649925019099
 31
0.0
1001
GENIUS_GENODEF_13
1002
{
1000
HIER
1070
     0
1002
}
1002
{
1000
MANEDIT
1070
     0
1002
}
1002
{
1000
NOSEL
1070
     0
1002
}
1002
{
1000
BEHIND
1070
     0
1002
}
1002
{
1000
OTHER
1070
     0
1002
}
1002
{
1000
REACTOR
1002
}
1001
GENIUS_GENOBJ-N-CEN_13
1002
{
1000
OWNER
1000
GEN
1002
}
1001
GENIUS_GENCEN_19
1002
{
1040
3.0
1002
}
  0
LINE
  5
A276
  8
D002
 10
78.26449965398928
 20
206.5210417053507
 30
0.0
 11
77.92459926287864
 21
206.3248001230452
 31
0.0
1001
GENIUS_GENODEF_13
1002
{
1000
HIER
1070
     0
1002
}
1002
{
1000
MANEDIT
1070
     0
1002
}
1002
{
1000
NOSEL
1070
     0
1002
}
1002
{
1000
BEHIND
1070
     0
1002
}
1002
{
1000
OTHER
1070
     0
1002
}
1002
{
1000
REACTOR
1002
}
1001
GENIUS_GENOBJ-N-CEN_13
1002
{
1000
OWNER
1000
GEN
1002
}
1001
GENIUS_GENCEN_19
1002
{
1040
3.0
1002
}
  0
LINE
  5
A277
  8
D002
 10
76.24943614452803
 20
205.0112340842153
 30
0.0
 11
76.10455347841861
 21
204.4705246131589
 31
0.0
  0
LINE
  5
A278
  8
D002
 10
76.6824488464203
 20
205.2612340842153
 30
0.0
 11
76.44605982936486
 21
204.3790182622128
 31
0.0
  0
LINE
  5
A279
  8
D002
 10
80.23315300193661
 20
207.3112340842154
 30
0.0
 11
79.75991635637837
 21
207.038010779512
 31
0.0
1001
GENIUS_GENODEF_13
1002
{
1000
HIER
1070
     0
1002
}
1002
{
1000
MANEDIT
1070
     0
1002
}
1002
{
1000
NOSEL
1070
     0
1002
}
1002
{
1000
BEHIND
1070
     0
1002
}
1002
{
1000
OTHER
1070
     0
1002
}
1002
{
1000
REACTOR
1002
}
1001
GENIUS_GENOBJ-N-CEN_13
1002
{
1000
OWNER
1000
GEN
1002
}
1001
GENIUS_GENCEN_19
1002
{
1040
3.0
1002
}
  0
ARC
  5
A27A
  8
D002
 10
74.78879549847301
 20
204.341137894783
 30
0.0
 40
0.1499999999999773
 50
120.0000000000254
 51
300.0000000000254
  0
ARC
  5
A27B
  8
D002
 10
75.60447984894466
 20
205.5866775469331
 30
0.0
 40
0.1767766952966168
 50
75.0000000000127
 51
255.0000000000127
  0
LINE
  5
A27C
  8
D002
 10
80.08315300193652
 20
207.5710417053507
 30
0.0
 11
79.6099163563785
 21
207.2978184006473
 31
0.0
1001
GENIUS_GENODEF_13
1002
{
1000
HIER
1070
     0
1002
}
1002
{
1000
MANEDIT
1070
     0
1002
}
1002
{
1000
NOSEL
1070
     0
1002
}
1002
{
1000
BEHIND
1070
     0
1002
}
1002
{
1000
OTHER
1070
     0
1002
}
1002
{
1000
REACTOR
1002
}
1001
GENIUS_GENOBJ-N-CEN_13
1002
{
1000
OWNER
1000
GEN
1002
}
1001
GENIUS_GENCEN_19
1002
{
1040
3.0
1002
}
  0
LINE
  5
A27D
  8
D002
 10
79.30373013853063
 20
207.1210417053507
 30
0.0
 11
78.69751235588154
 21
206.7710417053507
 31
0.0
1001
GENIUS_GENODEF_13
1002
{
1000
HIER
1070
     0
1002
}
1002
{
1000
MANEDIT
1070
     0
1002
}
1002
{
1000
NOSEL
1070
     0
1002
}
1002
{
1000
BEHIND
1070
     0
1002
}
1002
{
1000
OTHER
1070
     0
1002
}
1002
{
1000
REACTOR
1002
}
1001
GENIUS_GENOBJ-N-CEN_13
1002
{
1000
OWNER
1000
GEN
1002
}
1001
GENIUS_GENCEN_19
1002
{
1040
3.0
1002
}
  0
LINE
  5
A27E
  8
D002
 10
75.1870321440312
 20
204.7442650100541
 30
0.0
 11
74.71379549847296
 21
204.4710417053507
 31
0.0
1001
GENIUS_GENODEF_13
1002
{
1000
HIER
1070
     0
1002
}
1002
{
1000
MANEDIT
1070
     0
1002
}
1002
{
1000
NOSEL
1070
     0
1002
}
1002
{
1000
BEHIND
1070
     0
1002
}
1002
{
1000
OTHER
1070
     0
1002
}
1002
{
1000
REACTOR
1002
}
1001
GENIUS_GENOBJ-N-CEN_13
1002
{
1000
OWNER
1000
GEN
1002
}
1001
GENIUS_GENCEN_19
1002
{
1040
3.0
1002
}
  0
LINE
  5
A27F
  8
D002
 10
79.45373013853049
 20
206.8612340842153
 30
0.0
 11
78.8475123558814
 21
206.5112340842153
 31
0.0
1001
GENIUS_GENODEF_13
1002
{
1000
HIER
1070
     0
1002
}
1002
{
1000
MANEDIT
1070
     0
1002
}
1002
{
1000
NOSEL
1070
     0
1002
}
1002
{
1000
BEHIND
1070
     0
1002
}
1002
{
1000
OTHER
1070
     0
1002
}
1002
{
1000
REACTOR
1002
}
1001
GENIUS_GENOBJ-N-CEN_13
1002
{
1000
OWNER
1000
GEN
1002
}
1001
GENIUS_GENCEN_19
1002
{
1040
3.0
1002
}
  0
LINE
  5
A280
  8
D002
 10
75.64321836187895
 20
204.6612340842153
 30
0.0
 11
75.49725259282508
 21
204.1164824179399
 31
0.0
  0
LINE
  5
A281
  8
D002
 10
75.33703214403107
 20
204.4844573889187
 30
0.0
 11
75.2557711362528
 21
204.1811871792156
 31
0.0
  0
ARC
  5
A282
  8
D002
 10
75.37651186453871
 20
204.1488347985777
 30
0.0
 40
0.1249999999999206
 50
164.9999999999954
 51
345.0000000001045
  0
LINE
  5
A283
  8
D002
 10
75.49321836187909
 20
204.9210417053506
 30
0.0
 11
74.9484666956036
 21
205.0670074744046
 31
0.0
  0
LINE
  5
A284
  8
D002
 10
75.1870321440312
 20
204.7442650100541
 30
0.0
 11
74.88376193432799
 21
204.8255260178323
 31
0.0
  0
LINE
  5
A285
  8
D002
 10
76.24943614452803
 20
205.0112340842153
 30
0.0
 11
75.64321836187895
 21
204.6612340842153
 31
0.0
1001
GENIUS_GENODEF_13
1002
{
1000
HIER
1070
     0
1002
}
1002
{
1000
MANEDIT
1070
     0
1002
}
1002
{
1000
NOSEL
1070
     0
1002
}
1002
{
1000
BEHIND
1070
     0
1002
}
1002
{
1000
OTHER
1070
     0
1002
}
1002
{
1000
REACTOR
1002
}
1001
GENIUS_GENOBJ-N-CEN_13
1002
{
1000
OWNER
1000
GEN
1002
}
1001
GENIUS_GENCEN_19
1002
{
1040
3.0
1002
}
  0
LINE
  5
A286
  8
D002
 10
76.53244884642044
 20
205.5210417053507
 30
0.0
 11
75.65023302441767
 21
205.7574307224062
 31
0.0
  0
ARC
  5
A287
  8
D002
 10
74.9161143149658
 20
204.9462667461184
 30
0.0
 40
0.1249999999999206
 50
74.99999999999544
 51
254.9999999999954
  0
LINE
  5
A288
  8
D002
 10
78.8475123558814
 20
206.5112340842153
 30
0.0
 11
79.38822182693792
 21
206.3663514181059
 31
0.0
  0
ARC
  5
A289
  8
D002
 10
79.34246865146491
 20
206.1955982426329
 30
0.0
 40
0.1767766952966168
 50
255.0000000000127
 51
75.0000000000127
  0
LINE
  5
A28A
  8
D002
 10
78.26449965398928
 20
206.5210417053507
 30
0.0
 11
78.50088867104495
 21
207.4032575273532
 31
0.0
  0
LINE
  5
A28B
  8
D002
 10
77.3234742502047
 20
204.891137894783
 30
0.0
 11
77.3234742502047
 21
205.2836210593937
 31
0.0
1001
GENIUS_GENODEF_13
1002
{
1000
HIER
1070
     0
1002
}
1002
{
1000
MANEDIT
1070
     0
1002
}
1002
{
1000
NOSEL
1070
     0
1002
}
1002
{
1000
BEHIND
1070
     0
1002
}
1002
{
1000
OTHER
1070
     0
1002
}
1002
{
1000
REACTOR
1002
}
1001
GENIUS_GENOBJ-N-CEN_13
1002
{
1000
OWNER
1000
GEN
1002
}
1001
GENIUS_GENCEN_19
1002
{
1040
3.0
1002
}
  0
LINE
  5
A28C
  8
D002
 10
79.6099163563785
 20
207.2978184006473
 30
0.0
 11
79.69117736415677
 21
207.6010886103503
 31
0.0
  0
ARC
  5
A28D
  8
D002
 10
79.57043663587086
 20
207.6334409909882
 30
0.0
 40
0.1249999999999206
 50
344.9999999999954
 51
165.0000000001046
  0
LINE
  5
A28E
  8
D002
 10
75.33703214403107
 20
207.2978184006473
 30
0.0
 11
75.2557711362528
 21
207.6010886103504
 31
0.0
  0
LINE
  5
A28F
  8
D002
 10
75.49321836187909
 20
206.8612340842153
 30
0.0
 11
74.9484666956036
 21
206.7152683151614
 31
0.0
  0
LINE
  5
A290
  8
D002
 10
75.1870321440312
 20
207.038010779512
 30
0.0
 11
74.88376193432799
 21
206.9567497717337
 31
0.0
  0
LINE
  5
A291
  8
D002
 10
79.30373013853063
 20
204.6612340842154
 30
0.0
 11
78.69751235588154
 21
205.0112340842154
 31
0.0
1001
GENIUS_GENODEF_13
1002
{
1000
HIER
1070
     0
1002
}
1002
{
1000
MANEDIT
1070
     0
1002
}
1002
{
1000
NOSEL
1070
     0
1002
}
1002
{
1000
BEHIND
1070
     0
1002
}
1002
{
1000
OTHER
1070
     0
1002
}
1002
{
1000
REACTOR
1002
}
1001
GENIUS_GENOBJ-N-CEN_13
1002
{
1000
OWNER
1000
GEN
1002
}
1001
GENIUS_GENCEN_19
1002
{
1040
3.0
1002
}
  0
LINE
  5
A292
  8
D002
 10
79.45373013853049
 20
204.9210417053507
 30
0.0
 11
78.8475123558814
 21
205.2710417053508
 31
0.0
1001
GENIUS_GENODEF_13
1002
{
1000
HIER
1070
     0
1002
}
1002
{
1000
MANEDIT
1070
     0
1002
}
1002
{
1000
NOSEL
1070
     0
1002
}
1002
{
1000
BEHIND
1070
     0
1002
}
1002
{
1000
OTHER
1070
     0
1002
}
1002
{
1000
REACTOR
1002
}
1001
GENIUS_GENOBJ-N-CEN_13
1002
{
1000
OWNER
1000
GEN
1002
}
1001
GENIUS_GENCEN_19
1002
{
1040
3.0
1002
}
  0
ARC
  5
A293
  8
D002
 10
75.37651186453871
 20
207.6334409909882
 30
0.0
 40
0.1249999999999206
 50
14.99999999995087
 51
194.9999999999509
  0
ARC
  5
A294
  8
D002
 10
74.9161143149658
 20
206.8360090434476
 30
0.0
 40
0.1249999999999206
 50
105.0000000000046
 51
285.0000000000046
  0
LINE
  5
A295
  8
D002
 10
78.26449965398928
 20
205.2612340842154
 30
0.0
 11
77.92459926287864
 21
205.4574756665208
 31
0.0
1001
GENIUS_GENODEF_13
1002
{
1000
HIER
1070
     0
1002
}
1002
{
1000
MANEDIT
1070
     0
1002
}
1002
{
1000
NOSEL
1070
     0
1002
}
1002
{
1000
BEHIND
1070
     0
1002
}
1002
{
1000
OTHER
1070
     0
1002
}
1002
{
1000
REACTOR
1002
}
1001
GENIUS_GENOBJ-N-CEN_13
1002
{
1000
OWNER
1000
GEN
1002
}
1001
GENIUS_GENCEN_19
1002
{
1040
3.0
1002
}
  0
LINE
  5
A296
  8
D002
 10
75.33703214403107
 20
207.2978184006473
 30
0.0
 11
74.86379549847305
 21
207.5710417053507
 31
0.0
1001
GENIUS_GENODEF_13
1002
{
1000
HIER
1070
     0
1002
}
1002
{
1000
MANEDIT
1070
     0
1002
}
1002
{
1000
NOSEL
1070
     0
1002
}
1002
{
1000
BEHIND
1070
     0
1002
}
1002
{
1000
OTHER
1070
     0
1002
}
1002
{
1000
REACTOR
1002
}
1001
GENIUS_GENOBJ-N-CEN_13
1002
{
1000
OWNER
1000
GEN
1002
}
1001
GENIUS_GENCEN_19
1002
{
1040
3.0
1002
}
  0
LINE
  5
A297
  8
D002
 10
76.24943614452803
 20
206.7710417053508
 30
0.0
 11
76.10455347841861
 21
207.3117511764072
 31
0.0
  0
LINE
  5
A298
  8
D002
 10
78.41449965398914
 20
205.5210417053508
 30
0.0
 11
79.2967154759919
 21
205.7574307224062
 31
0.0
  0
ARC
  5
A299
  8
D002
 10
76.27530665389162
 20
207.3575043518802
 30
0.0
 40
0.1767766952966168
 50
15.00000000002528
 51
194.9999999999861
  0
LINE
  5
A29A
  8
D002
 10
80.08315300193652
 20
204.2112340842154
 30
0.0
 11
79.6099163563785
 21
204.4844573889187
 31
0.0
1001
GENIUS_GENODEF_13
1002
{
1000
HIER
1070
     0
1002
}
1002
{
1000
MANEDIT
1070
     0
1002
}
1002
{
1000
NOSEL
1070
     0
1002
}
1002
{
1000
BEHIND
1070
     0
1002
}
1002
{
1000
OTHER
1070
     0
1002
}
1002
{
1000
REACTOR
1002
}
1001
GENIUS_GENOBJ-N-CEN_13
1002
{
1000
OWNER
1000
GEN
1002
}
1001
GENIUS_GENCEN_19
1002
{
1040
3.0
1002
}
  0
LINE
  5
A29B
  8
D002
 10
76.53244884642044
 20
206.2612340842154
 30
0.0
 11
75.65023302441767
 21
206.0248450671599
 31
0.0
  0
LINE
  5
A29C
  8
D002
 10
78.41449965398914
 20
205.5210417053508
 30
0.0
 11
78.07459926287851
 21
205.7172832876561
 31
0.0
1001
GENIUS_GENODEF_13
1002
{
1000
HIER
1070
     0
1002
}
1002
{
1000
MANEDIT
1070
     0
1002
}
1002
{
1000
NOSEL
1070
     0
1002
}
1002
{
1000
BEHIND
1070
     0
1002
}
1002
{
1000
OTHER
1070
     0
1002
}
1002
{
1000
REACTOR
1002
}
1001
GENIUS_GENOBJ-N-CEN_13
1002
{
1000
OWNER
1000
GEN
1002
}
1001
GENIUS_GENCEN_19
1002
{
1040
3.0
1002
}
  0
LINE
  5
A29D
  8
D002
 10
80.23315300193661
 20
204.4710417053507
 30
0.0
 11
79.75991635637837
 21
204.7442650100541
 31
0.0
1001
GENIUS_GENODEF_13
1002
{
1000
HIER
1070
     0
1002
}
1002
{
1000
MANEDIT
1070
     0
1002
}
1002
{
1000
NOSEL
1070
     0
1002
}
1002
{
1000
BEHIND
1070
     0
1002
}
1002
{
1000
OTHER
1070
     0
1002
}
1002
{
1000
REACTOR
1002
}
1001
GENIUS_GENOBJ-N-CEN_13
1002
{
1000
OWNER
1000
GEN
1002
}
1001
GENIUS_GENCEN_19
1002
{
1040
3.0
1002
}
  0
LINE
  5
A29E
  8
D002
 10
75.64321836187895
 20
207.1210417053507
 30
0.0
 11
75.49725259282508
 21
207.6657933716261
 31
0.0
  0
ARC
  5
A29F
  8
D002
 10
75.60447984894466
 20
206.1955982426329
 30
0.0
 40
0.1767766952966168
 50
104.9999999999873
 51
284.9999999999873
  0
ARC
  5
A2A0
  8
D002
 10
74.78879549847301
 20
207.4411378947831
 30
0.0
 40
0.1499999999999773
 50
59.99999999997465
 51
239.9999999999746
  0
LINE
  5
A2A1
  8
D002
 10
78.8475123558814
 20
205.2710417053508
 30
0.0
 11
79.38822182693792
 21
205.4159243714601
 31
0.0
  0
LINE
  5
A2A2
  8
D002
 10
76.24943614452803
 20
206.7710417053508
 30
0.0
 11
75.64321836187895
 21
207.1210417053507
 31
0.0
1001
GENIUS_GENODEF_13
1002
{
1000
HIER
1070
     0
1002
}
1002
{
1000
MANEDIT
1070
     0
1002
}
1002
{
1000
NOSEL
1070
     0
1002
}
1002
{
1000
BEHIND
1070
     0
1002
}
1002
{
1000
OTHER
1070
     0
1002
}
1002
{
1000
REACTOR
1002
}
1001
GENIUS_GENOBJ-N-CEN_13
1002
{
1000
OWNER
1000
GEN
1002
}
1001
GENIUS_GENCEN_19
1002
{
1040
3.0
1002
}
  0
ARC
  5
A2A3
  8
D002
 10
80.15815300193657
 20
204.3411378947831
 30
0.0
 40
0.1499999999999773
 50
239.9999999999746
 51
59.99999999997465
  0
ARC
  5
A2A4
  8
D002
 10
79.34246865146491
 20
205.5866775469332
 30
0.0
 40
0.1767766952966168
 50
284.9999999999873
 51
104.9999999999873
  0
LINE
  5
A2A5
  8
D002
 10
78.26449965398928
 20
205.2612340842154
 30
0.0
 11
78.50088867104495
 21
204.3790182622128
 31
0.0
  0
LINE
  5
A2A6
  8
D002
 10
75.1870321440312
 20
207.038010779512
 30
0.0
 11
74.71379549847296
 21
207.3112340842154
 31
0.0
1001
GENIUS_GENODEF_13
1002
{
1000
HIER
1070
     0
1002
}
1002
{
1000
MANEDIT
1070
     0
1002
}
1002
{
1000
NOSEL
1070
     0
1002
}
1002
{
1000
BEHIND
1070
     0
1002
}
1002
{
1000
OTHER
1070
     0
1002
}
1002
{
1000
REACTOR
1002
}
1001
GENIUS_GENOBJ-N-CEN_13
1002
{
1000
OWNER
1000
GEN
1002
}
1001
GENIUS_GENCEN_19
1002
{
1040
3.0
1002
}
  0
LINE
  5
A2A7
  8
D002
 10
78.69751235588154
 20
205.0112340842154
 30
0.0
 11
78.84239502199097
 21
204.4705246131589
 31
0.0
  0
LINE
  5
A2A8
  8
D002
 10
76.09943614452817
 20
206.5112340842154
 30
0.0
 11
75.55872667347165
 21
206.366351418106
 31
0.0
  0
LINE
  5
A2A9
  8
D002
 10
76.6824488464203
 20
206.5210417053508
 30
0.0
 11
76.44605982936486
 21
207.4032575273533
 31
0.0
  0
ARC
  5
A2AA
  8
D002
 10
78.67164184651796
 20
204.4247714376859
 30
0.0
 40
0.1767766952966168
 50
195.0000000000253
 51
14.99999999998613
  0
LINE
  5
A2AB
  8
D002
 10
76.09943614452817
 20
206.5112340842154
 30
0.0
 11
75.49321836187909
 21
206.8612340842153
 31
0.0
1001
GENIUS_GENODEF_13
1002
{
1000
HIER
1070
     0
1002
}
1002
{
1000
MANEDIT
1070
     0
1002
}
1002
{
1000
NOSEL
1070
     0
1002
}
1002
{
1000
BEHIND
1070
     0
1002
}
1002
{
1000
OTHER
1070
     0
1002
}
1002
{
1000
REACTOR
1002
}
1001
GENIUS_GENOBJ-N-CEN_13
1002
{
1000
OWNER
1000
GEN
1002
}
1001
GENIUS_GENCEN_19
1002
{
1040
3.0
1002
}
  0
LINE
  5
A2B1
  8
D002
 10
76.87234923753107
 20
206.06499250191
 30
0.0
 11
76.53244884642044
 21
206.2612340842154
 31
0.0
1001
GENIUS_GENODEF_13
1002
{
1000
HIER
1070
     0
1002
}
1002
{
1000
MANEDIT
1070
     0
1002
}
1002
{
1000
NOSEL
1070
     0
1002
}
1002
{
1000
BEHIND
1070
     0
1002
}
1002
{
1000
OTHER
1070
     0
1002
}
1002
{
1000
REACTOR
1002
}
1001
GENIUS_GENOBJ-N-CEN_13
1002
{
1000
OWNER
1000
GEN
1002
}
1001
GENIUS_GENCEN_19
1002
{
1040
3.0
1002
}
  0
LINE
  5
A2B2
  8
D002
 10
77.02234923753093
 20
205.4574756665207
 30
0.0
 11
76.6824488464203
 21
205.2612340842153
 31
0.0
1001
GENIUS_GENODEF_13
1002
{
1000
HIER
1070
     0
1002
}
1002
{
1000
MANEDIT
1070
     0
1002
}
1002
{
1000
NOSEL
1070
     0
1002
}
1002
{
1000
BEHIND
1070
     0
1002
}
1002
{
1000
OTHER
1070
     0
1002
}
1002
{
1000
REACTOR
1002
}
1001
GENIUS_GENOBJ-N-CEN_13
1002
{
1000
OWNER
1000
GEN
1002
}
1001
GENIUS_GENCEN_19
1002
{
1040
3.0
1002
}
  0
LINE
  5
A2B3
  8
D002
 10
77.62347425020488
 20
206.4986547301723
 30
0.0
 11
77.62347425020488
 21
206.891137894783
 31
0.0
1001
GENIUS_GENODEF_13
1002
{
1000
HIER
1070
     0
1002
}
1002
{
1000
MANEDIT
1070
     0
1002
}
1002
{
1000
NOSEL
1070
     0
1002
}
1002
{
1000
BEHIND
1070
     0
1002
}
1002
{
1000
OTHER
1070
     0
1002
}
1002
{
1000
REACTOR
1002
}
1001
GENIUS_GENOBJ-N-CEN_13
1002
{
1000
OWNER
1000
GEN
1002
}
1001
GENIUS_GENCEN_19
1002
{
1040
3.0
1002
}
  0
LINE
  5
A2B4
  8
D002
 10
76.87234923753107
 20
205.717283287656
 30
0.0
 11
76.53244884642044
 21
205.5210417053507
 31
0.0
1001
GENIUS_GENODEF_13
1002
{
1000
HIER
1070
     0
1002
}
1002
{
1000
MANEDIT
1070
     0
1002
}
1002
{
1000
NOSEL
1070
     0
1002
}
1002
{
1000
BEHIND
1070
     0
1002
}
1002
{
1000
OTHER
1070
     0
1002
}
1002
{
1000
REACTOR
1002
}
1001
GENIUS_GENOBJ-N-CEN_13
1002
{
1000
OWNER
1000
GEN
1002
}
1001
GENIUS_GENCEN_19
1002
{
1040
3.0
1002
}
  0
LINE
  5
A2B5
  8
D002
 10
77.02234923753116
 20
206.3248001230453
 30
0.0
 11
76.6824488464203
 21
206.5210417053508
 31
0.0
1001
GENIUS_GENODEF_13
1002
{
1000
HIER
1070
     0
1002
}
1002
{
1000
MANEDIT
1070
     0
1002
}
1002
{
1000
NOSEL
1070
     0
1002
}
1002
{
1000
BEHIND
1070
     0
1002
}
1002
{
1000
OTHER
1070
     0
1002
}
1002
{
1000
REACTOR
1002
}
1001
GENIUS_GENOBJ-N-CEN_13
1002
{
1000
OWNER
1000
GEN
1002
}
1001
GENIUS_GENCEN_19
1002
{
1040
3.0
1002
}
  0
LINE
  5
A2B6
  8
D002
 10
77.3234742502047
 20
206.4986547301723
 30
0.0
 11
77.3234742502047
 21
206.891137894783
 31
0.0
1001
GENIUS_GENODEF_13
1002
{
1000
HIER
1070
     0
1002
}
1002
{
1000
MANEDIT
1070
     0
1002
}
1002
{
1000
NOSEL
1070
     0
1002
}
1002
{
1000
BEHIND
1070
     0
1002
}
1002
{
1000
OTHER
1070
     0
1002
}
1002
{
1000
REACTOR
1002
}
1001
GENIUS_GENOBJ-N-CEN_13
1002
{
1000
OWNER
1000
GEN
1002
}
1001
GENIUS_GENCEN_19
1002
{
1040
3.0
1002
}
  0
POINT
  5
A2B7
  8
D002
 10
77.47347425020479
 20
205.891137894783
 30
0.0
  0
LINE
  5
A2B9
  8
0
 10
42.75219384681617
 20
200.4403722225794
 30
0.0
 11
41.539758281518
 21
198.3403722225791
 31
0.0
  0
ARC
  5
A2BA
  8
0
 10
41.62636082189633
 20
198.2903722225792
 30
0.0
 40
0.0999999999998077
 50
150.0000000000498
 51
270.0000000000499
  0
LINE
  5
A2BB
  8
0
 10
41.62636082189641
 20
198.1903722225794
 30
0.0
 11
44.05123195249274
 21
198.1903722225794
 31
0.0
  0
ARC
  5
A2BC
  8
0
 10
44.05123195249283
 20
198.2903722225792
 30
0.0
 40
0.0999999999998075
 50
269.9999999999499
 51
29.9999999999503
  0
LINE
  5
A2BD
  8
0
 10
44.13783449287115
 20
198.3403722225791
 30
0.0
 11
42.92539892757299
 21
200.4403722225794
 31
0.0
  0
ARC
  5
A2BE
  8
0
 10
42.83879638719458
 20
200.3903722225795
 30
0.0
 40
0.0999999999999585
 50
29.99999999999998
 51
150.0
  0
LINE
  5
A2BF
  8
0
 10
42.79549511770068
 20
200.3153722225794
 30
0.0
 11
41.6696620921179
 21
198.3653722225905
 31
0.0
  0
ARC
  5
A2C0
  8
0
 10
41.71296336230085
 20
198.3403722225792
 30
0.0
 40
0.0500000000002611
 50
149.9999999851142
 51
269.9999999998677
  0
LINE
  5
A2C1
  8
0
 10
41.71296336230074
 20
198.2903722225789
 30
0.0
 11
43.96462941214025
 21
198.2903722225789
 31
0.0
  0
ARC
  5
A2C2
  8
0
 10
43.9646294121402
 20
198.3403722225789
 30
0.0
 40
0.0500000000000013
 50
270.0000000000688
 51
29.99999998531542
  0
LINE
  5
A2C3
  8
0
 10
44.00793068233583
 20
198.3653722225678
 30
0.0
 11
42.88209765807909
 21
200.3153722225794
 31
0.0
  0
ARC
  5
A2C4
  8
0
 10
42.83879638788989
 20
200.2903722225795
 30
0.0
 40
0.0499999999999793
 50
30.00000000000012
 51
149.9999999999999
  0
LINE
  5
A2C5
  8
D002
 10
77.47347425020479
 20
206.2010043435833
 30
0.0
 11
77.20512203376319
 21
206.0460711191832
 31
0.0
  0
LINE
  5
A2C6
  8
D002
 10
77.20512203376319
 20
206.0460711191832
 30
0.0
 11
77.20512203376319
 21
205.7362046703828
 31
0.0
  0
LINE
  5
A2C7
  8
D002
 10
77.20512203376319
 20
205.7362046703828
 30
0.0
 11
77.47347425020479
 21
205.5812714459827
 31
0.0
  0
LINE
  5
A2C8
  8
D002
 10
77.47347425020479
 20
205.5812714459827
 30
0.0
 11
77.74182646664639
 21
205.7362046703828
 31
0.0
  0
LINE
  5
A2C9
  8
D002
 10
77.74182646664639
 20
205.7362046703828
 30
0.0
 11
77.74182646664639
 21
206.0460711191832
 31
0.0
  0
LINE
  5
A2CA
  8
D002
 10
77.74182646664639
 20
206.0460711191832
 30
0.0
 11
77.47347425020479
 21
206.2010043435833
 31
0.0
  0
LINE
  5
A2CB
  8
D002
 10
77.3234742502047
 20
206.4986547301723
 30
0.0
 11
77.02234923753116
 21
206.3248001230453
 31
0.0
  0
LINE
  5
A2CC
  8
D002
 10
77.92459926287864
 20
206.3248001230452
 30
0.0
 11
77.62347425020488
 21
206.4986547301723
 31
0.0
  0
LINE
  5
A2CD
  8
D002
 10
77.02234923753093
 20
205.4574756665207
 30
0.0
 11
77.3234742502047
 21
205.2836210593937
 31
0.0
  0
LINE
  5
A2CE
  8
D002
 10
77.62347425020488
 20
205.2836210593937
 30
0.0
 11
77.92459926287864
 21
205.4574756665208
 31
0.0
  0
LINE
  5
A2CF
  8
D002
 10
78.07459926287851
 20
205.7172832876561
 30
0.0
 11
78.07459926287851
 21
206.0649925019099
 31
0.0
  0
LINE
  5
A2D0
  8
D002
 10
76.87234923753107
 20
206.06499250191
 30
0.0
 11
76.87234923753107
 21
205.717283287656
 31
0.0
  0
VIEWPORT
  5
22
 67
     1
  8
0
 10
5.269134197284911
 20
5.545311567251436
 30
0.0
 40
11.13808705479925
 41
12.32365374410561
 68
     1
 69
     1
1001
GENIUS_GENSCREG_15
1000
PF
1040
1.0
1000
DF
1040
1.0
1000
MIN
1011
-0.2999093301147138
1021
-0.6165153048013714
1031
0.0
1021
-0.6165153048013714
1031
0.0
1000
MAX
1011
10.83817772468454
1021
11.70713843930424
1031
0.0
1021
11.70713843930424
1031
0.0
1000
FLAGS
1070
     4
1001
GENIUS_GENODEF_13
1002
{
1000
HIER
1070
     0
1002
}
1002
{
1000
MANEDIT
1070
     0
1002
}
1002
{
1000
NOSEL
1070
     0
1002
}
1002
{
1000
BEHIND
1070
     0
1002
}
1002
{
1000
OTHER
1070
     0
1002
}
1002
{
1000
REACTOR
1002
}
1001
GENIUS_GENOBJ-N-SDF_13
1002
{
1000
OWNER
1000
GEN
1002
}
1001
ACAD
1000
MVIEW
1002
{
1070
    16
1010
0.0
1020
0.0
1030
0.0
1020
0.0
1030
0.0
1010
0.0
1020
0.0
1030
1.0
1020
0.0
1030
1.0
1040
0.0
1040
12.32365374410561
1040
5.269134197284911
1040
5.545311567251436
1040
50.0
1040
0.0
1040
0.0
1070
     0
1070
   100
1070
     0
1070
     1
1070
     0
1070
     0
1070
     0
1070
     0
1040
0.0
1040
0.0
1040
0.0
1040
1.0
1040
1.0
1040
10.0
1040
10.0
1070
     0
1002
{
1002
}
1002
}
  0
ENDSEC
  0
EOF
