  0
SECTION
  2
HEADER
  9
$ACADVER
  1
AC1009
  9
$DWGCODEPAGE
  3
ansi_932
  9
$INSBASE
 10
0.0
 20
0.0
 30
0.0
  9
$EXTMIN
 10
0.0000064909936555
 20
0.0000050735020523
 30
0.0
  9
$EXTMAX
 10
235.1103362873292
 20
294.6851362700035
 30
0.0
  9
$LIMMIN
 10
0.0
 20
0.0
  9
$LIMMAX
 10
420.0
 20
420.0
  9
$ORTHOMODE
 70
     0
  9
$REGENMODE
 70
     1
  9
$FILLMODE
 70
     1
  9
$QTEXTMODE
 70
     0
  9
$MIRRTEXT
 70
     0
  9
$DRAGMODE
 70
     2
  9
$LTSCALE
 40
10.0
  9
$OSMODE
 70
   549
  9
$ATTMODE
 70
     1
  9
$TEXTSIZE
 40
1.0
  9
$TRACEWID
 40
1.0
  9
$TEXTSTYLE
  7
STANDARD
  9
$CLAYER
  8
10
  9
$CELTYPE
  6
BYLAYER
  9
$CECOLOR
 62
   256
  9
$DIMSCALE
 40
1.0
  9
$DIMASZ
 40
2.5
  9
$DIMEXO
 40
1.0
  9
$DIMDLI
 40
7.0
  9
$DIMRND
 40
0.0
  9
$DIMDLE
 40
0.0
  9
$DIMEXE
 40
1.0
  9
$DIMTP
 40
0.1
  9
$DIMTM
 40
0.1
  9
$DIMTXT
 40
3.0
  9
$DIMCEN
 40
0.0
  9
$DIMTSZ
 40
0.0
  9
$DIMTOL
 70
     0
  9
$DIMLIM
 70
     0
  9
$DIMTIH
 70
     0
  9
$DIMTOH
 70
     0
  9
$DIMSE1
 70
     0
  9
$DIMSE2
 70
     0
  9
$DIMTAD
 70
     3
  9
$DIMZIN
 70
     8
  9
$DIMBLK
  1
OPEN
  9
$DIMASO
 70
     1
  9
$DIMSHO
 70
     1
  9
$DIMPOST
  1

  9
$DIMAPOST
  1
"
  9
$DIMALT
 70
     0
  9
$DIMALTD
 70
     2
  9
$DIMALTF
 40
0.0393701
  9
$DIMLFAC
 40
1.0
  9
$DIMTOFL
 70
     1
  9
$DIMTVP
 40
0.0
  9
$DIMTIX
 70
     0
  9
$DIMSOXD
 70
     0
  9
$DIMSAH
 70
     0
  9
$DIMBLK1
  1

  9
$DIMBLK2
  1

  9
$DIMSTYLE
  2
AM_JIS
  9
$DIMCLRD
 70
   256
  9
$DIMCLRE
 70
   256
  9
$DIMCLRT
 70
     2
  9
$DIMTFAC
 40
0.71
  9
$DIMGAP
 40
1.0
  9
$LUNITS
 70
     2
  9
$LUPREC
 70
     2
  9
$SKETCHINC
 40
1.0
  9
$FILLETRAD
 40
2.5
  9
$AUNITS
 70
     0
  9
$AUPREC
 70
     0
  9
$MENU
  1
.
  9
$ELEVATION
 40
0.0
  9
$PELEVATION
 40
0.0
  9
$THICKNESS
 40
0.0
  9
$LIMCHECK
 70
     0
  9
$CHAMFERA
 40
2.5
  9
$CHAMFERB
 40
2.5
  9
$SKPOLY
 70
     1
  9
$TDCREATE
 40
2457177.607086632
  9
$TDUPDATE
 40
2460346.614006759
  9
$TDINDWG
 40
0.0614078125
  9
$TDUSRTIMER
 40
0.0613986806
  9
$USRTIMER
 70
     1
  9
$ANGBASE
 50
0.0
  9
$ANGDIR
 70
     0
  9
$PDMODE
 70
     0
  9
$PDSIZE
 40
0.0
  9
$PLINEWID
 40
0.0
  9
$COORDS
 70
     0
  9
$SPLFRAME
 70
     0
  9
$SPLINETYPE
 70
     6
  9
$SPLINESEGS
 70
     8
  9
$ATTDIA
 70
     1
  9
$ATTREQ
 70
     1
  9
$HANDLING
 70
     1
  9
$HANDSEED
  5
9117
  9
$SURFTAB1
 70
     6
  9
$SURFTAB2
 70
     6
  9
$SURFTYPE
 70
     6
  9
$SURFU
 70
     6
  9
$SURFV
 70
     6
  9
$UCSNAME
  2

  9
$UCSORG
 10
0.0
 20
0.0
 30
0.0
  9
$UCSXDIR
 10
1.0
 20
0.0
 30
0.0
  9
$UCSYDIR
 10
0.0
 20
1.0
 30
0.0
  9
$PUCSNAME
  2

  9
$PUCSORG
 10
0.0
 20
0.0
 30
0.0
  9
$PUCSXDIR
 10
1.0
 20
0.0
 30
0.0
  9
$PUCSYDIR
 10
0.0
 20
1.0
 30
0.0
  9
$USERI1
 70
     0
  9
$USERI2
 70
     0
  9
$USERI3
 70
     0
  9
$USERI4
 70
     0
  9
$USERI5
 70
     0
  9
$USERR1
 40
0.0
  9
$USERR2
 40
0.0
  9
$USERR3
 40
0.0
  9
$USERR4
 40
0.0
  9
$USERR5
 40
0.0
  9
$WORLDVIEW
 70
     1
  9
$SHADEDGE
 70
     3
  9
$SHADEDIF
 70
    70
  9
$TILEMODE
 70
     1
  9
$MAXACTVP
 70
    48
  9
$PLIMCHECK
 70
     0
  9
$PEXTMIN
 10
1.000000000000000E+20
 20
1.000000000000000E+20
 30
1.000000000000000E+20
  9
$PEXTMAX
 10
-1.000000000000000E+20
 20
-1.000000000000000E+20
 30
-1.000000000000000E+20
  9
$PLIMMIN
 10
-0.2500002402958907
 20
-0.2499999962453767
  9
$PLIMMAX
 10
10.74999951940822
 20
8.249999763458732
  9
$UNITMODE
 70
     0
  9
$VISRETAIN
 70
     1
  9
$PLINEGEN
 70
     0
  9
$PSLTSCALE
 70
     1
  0
ENDSEC
  0
SECTION
  2
TABLES
  0
TABLE
  2
VPORT
 70
     1
  0
VPORT
  2
*ACTIVE
 70
     0
 10
0.0
 20
0.0
 11
1.0
 21
1.0
 12
210.0
 22
210.0
 13
0.0
 23
0.0
 14
2.5
 24
2.5
 15
10.0
 25
10.0
 16
0.0
 26
0.0
 36
1.0
 17
0.0
 27
0.0
 37
0.0
 40
423.2589718719689
 41
2.05293551491819
 42
50.0
 43
0.0
 44
0.0
 50
0.0
 51
0.0
 71
     0
 72
   100
 73
     1
 74
     3
 75
     0
 76
     0
 77
     0
 78
     0
  0
ENDTAB
  0
TABLE
  2
LTYPE
 70
    22
  0
LTYPE
  2
CONTINUOUS
 70
     0
  3
Solid line
 72
    65
 73
     0
 40
0.0
  0
LTYPE
  2
HIDDEN
 70
     0
  3
__ __ __ __ __ __ __ __ __ __ __ __ __ __ __ __
 72
    65
 73
     2
 40
0.375
 49
0.25
 49
-0.125
  0
LTYPE
  2
PHANTOM2
 70
     0
  3
___ _ _ ___ _ _ ___ _ _ ___ _ _ ___ _ _ ___ _ _
 72
    65
 73
     6
 40
1.25
 49
0.625
 49
-0.125
 49
0.125
 49
-0.125
 49
0.125
 49
-0.125
  0
LTYPE
  2
CENTER
 70
     0
  3
____ _ ____ _ ____ _ ____ _ ____ _ ____ _ ____ 
 72
    65
 73
     4
 40
2.0
 49
1.25
 49
-0.25
 49
0.25
 49
-0.25
  0
LTYPE
  2
ACJISTGB
 70
     0
  3
__ . . __ . .
 72
    65
 73
     6
 40
9.0
 49
4.0
 49
-1.0
 49
1.0
 49
-1.0
 49
1.0
 49
-1.0
  0
LTYPE
  2
ACJISTGL
 70
     0
  3
_ _ _ _ _
 72
    65
 73
     2
 40
3.0
 49
2.0
 49
-1.0
  0
LTYPE
  2
ACISOWELD
 70
     0
  3
_ _ _ _ _
 72
    65
 73
     2
 40
2.0
 49
2.0
 49
-1.0
  0
LTYPE
  2
ACISOTGB
 70
     0
  3
__ . . __ . .
 72
    65
 73
     6
 40
9.0
 49
4.0
 49
-1.0
 49
1.0
 49
-1.0
 49
1.0
 49
-1.0
  0
LTYPE
  2
ACISOTGL
 70
     0
  3
_ _ _ _ _
 72
    65
 73
     2
 40
3.0
 49
2.0
 49
-1.0
  0
LTYPE
  2
AM_ISO02W050
 70
     0
  3
__ __ __ __ __ __ __ __ __ __ __ __ __ __ __
 72
    65
 73
     2
 40
7.5
 49
6.0
 49
-1.5
  0
LTYPE
  2
AM_ISO08W050
 70
     0
  3
____ . ____ . ____ . ____ . ____ . ____ . ____
 72
    65
 73
     4
 40
18.0
 49
12.0
 49
-1.5
 49
3.0
 49
-1.5
  0
LTYPE
  2
AM_ISO09W050
 70
     0
  3
_____ . . _____ . . _____ . . ____ .. ____
 72
    65
 73
     6
 40
22.5
 49
12.0
 49
-1.5
 49
3.0
 49
-1.5
 49
3.0
 49
-1.5
  0
LTYPE
  2
AM_ISO02W050X2
 70
     0
  3
 _ _ _ _ _ _ _ _ _ _ _ _
 72
    65
 73
     2
 40
3.75
 49
3.0
 49
-0.75
  0
LTYPE
  2
AM_ISO08W050X2
 70
     0
  3
__ . __ . __ . __ . __ . __
 72
    65
 73
     4
 40
9.0
 49
6.0
 49
-0.75
 49
1.5
 49
-0.75
  0
LTYPE
  2
AMZIGZAG
 70
     0
  3
/\/-/\/-/\/-/\/-/\/-/\/
 72
    65
 73
     2
 40
11.0001
 49
0.0001
 49
-11.0
  0
LTYPE
  2
AMCONSTR
 70
     0
  3
_______________________
 72
    65
 73
     2
 40
9999.0
 49
9999.0
 49
0.0
  0
LTYPE
  2
CENTER2
 70
     0
  3
Center (.5x) ___ _ ___ _ ___ _ ___ _ ___ _ ___
 72
    65
 73
     4
 40
1.125
 49
0.75
 49
-0.125
 49
0.125
 49
-0.125
  0
LTYPE
  2
HIDDEN2
 70
     0
  3
Hidden (.5x) _ _ _ _ _ _ _ _ _ _ _ _ _ _ _ _ _
 72
    65
 73
     2
 40
0.1875
 49
0.125
 49
-0.0625
  0
LTYPE
  2
ACJISWELD
 70
     0
  3
_ _ _ _ _
 72
    65
 73
     2
 40
2.0
 49
2.0
 49
-1.0
  0
LTYPE
  2
AMZIGZAG2
 70
     0
  3
/\/-/\/-/\/-/\/-/\/-/\/
 72
    65
 73
     2
 40
0.4401
 49
0.0001
 49
-0.44
  0
LTYPE
  2
ACANSTGB
 70
     0
  3
__ . . __ . .
 72
    65
 73
     6
 40
0.35433070866
 49
0.15748031496
 49
-0.03937007874
 49
0.03937007874
 49
-0.03937007874
 49
0.03937007874
 49
-0.03937007874
  0
LTYPE
  2
ACANSTGL
 70
     0
  3
_ _ _ _ _
 72
    65
 73
     2
 40
0.11811023622
 49
0.07874015748
 49
-0.03937007874
  0
ENDTAB
  0
TABLE
  2
LAYER
 70
     8
  0
LAYER
  2
0
 70
     0
 62
     7
  6
CONTINUOUS
  0
LAYER
  2
3A
 70
     0
 62
     6
  6
HIDDEN2
  0
LAYER
  2
7
 70
     0
 62
     4
  6
CENTER2
  0
LAYER
  2
10
 70
     0
 62
     2
  6
CONTINUOUS
  0
LAYER
  2
DEFPOINTS
 70
     0
 62
     7
  6
CONTINUOUS
  0
LAYER
  2
AM_0
 70
     0
 62
     7
  6
CONTINUOUS
  0
LAYER
  2
D002
 70
     0
 62
   152
  6
CONTINUOUS
  0
ENDTAB
  0
TABLE
  2
STYLE
 70
     8
  0
STYLE
  2
STANDARD
 70
     0
 40
0.0
 41
1.0
 50
0.0
 71
     0
 42
1.0
  3
ISOCP.SHX
  4
EXTFONT.SHX
  0
STYLE
  2
ACJISTS
 70
     0
 40
1.0
 41
1.0
 50
0.0
 71
     0
 42
3.5
  3
isocp.shx
  4
extfont.shx
  0
STYLE
  2
ACJISGDT
 70
     0
 40
0.0
 41
1.0
 50
0.0
 71
     0
 42
3.5
  3
amgdt.shx
  4
extfont.shx
  0
STYLE
  2
ACISOTS
 70
     0
 40
1.0
 41
1.0
 50
0.0
 71
     0
 42
1.0
  3
isocp.shx
  4
extfont.shx
  0
STYLE
  2
ACISOGDT
 70
     0
 40
0.0
 41
1.0
 50
0.0
 71
     0
 42
3.5
  3
amgdt.shx
  4
extfont.shx
  0
STYLE
  2

 70
     1
 40
0.0
 41
1.0
 50
0.0
 71
     0
 42
3.5
  3
ltypeshp.shx
  4

  0
STYLE
  2

 70
     1
 40
0.0
 41
1.0
 50
0.0
 71
     0
 42
4.0
  3
genltshp.shx
  4

  0
STYLE
  2
ACANSGDT
 70
     0
 40
0.0
 41
1.0
 50
0.0
 71
     0
 42
4.0
  3
amgdt.shx
  4

  0
ENDTAB
  0
TABLE
  2
VIEW
 70
     3
  0
VIEW
  2
AMDTVIEW1
 70
     0
 40
329.0721649484536
 10
210.0
 20
164.5360824742268
 41
420.0
 11
0.0
 21
0.0
 31
1.0
 12
0.0
 22
0.0
 32
0.0
 42
50.0
 43
0.0
 44
0.0
 50
0.0
 71
     0
  0
VIEW
  2
AMDTVIEW2
 70
     0
 40
329.0721649484536
 10
210.0
 20
164.5360824742268
 41
420.0
 11
0.0
 21
0.0
 31
1.0
 12
0.0
 22
0.0
 32
0.0
 42
50.0
 43
0.0
 44
0.0
 50
0.0
 71
     0
  0
VIEW
  2
AMDTVIEW3
 70
     0
 40
329.0721649484536
 10
210.0
 20
164.5360824742268
 41
420.0
 11
0.0
 21
0.0
 31
1.0
 12
0.0
 22
0.0
 32
0.0
 42
50.0
 43
0.0
 44
0.0
 50
0.0
 71
     0
  0
ENDTAB
  0
TABLE
  2
UCS
 70
     0
  0
ENDTAB
  0
TABLE
  2
APPID
 70
    65
  0
APPID
  2
ACAD
 70
     0
  0
APPID
  2
AD_DRAW
 70
     0
  0
APPID
  2
DESIGNERASSEMBLIES
 70
     0
  0
APPID
  2
MCAD_NO_VIS
 70
     0
  0
APPID
  2
ASURF_PCURVE_APPNAME
 70
     0
  0
APPID
  2
ACAD_TEMP_GRAPHIC
 70
     0
  0
APPID
  2
ACATTRIBSERVICES
 70
     0
  0
APPID
  2
ACADM_DIM_EDIT
 70
     0
  0
APPID
  2
GENIUS_GENDIM_13
 70
     0
  0
APPID
  2
GENIUS_GENDTOL_13
 70
     0
  0
APPID
  2
GENIUS_GE3DTOL_13
 70
     0
  0
APPID
  2
AMG_3D2D_5_0
 70
     0
  0
APPID
  2
AMDT_DM_ADJ
 70
     0
  0
APPID
  2
ACAD_PSEXT
 70
     0
  0
APPID
  2
ACAD_DSTYLE_DIMTEXT_FILL
 70
     0
  0
APPID
  2
ACAECLAYERSTANDARD
 70
     0
  0
APPID
  2
GENIUS_GENREC_14
 70
     0
  0
APPID
  2
GENIUS_GENODEF_13
 70
     0
  0
APPID
  2
GENIUS_GENOBJ-N-REC_13
 70
     0
  0
APPID
  2
DCO15
 70
     0
  0
APPID
  2
ACAD_DSTYLE_DIMJAG
 70
     0
  0
APPID
  2
ACAD_DSTYLE_DIMTALN
 70
     0
  0
APPID
  2
ACAD_MLEADERVER
 70
     0
  0
APPID
  2
GENIUS_GENSCREG_15
 70
     0
  0
APPID
  2
GENIUS_GENOBJ-N-SDF_13
 70
     0
  0
APPID
  2
ACAD_NAV_VCDISPLAY
 70
     0
  0
APPID
  2
ACAD_EXEMPT_FROM_CAD_STAND
 70
     0
  0
APPID
  2
ACCMTRANSPARENCY
 70
     0
  0
APPID
  2
GENIUS_GENOBJ-N-CEN_13
 70
     0
  0
APPID
  2
GENIUS_GENOBJ-N-FIL_13
 70
     0
  0
APPID
  2
GENIUS_GENCEN_19
 70
     0
  0
APPID
  2
ACAD_DSTYLE_DIMBREAK
 70
     0
  0
APPID
  2
PLOTTRANSPARENCY
 70
     0
  0
APPID
  2
GENIUS_GENOLIS_13
 70
     0
  0
APPID
  2
GENIUS_GENOENT_13
 70
     0
  0
APPID
  2
GENIUS_GENOBJ-N-CRS_13
 70
     0
  0
APPID
  2
GENIUS_GENOREF_13
 70
     0
  0
APPID
  2
HC_SUPERPART
 70
     0
  0
APPID
  2
HC_SP4BLOCK
 70
     0
  0
APPID
  2
HC_XDATA_SPRING
 70
     0
  0
APPID
  2
HCCAD_FRAME
 70
     0
  0
APPID
  2
GENIUS_GENOBJ-N-TIT_13
 70
     0
  0
APPID
  2
GENIUS_GENOBJ-N-ZOO_13
 70
     0
  0
APPID
  2
GENIUS_GENTITLE_13
 70
     0
  0
APPID
  2
GENIUS_GENSYMENT_13
 70
     0
  0
APPID
  2
GENIUS_GENSCSYM_13
 70
     0
  0
APPID
  2
GENIUS_GENOBJ-N-REV_13
 70
     0
  0
APPID
  2
GENIUS_GENOBJ-N-RSSYM_13
 70
     0
  0
APPID
  2
GENIUS_GENREV_15
 70
     0
  0
APPID
  2
HRA
 70
     0
  0
APPID
  2
HTIT
 70
     0
  0
APPID
  2
GENIUS_GENZOO_17
 70
     0
  0
APPID
  2
GENIUS_GENCRS_20
 70
     0
  0
APPID
  2
GENIUS_GENOBJ-N-CRC_13
 70
     0
  0
APPID
  2
GENIUS_GENCRC_14
 70
     0
  0
APPID
  2
GENIUS_GENFIL_13
 70
     0
  0
APPID
  2
GENIUS_GENOBJ-N-CHA_13
 70
     0
  0
APPID
  2
GENIUS_GENHATCH_13
 70
     0
  0
APPID
  2
GENIUS_GENOBJ-N-HTC_13
 70
     0
  0
APPID
  2
GENIUS_GENOBJ-N-DIM_13
 70
     0
  0
APPID
  2
GENIUS_GENOBJ-N-DIMLI_13
 70
     0
  0
APPID
  2
GENIUS_GENOBJ-N-FITL_13
 70
     0
  0
APPID
  2
GENIUS_GENFITL_13
 70
     0
  0
APPID
  2
GENLAYCOLOR
 70
     0
  0
APPID
  2
ACADANNOTATIVE
 70
     0
  0
ENDTAB
  0
TABLE
  2
DIMSTYLE
 70
    23
  0
DIMSTYLE
  2
STANDARD
 70
     0
  3

  4

  5

  6

  7

 40
1.0
 41
2.5
 42
0.625
 43
3.75
 44
1.25
 45
0.0
 46
0.0
 47
0.0
 48
0.0
140
2.5
141
2.5
142
0.0
143
0.0394
144
1.0
145
0.0
146
1.0
147
0.625
 71
     0
 72
     0
 73
     0
 74
     0
 75
     0
 76
     0
 77
     1
 78
     8
170
     0
171
     4
172
     1
173
     0
174
     0
175
     0
176
     0
177
     0
178
     0
  0
DIMSTYLE
  2
AM_JIS
 70
     0
  3

  4
"
  5
OPEN
  6

  7

 40
1.0
 41
2.5
 42
1.0
 43
7.0
 44
1.0
 45
0.0
 46
0.0
 47
0.1
 48
0.1
140
3.0
141
0.0
142
0.0
143
0.0393701
144
1.0
145
0.0
146
0.71
147
1.0
 71
     0
 72
     0
 73
     0
 74
     0
 75
     0
 76
     0
 77
     3
 78
     8
170
     0
171
     2
172
     1
173
     0
174
     0
175
     0
176
   256
177
   256
178
     2
  0
DIMSTYLE
  2
AM_JIS$3
 70
     0
  3

  4
"
  5
OPEN
  6

  7

 40
1.0
 41
2.5
 42
1.0
 43
10.0
 44
1.0
 45
0.0
 46
0.0
 47
0.1
 48
0.1
140
3.0
141
0.0
142
0.0
143
0.0393701
144
1.0
145
0.0
146
0.71
147
1.0
 71
     0
 72
     0
 73
     0
 74
     0
 75
     0
 76
     0
 77
     3
 78
     8
170
     0
171
     2
172
     1
173
     0
174
     0
175
     0
176
   256
177
   256
178
     2
  0
DIMSTYLE
  2
AM_JIS$4
 70
     0
  3

  4
"
  5

  6
OPEN30
  7
OPEN
 40
1.0
 41
2.5
 42
1.0
 43
10.0
 44
1.0
 45
0.0
 46
0.0
 47
0.1
 48
0.1
140
3.0
141
0.0
142
0.0
143
0.0393701
144
1.0
145
0.0
146
0.71
147
1.0
 71
     0
 72
     0
 73
     0
 74
     0
 75
     0
 76
     0
 77
     3
 78
     8
170
     0
171
     2
172
     1
173
     1
174
     0
175
     0
176
   256
177
   256
178
     2
  0
DIMSTYLE
  2
AM_JIS$6
 70
     0
  3

  4
"
  5
OPEN30
  6
OPEN30
  7
OPEN30
 40
1.0
 41
2.5
 42
1.0
 43
10.0
 44
1.0
 45
0.0
 46
0.0
 47
0.1
 48
0.1
140
3.5
141
0.0
142
0.0
143
0.0393701
144
1.0
145
0.0
146
0.71
147
1.5
 71
     0
 72
     0
 73
     0
 74
     0
 75
     0
 76
     0
 77
     0
 78
     8
170
     0
171
     2
172
     1
173
     0
174
     0
175
     0
176
   256
177
   256
178
     2
  0
DIMSTYLE
  2
AM_JIS$7
 70
     0
  3

  4
"
  5
OPEN30
  6

  7

 40
1.0
 41
2.5
 42
1.0
 43
10.0
 44
1.0
 45
0.0
 46
0.0
 47
0.1
 48
0.1
140
3.0
141
0.0
142
0.0
143
0.0393701
144
1.0
145
0.0
146
0.71
147
1.0
 71
     0
 72
     0
 73
     0
 74
     0
 75
     0
 76
     0
 77
     3
 78
     8
170
     0
171
     2
172
     1
173
     0
174
     0
175
     0
176
   256
177
   256
178
     2
  0
DIMSTYLE
  2
AM_JIS$SF
 70
     0
  3

  4
"
  5
OPEN
  6

  7

 40
1.0
 41
2.5
 42
1.0
 43
7.0
 44
1.0
 45
0.0
 46
0.0
 47
0.1
 48
0.1
140
3.5
141
0.0
142
0.0
143
0.0393701
144
1.0
145
0.0
146
0.71
147
1.5
 71
     0
 72
     0
 73
     0
 74
     0
 75
     1
 76
     1
 77
     3
 78
     8
170
     0
171
     2
172
     1
173
     0
174
     0
175
     0
176
   256
177
   256
178
     2
  0
DIMSTYLE
  2
AM_JIS$SH
 70
     0
  3

  4
"
  5

  6
GENAXEH
  7
OPEN
 40
1.0
 41
2.5
 42
1.0
 43
7.0
 44
1.0
 45
0.0
 46
0.0
 47
0.1
 48
0.1
140
3.5
141
0.0
142
0.0
143
0.0393701
144
2.0
145
0.0
146
0.71
147
1.5
 71
     0
 72
     0
 73
     0
 74
     0
 75
     1
 76
     1
 77
     3
 78
     8
170
     0
171
     2
172
     1
173
     1
174
     0
175
     0
176
   256
177
   256
178
     2
  0
DIMSTYLE
  2
AM_ISO
 70
     0
  3

  4
"
  5

  6

  7

 40
1.0
 41
2.5
 42
1.0
 43
10.0
 44
1.0
 45
0.0
 46
0.0
 47
0.1
 48
0.1
140
3.5
141
0.0
142
0.0
143
0.0393701
144
1.0
145
0.0
146
0.71
147
1.5
 71
     0
 72
     0
 73
     0
 74
     0
 75
     0
 76
     0
 77
     1
 78
     8
170
     0
171
     2
172
     1
173
     0
174
     0
175
     0
176
   256
177
   256
178
     2
  0
DIMSTYLE
  2
AM_ISO$3
 70
     0
  3

  4
"
  5

  6

  7

 40
1.0
 41
2.5
 42
1.0
 43
10.0
 44
1.0
 45
0.0
 46
0.0
 47
0.1
 48
0.1
140
3.5
141
0.0
142
0.0
143
0.0393701
144
1.0
145
0.0
146
0.71
147
1.5
 71
     0
 72
     0
 73
     0
 74
     1
 75
     0
 76
     0
 77
     1
 78
     8
170
     0
171
     2
172
     0
173
     0
174
     0
175
     0
176
   256
177
   256
178
     2
  0
DIMSTYLE
  2
AM_ISO$4
 70
     0
  3

  4
"
  5

  6

  7

 40
1.0
 41
2.5
 42
1.0
 43
10.0
 44
1.0
 45
0.0
 46
0.0
 47
0.1
 48
0.1
140
3.5
141
0.0
142
0.0
143
0.0393701
144
1.0
145
0.0
146
0.71
147
1.5
 71
     0
 72
     0
 73
     0
 74
     1
 75
     0
 76
     0
 77
     1
 78
     8
170
     0
171
     2
172
     0
173
     0
174
     0
175
     0
176
   256
177
   256
178
     2
  0
DIMSTYLE
  2
AM_ISO$6
 70
     0
  3

  4
"
  5

  6

  7

 40
1.0
 41
2.5
 42
1.0
 43
10.0
 44
1.0
 45
0.0
 46
0.0
 47
0.1
 48
0.1
140
3.5
141
0.0
142
0.0
143
0.0393701
144
1.0
145
0.0
146
0.71
147
1.5
 71
     0
 72
     0
 73
     0
 74
     0
 75
     0
 76
     0
 77
     0
 78
     8
170
     0
171
     2
172
     1
173
     0
174
     0
175
     0
176
   256
177
   256
178
     2
  0
DIMSTYLE
  2
AM_ISO$7
 70
     0
  3

  4
"
  5

  6

  7

 40
1.0
 41
2.5
 42
1.0
 43
10.0
 44
1.0
 45
0.0
 46
0.0
 47
0.1
 48
0.1
140
5.0
141
0.0
142
0.0
143
0.0393701
144
1.0
145
0.0
146
0.71
147
1.5
 71
     0
 72
     0
 73
     0
 74
     0
 75
     0
 76
     0
 77
     1
 78
     8
170
     0
171
     2
172
     1
173
     0
174
     0
175
     0
176
   256
177
   256
178
     2
  0
DIMSTYLE
  2
AM_ISO$SF
 70
     0
  3

  4
"
  5

  6

  7

 40
1.0
 41
2.5
 42
1.0
 43
10.0
 44
1.0
 45
0.0
 46
0.0
 47
0.1
 48
0.1
140
3.5
141
0.0
142
0.0
143
0.0393701
144
1.0
145
0.0
146
0.71
147
1.5
 71
     0
 72
     0
 73
     0
 74
     0
 75
     1
 76
     1
 77
     1
 78
     8
170
     0
171
     2
172
     1
173
     0
174
     0
175
     0
176
   256
177
   256
178
     2
  0
DIMSTYLE
  2
AM_ISO$SH
 70
     0
  3

  4
"
  5

  6
GENAXEH
  7

 40
1.0
 41
2.5
 42
1.0
 43
10.0
 44
1.0
 45
0.0
 46
0.0
 47
0.1
 48
0.1
140
3.5
141
0.0
142
0.0
143
0.0393701
144
2.0
145
0.0
146
0.71
147
1.5
 71
     0
 72
     0
 73
     0
 74
     0
 75
     1
 76
     1
 77
     1
 78
     8
170
     0
171
     2
172
     1
173
     1
174
     0
175
     0
176
   256
177
   256
178
     2
  0
DIMSTYLE
  2
AM_JIS$2
 70
     0
  3

  4
"
  5
OPEN
  6

  7

 40
1.0
 41
2.5
 42
1.0
 43
7.0
 44
1.0
 45
0.0
 46
0.0
 47
0.1
 48
0.1
140
3.0
141
0.0
142
0.0
143
0.0393701
144
1.0
145
0.0
146
0.71
147
1.0
 71
     0
 72
     0
 73
     0
 74
     0
 75
     0
 76
     0
 77
     3
 78
     8
170
     0
171
     2
172
     1
173
     0
174
     0
175
     0
176
   256
177
   256
178
     2
  0
DIMSTYLE
  2
AM_JIS$0
 70
     0
  3

  4
"
  5
OPEN
  6

  7

 40
1.0
 41
2.5
 42
1.0
 43
7.0
 44
1.0
 45
0.0
 46
0.0
 47
0.1
 48
0.1
140
3.0
141
0.0
142
0.0
143
0.0393701
144
1.0
145
0.0
146
0.71
147
1.0
 71
     0
 72
     0
 73
     0
 74
     0
 75
     0
 76
     0
 77
     3
 78
     8
170
     0
171
     2
172
     1
173
     0
174
     0
175
     0
176
   256
177
   256
178
     2
  0
DIMSTYLE
  2
AM_ANSI
 70
     0
  3

  4
mm
  5

  6

  7

 40
1.0
 41
0.12
 42
0.05
 43
0.5
 44
0.1
 45
0.0
 46
0.0
 47
0.1
 48
0.1
140
0.12
141
0.0
142
0.0
143
25.4
144
1.0
145
0.0
146
0.71
147
0.06
 71
     0
 72
     0
 73
     1
 74
     1
 75
     0
 76
     0
 77
     0
 78
     7
170
     0
171
     2
172
     0
173
     0
174
     0
175
     0
176
   256
177
   256
178
     2
  0
DIMSTYLE
  2
AM_ANSI$3
 70
     0
  3

  4
mm
  5

  6

  7

 40
1.0
 41
0.12
 42
0.05
 43
0.5
 44
0.1
 45
0.0
 46
0.0
 47
0.1
 48
0.1
140
0.12
141
0.0
142
0.0
143
25.4
144
1.0
145
0.0
146
0.71
147
0.06
 71
     0
 72
     0
 73
     1
 74
     1
 75
     0
 76
     0
 77
     0
 78
     7
170
     0
171
     2
172
     0
173
     0
174
     0
175
     0
176
   256
177
   256
178
     2
  0
DIMSTYLE
  2
AM_ANSI$4
 70
     0
  3

  4
mm
  5

  6

  7

 40
1.0
 41
0.12
 42
0.05
 43
0.5
 44
0.1
 45
0.0
 46
0.0
 47
0.1
 48
0.1
140
0.12
141
0.0
142
0.0
143
25.4
144
1.0
145
0.0
146
0.71
147
0.06
 71
     0
 72
     0
 73
     1
 74
     1
 75
     0
 76
     0
 77
     0
 78
     7
170
     0
171
     2
172
     0
173
     0
174
     0
175
     0
176
   256
177
   256
178
     2
  0
DIMSTYLE
  2
AM_ANSI$7
 70
     0
  3

  4
mm
  5

  6

  7

 40
1.0
 41
0.12
 42
0.05
 43
0.5
 44
0.1
 45
0.0
 46
0.0
 47
0.1
 48
0.1
140
0.12
141
0.0
142
0.0
143
25.4
144
1.0
145
0.0
146
0.71
147
0.06
 71
     0
 72
     0
 73
     1
 74
     1
 75
     0
 76
     0
 77
     0
 78
     7
170
     0
171
     2
172
     0
173
     0
174
     0
175
     0
176
   256
177
   256
178
     2
  0
DIMSTYLE
  2
AM_ANSI$SF
 70
     0
  3

  4
mm
  5

  6

  7

 40
1.0
 41
0.12
 42
0.05
 43
0.5
 44
0.1
 45
0.0
 46
0.0
 47
0.1
 48
0.1
140
0.12
141
0.0
142
0.0
143
25.4
144
1.0
145
0.0
146
0.71
147
0.06
 71
     0
 72
     0
 73
     1
 74
     1
 75
     1
 76
     1
 77
     0
 78
     7
170
     0
171
     2
172
     0
173
     0
174
     0
175
     0
176
   256
177
   256
178
     2
  0
DIMSTYLE
  2
AM_ANSI$SH
 70
     0
  3

  4
mm
  5

  6
GENAXEH
  7

 40
1.0
 41
0.12
 42
0.05
 43
0.5
 44
0.1
 45
0.0
 46
0.0
 47
0.1
 48
0.1
140
0.12
141
0.0
142
0.0
143
25.4
144
1.0
145
0.0
146
0.71
147
0.06
 71
     0
 72
     0
 73
     1
 74
     1
 75
     1
 76
     1
 77
     0
 78
     7
170
     0
171
     2
172
     0
173
     1
174
     0
175
     0
176
   256
177
   256
178
     2
  0
ENDTAB
  0
ENDSEC
  0
SECTION
  2
BLOCKS
  0
BLOCK
  8
0
  2
$MODEL_SPACE
 70
     0
 10
0.0
 20
0.0
 30
0.0
  3
$MODEL_SPACE
  1

  0
ENDBLK
  5
1C
  8
0
  0
BLOCK
 67
     1
  8
0
  2
$PAPER_SPACE
 70
     0
 10
0.0
 20
0.0
 30
0.0
  3
$PAPER_SPACE
  1

  0
ENDBLK
  5
19
 67
     1
  8
0
  0
BLOCK
  8
0
  2
_OPEN30
 70
     0
 10
0.0
 20
0.0
 30
0.0
  3
_OPEN30
  1

  0
LINE
  5
2EF
  8
0
  6
BYBLOCK
 62
     0
 10
-1.0
 20
0.26794919
 30
0.0
 11
0.0
 21
0.0
 31
0.0
  0
LINE
  5
2F0
  8
0
  6
BYBLOCK
 62
     0
 10
0.0
 20
0.0
 30
0.0
 11
-1.0
 21
-0.26794919
 31
0.0
  0
LINE
  5
2F1
  8
0
  6
BYBLOCK
 62
     0
 10
0.0
 20
0.0
 30
0.0
 11
-1.0
 21
0.0
 31
0.0
  0
ENDBLK
  5
2F3
  8
0
  0
BLOCK
  8
0
  2
GENAXEH
 70
     0
 10
0.0
 20
0.0
 30
0.0
  3
GENAXEH
  1

  0
LINE
  5
2F5
  8
0
 10
-1.0
 20
0.0
 30
0.0
 11
1.0
 21
0.0
 31
0.0
  0
ENDBLK
  5
2F7
  8
0
  0
BLOCK
  8
0
  2
_OPEN
 70
     0
 10
0.0
 20
0.0
 30
0.0
  3
_OPEN
  1

  0
LINE
  5
597
  8
0
  6
BYBLOCK
 62
     0
 10
-1.0
 20
0.1666666666666667
 30
0.0
 11
0.0
 21
0.0
 31
0.0
  0
LINE
  5
598
  8
0
  6
BYBLOCK
 62
     0
 10
-1.0
 20
-0.1666666666666667
 30
0.0
 11
0.0
 21
0.0
 31
0.0
  0
LINE
  5
599
  8
0
  6
BYBLOCK
 62
     0
 10
0.0
 20
0.0
 30
0.0
 11
-1.0
 21
0.0
 31
0.0
  0
ENDBLK
  5
59B
  8
0
  0
BLOCK
  8
0
  2
_TAGCIRCLE
 70
     2
 10
0.0
 20
0.0
 30
0.0
  3
_TAGCIRCLE
  1

  0
CIRCLE
  5
1151
  8
0
  6
BYBLOCK
 62
     0
 10
0.0
 20
0.0
 30
0.0
 40
4.0
  0
ATTDEF
  5
1152
  8
0
 62
     0
 10
-7.1
 20
-1.5
 30
0.0
 40
3.0
  1
タグ番号
 72
     1
 11
0.0
 21
-1.5
 31
0.0
  3
タグ番号を入力
  2
タグ番号
 70
     0
  0
ENDBLK
  5
1154
  8
0
  0
BLOCK
  8
0
  2
_ACMFILLED15
 70
     0
 10
0.0
 20
0.0
 30
0.0
  3
_ACMFILLED15
  1
Acad:XRef
  0
TRACE
  5
749B
  8
AM_0
 62
     0
 10
-1.0
 20
0.1316524975873958
 30
0.0
 11
-1.0
 21
-0.1316524975873958
 31
0.0
 12
0.0
 22
0.0
 32
0.0
 13
0.0
 23
0.0
 33
0.0
  0
ENDBLK
  5
7499
  8
0
  0
BLOCK
  8
0
  2
_ACMOPEN30
 70
     0
 10
0.0
 20
0.0
 30
0.0
  3
_ACMOPEN30
  1
Acad:XRef
  0
LINE
  5
74A5
  8
AM_0
 62
     0
 10
-1.0
 20
0.0
 30
0.0
 11
0.0
 21
0.0
 31
0.0
  0
LINE
  5
74A6
  8
AM_0
 62
     0
 10
-1.0
 20
-0.2679491924311227
 30
0.0
 11
0.0
 21
0.0
 31
0.0
  0
LINE
  5
74A7
  8
AM_0
 62
     0
 10
-1.0
 20
0.2679491924311227
 30
0.0
 11
0.0
 21
0.0
 31
0.0
  0
ENDBLK
  5
74A4
  8
0
  0
BLOCK
  8
0
  2
_ACMFILLEDHALF
 70
     0
 10
0.0
 20
0.0
 30
0.0
  3
_ACMFILLEDHALF
  1

  0
TRACE
  5
74B0
  8
0
 62
     0
 10
-0.8
 20
0.0
 30
0.0
 11
-1.0
 21
0.166666666
 31
0.0
 12
0.0
 22
0.0
 32
0.0
 13
0.0
 23
0.0
 33
0.0
  0
LINE
  5
74B1
  8
0
 62
     0
 10
-1.0
 20
0.0
 30
0.0
 11
-0.8
 21
0.0
 31
0.0
  0
ENDBLK
  5
74B2
  8
0
  0
BLOCK
  8
0
  2
_ACMOPEN15
 70
     0
 10
0.0
 20
0.0
 30
0.0
  3
_ACMOPEN15
  1
Acad:XRef
  0
LINE
  5
74BF
  8
AM_0
 62
     0
 10
-1.0
 20
0.0
 30
0.0
 11
0.0
 21
0.0
 31
0.0
  0
LINE
  5
74C0
  8
AM_0
 62
     0
 10
-1.0
 20
-0.1316524975873958
 30
0.0
 11
0.0
 21
0.0
 31
0.0
  0
LINE
  5
74C1
  8
AM_0
 62
     0
 10
-1.0
 20
0.1316524975873958
 30
0.0
 11
0.0
 21
0.0
 31
0.0
  0
ENDBLK
  5
74BE
  8
0
  0
BLOCK
  8
10
  2
*X13
 70
     1
 10
0.0
 20
0.0
 30
0.0
  3
*X13
  1
Acad:XRef
  0
TEXT
  5
9113
  8
0
 10
69.35713162404996
 20
206.6384461030275
 30
0.0
 40
1.9
  1
凍結
  0
TEXT
  5
9114
  8
0
 10
69.34303143852121
 20
203.314327364623
 30
0.0
 40
1.9
  1
予防
  0
ENDBLK
  5
9116
  8
10
  0
ENDSEC
  0
SECTION
  2
ENTITIES
  0
TEXT
  5
1AB1
  8
10
 10
-1.499993509006345
 20
0.0000050735020523
 30
0.0
 40
10.0
  1
2024.02.01 ER2000 1台単独
 11
-1.499993509006345
 21
0.0000050735020523
 31
0.0
 73
     1
  0
LINE
  5
1E7B
  8
0
 10
25.52186071078961
 20
289.8911362700035
 30
0.0
 11
125.5218607107896
 21
289.8911362700032
 31
0.0
  0
LINE
  5
1E7C
  8
0
 10
25.52186071078961
 20
169.8911362700033
 30
0.0
 11
125.5218607107896
 21
169.8911362700033
 31
0.0
  0
ARC
  5
1E7E
  8
0
 10
25.52186071078961
 20
281.8911362700035
 30
0.0
 40
8.0
 50
90.0
 51
180.0
  0
LINE
  5
1E7F
  8
0
 10
21.27922002367029
 20
286.1337769571226
 30
0.0
 11
29.52186071078961
 21
277.8911362700035
 31
0.0
  0
LINE
  5
1E80
  8
0
 10
31.52186071078961
 20
181.8911362700033
 30
0.0
 11
119.5218607107896
 21
181.8911362700035
 31
0.0
  0
LINE
  5
1E81
  8
0
 10
31.52186071078961
 20
277.8911362700035
 30
0.0
 11
119.5218607107896
 21
277.8911362700034
 31
0.0
  0
LINE
  5
1E84
  8
0
 10
29.52186071078961
 20
275.8911362700035
 30
0.0
 11
29.52186071078961
 21
183.8911362700033
 31
0.0
  0
LINE
  5
1E86
  8
0
 10
17.52186071078961
 20
281.8911362700035
 30
0.0
 11
17.52186071078961
 21
177.8911362700033
 31
0.0
  0
LINE
  5
1E87
  8
0
 10
21.27922002367052
 20
173.648495582884
 30
0.0
 11
29.52186071078961
 21
181.8911362700033
 31
0.0
  0
ARC
  5
1E88
  8
0
 10
25.52186071078961
 20
177.8911362700033
 30
0.0
 40
8.0
 50
180.0
 51
270.0
  0
LINE
  5
1E8A
  8
0
 10
189.5661038972002
 20
280.475921694233
 30
0.0
 11
190.8619899514808
 21
287.8252567141703
 31
0.0
  0
LINE
  5
1E8B
  8
0
 10
194.6103364875664
 20
169.8911362700033
 30
0.0
 11
194.6103364875665
 21
289.8911362700032
 31
0.0
  0
ARC
  5
1E8C
  8
0
 10
125.5218607107896
 20
281.8911362700032
 30
0.0
 40
8.0
 50
0.0
 51
90.0
  0
LINE
  5
1E8D
  8
0
 10
129.7645013979089
 20
286.1337769571226
 30
0.0
 11
121.5218607107896
 21
277.8911362700032
 31
0.0
  0
LINE
  5
1E8E
  8
0
 10
189.1103364875665
 20
184.5157961757808
 30
0.0
 11
189.1103364875665
 21
275.2664763642251
 31
0.0
  0
LINE
  5
1E8F
  8
0
 10
121.5218607107896
 20
275.8911362700034
 30
0.0
 11
121.5218607107896
 21
183.8911362700035
 31
0.0
  0
LINE
  5
1E90
  8
0
 10
133.5218607107896
 20
281.8911362700032
 30
0.0
 11
133.5218607107896
 21
177.8911362700033
 31
0.0
  0
LINE
  5
1E91
  8
0
 10
121.5218607107896
 20
181.8911362700034
 30
0.0
 11
129.7645013979089
 21
173.6484955828839
 31
0.0
  0
ARC
  5
1E92
  8
0
 10
125.5218607107896
 20
177.8911362700033
 30
0.0
 40
8.0
 50
270.0
 51
0.0
  0
LINE
  5
1E93
  8
0
 10
189.5661038972002
 20
179.306350845773
 30
0.0
 11
190.8619899514808
 21
171.9570158258361
 31
0.0
  0
ARC
  5
1E94
  8
0
 10
193.3240093340114
 20
172.3911362700034
 30
0.0
 40
2.5
 50
190.0000000000002
 51
270.0
  0
LINE
  5
1E95
  8
0
 10
194.6103364875665
 20
169.8911362700034
 30
0.0
 11
193.3240093340114
 21
169.8911362700034
 31
0.0
  0
ARC
  5
1E96
  8
0
 10
219.1103364875666
 20
184.5157961757808
 30
0.0
 40
30.0
 50
180.0
 51
190.0000000000002
  0
ARC
  5
1EA0
  8
0
 10
219.1103364875666
 20
275.2664763642251
 30
0.0
 40
30.0
 50
169.9999999999997
 51
180.0
  0
ARC
  5
1EA8
  8
0
 10
193.3240093340114
 20
287.391136270003
 30
0.0
 40
2.5
 50
90.0
 51
169.9999999999997
  0
LINE
  5
1EA9
  8
0
 10
194.6103364875599
 20
289.8911362700032
 30
0.0
 11
193.3240093340048
 21
289.8911362700032
 31
0.0
  0
ARC
  5
1EAA
  8
0
 10
186.4103366337813
 20
259.6911362700033
 30
0.0
 40
1.0
 50
90.0
 51
180.0
  0
LINE
  5
1EAB
  8
0
 10
186.4103366337813
 20
260.6911362700033
 30
0.0
 11
189.1103366337812
 21
260.6911362700033
 31
0.0
  0
LINE
  5
1EAC
  8
0
 10
186.4103366337813
 20
253.6911362700033
 30
0.0
 11
189.1103366337812
 21
253.6911362700033
 31
0.0
  0
LINE
  5
1EAD
  8
0
 10
185.4103366337813
 20
259.6911362700033
 30
0.0
 11
185.4103366337813
 21
254.6911362700033
 31
0.0
  0
ARC
  5
1EAE
  8
0
 10
186.4103366337813
 20
254.6911362700033
 30
0.0
 40
1.0
 50
180.0
 51
270.0
  0
LINE
  5
1ECD
  8
0
 10
125.5218614558477
 20
144.5475054339941
 30
0.0
 11
25.52185996573161
 21
144.5475054339941
 31
0.0
  0
LINE
  5
1ECE
  8
0
 10
125.5218614558477
 20
140.5475055932502
 30
0.0
 11
25.52185996573161
 21
140.5475055932502
 31
0.0
  0
LINE
  5
1ECF
  8
0
 10
17.52186237971972
 20
140.5475055932502
 30
0.0
 11
17.52186237971972
 21
144.5475054339941
 31
0.0
  0
LINE
  5
1ED0
  8
0
 10
25.52185996573161
 20
144.5475054339941
 30
0.0
 11
17.52186237971972
 21
144.5475054339941
 31
0.0
  0
LINE
  5
1ED1
  8
0
 10
25.52185996573161
 20
140.5475055932502
 30
0.0
 11
17.52186237971972
 21
140.5475055932502
 31
0.0
  0
LINE
  5
1ED2
  8
0
 10
133.5218590418596
 20
140.5475055932502
 30
0.0
 11
133.5218590418596
 21
144.5475054339941
 31
0.0
  0
LINE
  5
1ED3
  8
0
 10
133.5218590418596
 20
144.5475054339941
 30
0.0
 11
125.5218614558477
 21
144.5475054339941
 31
0.0
  0
LINE
  5
1ED4
  8
0
 10
133.5218590418596
 20
140.5475055932502
 30
0.0
 11
125.5218614558477
 21
140.5475055932502
 31
0.0
  0
LINE
  5
1ED5
  8
0
 10
18.62186237375926
 20
144.5475054339941
 30
0.0
 11
18.62186237375926
 21
145.0475054339912
 31
0.0
  0
LINE
  5
1ED6
  8
0
 10
132.4218590478201
 20
144.5475054339941
 30
0.0
 11
132.4218590478201
 21
145.0475054339912
 31
0.0
  0
LINE
  5
1ED7
  8
0
 10
118.5218621711035
 20
138.0475056491296
 30
0.0
 11
32.52185925047587
 21
138.0475056491296
 31
0.0
  0
LINE
  5
1ED8
  8
0
 10
120.521862498929
 20
140.5475055932502
 30
0.0
 11
120.521862498929
 21
138.0475056491296
 31
0.0
  0
LINE
  5
1ED9
  8
0
 10
120.521862498929
 20
138.0475056491296
 30
0.0
 11
118.5218621711035
 21
138.0475056491296
 31
0.0
  0
LINE
  5
1EDA
  8
0
 10
30.52185892265032
 20
138.0475056491296
 30
0.0
 11
30.52185892265032
 21
140.5475055932502
 31
0.0
  0
LINE
  5
1EDB
  8
0
 10
32.52185925047587
 20
138.0475056491296
 30
0.0
 11
30.52185892265032
 21
138.0475056491296
 31
0.0
  0
LINE
  5
1EDC
  8
0
 10
39.02186124723147
 20
150.5475053697328
 30
0.0
 11
112.0218601743479
 21
150.5475053697328
 31
0.0
  0
LINE
  5
1EDD
  8
0
 10
118.5218621711039
 20
118.5475052467982
 30
0.0
 11
50.02186118762728
 21
118.5475052467982
 31
0.0
  0
LINE
  5
1EDE
  8
0
 10
50.02186118762728
 20
118.5475052467982
 30
0.0
 11
40.15028893153902
 21
118.5475052467982
 31
0.0
  0
LINE
  5
1EDF
  8
0
 10
38.73607560198542
 20
119.1332922450702
 30
0.0
 11
33.52186127703425
 21
124.3475047073762
 31
0.0
  0
LINE
  5
1EE0
  8
0
 10
33.52186127703425
 20
124.3475047073762
 30
0.0
 11
33.10764624874827
 21
124.7617197356622
 31
0.0
  0
ARC
  5
1EE1
  8
0
 10
118.5218607107901
 20
120.5475054554145
 30
0.0
 40
2.000000000000028
 50
270.0
 51
0.0
  0
ARC
  5
1EE2
  8
0
 10
40.15028783553606
 20
120.5475054554145
 30
0.0
 40
2.0
 50
224.9999999999943
 51
270.0
  0
LINE
  5
1EE3
  8
0
 10
118.5218621711039
 20
137.5475055671732
 30
0.0
 11
32.52185925047633
 21
137.5475055671732
 31
0.0
  0
LINE
  5
1EE4
  8
0
 10
120.5218624989295
 20
137.5475055671732
 30
0.0
 11
118.5218621711039
 21
137.5475055671732
 31
0.0
  0
LINE
  5
1EE5
  8
0
 10
120.5218624989295
 20
137.5475055671732
 30
0.0
 11
120.5218624989295
 21
120.5475055746238
 31
0.0
  0
ARC
  5
1EE6
  8
0
 10
34.52186071079012
 20
126.1759325801607
 30
0.0
 40
2.0
 50
180.0
 51
224.9999999999943
  0
LINE
  5
1EE7
  8
0
 10
32.52185925047633
 20
126.1759330652158
 30
0.0
 11
32.52185925047633
 21
135.0475056230526
 31
0.0
  0
LINE
  5
1EE8
  8
0
 10
30.52185892265078
 20
135.0475056230526
 30
0.0
 11
30.52185892265078
 21
137.5475055671732
 31
0.0
  0
LINE
  5
1EE9
  8
0
 10
32.52185925047633
 20
137.5475055671732
 30
0.0
 11
30.52185892265078
 21
137.5475055671732
 31
0.0
  0
LINE
  5
1EEA
  8
0
 10
32.52185925047633
 20
135.0475056230526
 30
0.0
 11
30.52185892265078
 21
135.0475056230526
 31
0.0
  0
LINE
  5
1EEB
  8
0
 10
31.62185891669031
 20
137.5475055671732
 30
0.0
 11
31.62185891669031
 21
138.0475056491296
 31
0.0
  0
LINE
  5
1EEC
  8
0
 10
119.4218625048899
 20
137.5475055671732
 30
0.0
 11
119.4218625048899
 21
138.0475056491296
 31
0.0
  0
ARC
  5
1EED
  8
0
 10
114.7218607107899
 20
118.3475054554144
 30
0.0
 40
0.2000000000000171
 50
90.0
 51
180.0
  0
LINE
  5
1EEE
  8
0
 10
48.52186001043555
 20
118.5475052467982
 30
0.0
 11
48.52186001043555
 21
118.3475055865447
 31
0.0
  0
LINE
  5
1EEF
  8
0
 10
50.02186118762728
 20
118.3475055865447
 30
0.0
 11
50.02186118762728
 21
118.5475052467982
 31
0.0
  0
LINE
  5
1EF1
  8
0
 10
49.82186152737376
 20
109.6934550575416
 30
0.0
 11
48.40028702419039
 21
109.6934550575416
 31
0.0
  0
LINE
  5
1EF3
  8
0
 10
50.02186118762728
 20
110.5792583100001
 30
0.0
 11
48.59898655812975
 21
110.5792583100001
 31
0.0
  0
LINE
  5
1EF4
  8
0
 10
112.5218611876273
 20
109.5475056342284
 30
0.0
 11
50.02186118762728
 21
109.5475056342284
 31
0.0
  0
LINE
  5
1EF5
  8
0
 10
50.02186118762728
 20
110.5792583100001
 30
0.0
 11
50.02186118762728
 21
111.547505962054
 31
0.0
  0
LINE
  5
1EF6
  8
0
 10
50.02186118762728
 20
109.5475056342284
 30
0.0
 11
50.02186118762728
 21
109.6246154181163
 31
0.0
  0
LINE
  5
1EF7
  8
0
 10
47.73607335191008
 20
110.1332926325004
 30
0.0
 11
38.91496776740786
 21
118.9544000796477
 31
0.0
  0
LINE
  5
1EF8
  8
0
 10
48.52186001043555
 20
111.9695273361604
 30
0.0
 11
48.52186001043555
 21
110.9190792910258
 31
0.0
  0
ARC
  5
1EF9
  8
0
 10
112.5218607107901
 20
111.5475054554145
 30
0.0
 40
2.0
 50
270.0
 51
0.0
  0
LINE
  5
1EFA
  8
0
 10
48.52186001043555
 20
111.9695273361604
 30
0.0
 11
48.52186001043555
 21
118.3475055865447
 31
0.0
  0
LINE
  5
1EFB
  8
0
 10
114.5218615154528
 20
118.3475055865447
 30
0.0
 11
114.5218615154528
 21
111.547505962054
 31
0.0
  0
LINE
  5
1EFC
  8
0
 10
50.02186118762728
 20
118.3475055865447
 30
0.0
 11
50.02186118762728
 21
111.547505962054
 31
0.0
  0
ARC
  5
1EFE
  8
0
 10
49.15028783553606
 20
111.5475054554145
 30
0.0
 40
1.114196214777944
 50
235.6658476036729
 51
240.3436094009313
  0
ARC
  5
1EFF
  8
0
 10
49.15028783553606
 20
111.5475054554145
 30
0.0
 40
2.000000000000035
 50
224.9999999999946
 51
247.9756871629579
  0
ARC
  5
1F01
  8
0
 10
48.72186071078994
 20
111.2475054554145
 30
0.0
 40
0.2000000000000171
 50
180.0
 51
270.0
  0
LINE
  5
1F02
  8
0
 10
48.72186153333422
 20
111.047504948775
 30
0.0
 11
49.82186152737376
 21
111.047504948775
 31
0.0
  0
ARC
  5
1F03
  8
0
 10
49.8218607107903
 20
111.2475054554145
 30
0.0
 40
0.1999999999999886
 50
270.0
 51
0.0
  0
ARC
  5
1F04
  8
0
 10
49.15028783553606
 20
111.5475054554145
 30
0.0
 40
2.000000000000035
 50
247.9756871629579
 51
270.0
  0
LINE
  5
1F05
  8
0
 10
49.15028854410883
 20
109.5475056342284
 30
0.0
 11
50.02186118762728
 21
109.5475056342284
 31
0.0
  0
LINE
  5
1F06
  8
0
 10
48.52186001043555
 20
112.1759326330821
 30
0.0
 11
49.09170835416552
 21
111.6060842893521
 31
0.0
  0
LINE
  5
1F07
  8
0
 10
49.23312968712088
 20
111.547505962054
 30
0.0
 11
50.02186118762728
 21
111.547505962054
 31
0.0
  0
ARC
  5
1F08
  8
0
 10
49.23313054801037
 20
111.7475054554145
 30
0.0
 40
0.1999999999999895
 50
224.9999999999946
 51
270.0
  0
LINE
  5
1F09
  8
0
 10
32.52186071079012
 20
126.1759325801607
 30
0.0
 11
32.52185925047633
 21
125.3475063767091
 31
0.0
  0
LINE
  5
1F0A
  8
0
 10
32.52185925047633
 20
125.3475063767091
 30
0.0
 11
33.10760591473462
 21
124.7616794071774
 31
0.0
  0
LINE
  5
1F0B
  8
0
 10
52.96669090893414
 20
153.747138105097
 30
0.0
 11
51.96669090893437
 21
153.747138105097
 31
0.0
  0
LINE
  5
1F0C
  8
0
 10
53.96669090893437
 20
154.247138105097
 30
0.0
 11
52.96669090893437
 21
154.247138105097
 31
0.0
  0
LINE
  5
1F0D
  8
0
 10
51.96669090893437
 20
154.247138105097
 30
0.0
 11
50.96669090893437
 21
154.247138105097
 31
0.0
  0
LINE
  5
1F0E
  8
0
 10
51.96669090893437
 20
154.247138105097
 30
0.0
 11
51.96669090893437
 21
153.747138105097
 31
0.0
  0
LINE
  5
1F0F
  8
0
 10
54.96669090893437
 20
154.247138105097
 30
0.0
 11
54.96669090893437
 21
153.747138105097
 31
0.0
  0
LINE
  5
1F10
  8
0
 10
52.96669090893437
 20
154.247138105097
 30
0.0
 11
52.96669090893414
 21
153.747138105097
 31
0.0
  0
LINE
  5
1F11
  8
0
 10
53.96669090893437
 20
154.247138105097
 30
0.0
 11
53.96669090893437
 21
153.747138105097
 31
0.0
  0
LINE
  5
1F12
  8
0
 10
54.96669090893437
 20
153.747138105097
 30
0.0
 11
53.96669090893437
 21
153.747138105097
 31
0.0
  0
LINE
  5
1F13
  8
0
 10
56.96669090893431
 20
150.5475053697328
 30
0.0
 11
56.96669090893414
 21
153.247138105097
 31
0.0
  0
ARC
  5
1F14
  8
0
 10
55.96669090893414
 20
153.247138105097
 30
0.0
 40
1.0
 50
0.0
 51
90.0
  0
LINE
  5
1F15
  8
0
 10
55.96669090893414
 20
154.247138105097
 30
0.0
 11
54.96669090893437
 21
154.247138105097
 31
0.0
  0
LINE
  5
1F16
  8
0
 10
49.96669090893437
 20
150.5475053697328
 30
0.0
 11
49.96669090893437
 21
153.247138105097
 31
0.0
  0
ARC
  5
1F17
  8
0
 10
50.96669090893437
 20
153.247138105097
 30
0.0
 40
1.0
 50
90.0
 51
180.0
  0
ARC
  5
1F18
  8
0
 10
40.32185308139464
 20
117.5475167449059
 30
0.0
 40
0.3000000119209
 50
179.9980552173233
 51
314.9996865396511
  0
LINE
  5
1F19
  8
0
 10
40.02186147372885
 20
117.5475167449059
 30
0.0
 11
33.52186528842657
 21
124.047512930209
 31
0.0
  0
LINE
  5
1F1A
  8
0
 10
35.5017694632308
 20
119.239182394321
 30
0.0
 11
36.91598073642461
 21
120.6533974822109
 31
0.0
  0
LINE
  5
1F1B
  8
0
 10
36.91598073642461
 20
117.8249711211269
 30
0.0
 11
38.33019582431479
 21
119.239182394321
 31
0.0
  0
LINE
  5
1F1C
  8
0
 10
36.6331285635726
 20
117.8249787505219
 30
0.0
 11
35.50176564853354
 21
118.9563416655609
 31
0.0
  0
ARC
  5
1F1D
  8
0
 10
35.64318792026273
 20
119.0977677519869
 30
0.0
 40
0.2000000029802
 50
135.0000039841161
 51
224.9999996583493
  0
ARC
  5
1F1E
  8
0
 10
36.77455846469564
 20
117.9664010222499
 30
0.0
 40
0.2000000029802
 50
224.9999996583493
 51
314.9999987478128
  0
LINE
  5
1F1F
  8
0
 10
33.52185765903158
 20
124.0475053008149
 30
0.0
 11
33.52185765903158
 21
124.3475083253789
 31
0.0
  0
LINE
  5
1F20
  8
0
 10
133.5218607107893
 20
145.0475054339912
 30
0.0
 11
17.52186071078921
 21
145.0475054339912
 31
0.0
  0
ARC
  5
1F21
  8
0
 10
118.8972008050119
 20
120.5475054339912
 30
0.0
 40
30.0
 50
80.00000000000146
 51
90.0
  0
LINE
  5
1F22
  8
0
 10
118.8972008050119
 20
150.5475054339912
 30
0.0
 11
32.14652061656733
 21
150.5475054339912
 31
0.0
  0
ARC
  5
1F23
  8
0
 10
131.0218607107893
 20
146.3338325875464
 30
0.0
 40
2.5
 50
0.0
 51
80.00000000000146
  0
LINE
  5
1F24
  8
0
 10
133.5218607107893
 20
145.0475054339912
 30
0.0
 11
133.5218607107893
 21
146.3338325875464
 31
0.0
  0
LINE
  5
1F25
  8
0
 10
124.1066461350197
 20
150.0917380243574
 30
0.0
 11
131.4559811549566
 21
148.7958519700769
 31
0.0
  0
ARC
  5
1F26
  8
0
 10
32.14652061656733
 20
120.5475054339912
 30
0.0
 40
30.0
 50
90.0
 51
99.99999999999855
  0
ARC
  5
1F27
  8
0
 10
20.02186071078944
 20
146.3338325875463
 30
0.0
 40
2.5
 50
99.99999999999855
 51
180.0
  0
LINE
  5
1F28
  8
0
 10
26.93707528655949
 20
150.0917380243574
 30
0.0
 11
19.58774026662212
 21
148.7958519700768
 31
0.0
  0
LINE
  5
1F29
  8
0
 10
17.52186071078921
 20
145.0475054339978
 30
0.0
 11
17.52186071078921
 21
146.333832587553
 31
0.0
  0
LINE
  5
1F2A
  8
0
 10
202.1103363543845
 20
263.0161354131874
 30
0.0
 11
202.1103363543845
 21
197.0161357708152
 31
0.0
  0
LINE
  5
1F2B
  8
0
 10
202.1103363543845
 20
265.0161357410129
 30
0.0
 11
202.1103363543845
 21
263.0161354131874
 31
0.0
  0
LINE
  5
1F2C
  8
0
 10
202.1103363543845
 20
265.0161357410129
 30
0.0
 11
204.6103362985051
 21
265.0161357410129
 31
0.0
  0
LINE
  5
1F2D
  8
0
 10
204.6103362985051
 20
195.0161354429897
 30
0.0
 11
202.1103363543845
 21
195.0161354429897
 31
0.0
  0
LINE
  5
1F2E
  8
0
 10
202.1103363543845
 20
197.0161357708152
 30
0.0
 11
202.1103363543845
 21
195.0161354429897
 31
0.0
  0
LINE
  5
1F2F
  8
0
 10
202.1103363543845
 20
263.9161357469734
 30
0.0
 11
201.6103363543845
 21
263.9161357469734
 31
0.0
  0
LINE
  5
1F30
  8
0
 10
202.1103363543845
 20
196.1161354370292
 30
0.0
 11
201.6103363543845
 21
196.1161354370292
 31
0.0
  0
LINE
  5
1F31
  8
0
 10
204.6103362985051
 20
265.0161357410129
 30
0.0
 11
213.4819088563419
 21
265.0161357410129
 31
0.0
  0
LINE
  5
1F32
  8
0
 10
213.4819088563419
 20
195.0161354429897
 30
0.0
 11
204.6103362985051
 21
195.0161354429897
 31
0.0
  0
LINE
  5
1F33
  8
0
 10
213.4819088563419
 20
265.0161357410129
 30
0.0
 11
219.1103363469339
 21
265.0161357410129
 31
0.0
  0
LINE
  5
1F34
  8
0
 10
219.1103363469339
 20
195.0161354429897
 30
0.0
 11
213.4819088563419
 21
195.0161354429897
 31
0.0
  0
LINE
  5
1F35
  8
0
 10
228.1103359595037
 20
201.7661360837396
 30
0.0
 11
221.3103363350129
 21
201.7661360837396
 31
0.0
  0
ARC
  5
1F36
  8
0
 10
219.1103364661432
 20
197.0161355920013
 30
0.0
 40
2.0
 50
270.0
 51
0.0
  0
LINE
  5
1F37
  8
0
 10
221.1103366747594
 20
230.0161355920013
 30
0.0
 11
221.1103366747594
 21
197.0161357708152
 31
0.0
  0
ARC
  5
1F38
  8
0
 10
219.1103364661432
 20
263.0161355920013
 30
0.0
 40
2.0
 50
0.0
 51
90.0
  0
LINE
  5
1F39
  8
0
 10
221.1103366747594
 20
262.0161371119198
 30
0.0
 11
221.1103366747594
 21
230.0161355920013
 31
0.0
  0
LINE
  5
1F3A
  8
0
 10
221.3103363350129
 20
258.266135100263
 30
0.0
 11
228.1103362873292
 21
258.266135100263
 31
0.0
  0
ARC
  5
1F3B
  8
0
 10
221.310336466143
 20
201.5661355920013
 30
0.0
 40
0.1999999999999957
 50
90.0
 51
180.0
  0
ARC
  5
1F3C
  8
0
 10
221.310336466143
 20
258.4661355920013
 30
0.0
 40
0.2000000000000171
 50
180.0
 51
270.0
  0
LINE
  5
1F3D
  8
0
 10
230.1103362873292
 20
256.2661351002631
 30
0.0
 11
230.1103362873292
 21
203.7661364115652
 31
0.0
  0
ARC
  5
1F3E
  8
0
 10
228.1103364661432
 20
203.7661355920013
 30
0.0
 40
2.0
 50
270.0
 51
0.0
  0
LINE
  5
1F45
  8
0
 10
221.1103366747594
 20
263.0161354131874
 30
0.0
 11
221.1103366747594
 21
262.0161371119198
 31
0.0
  0
LINE
  5
1F47
  8
0
 10
199.1103364102638
 20
290.0161342508968
 30
0.0
 11
195.11033656952
 21
290.0161342508968
 31
0.0
  0
LINE
  5
1F48
  8
0
 10
195.11033656952
 20
290.0161342508968
 30
0.0
 11
195.11033656952
 21
282.0161366648849
 31
0.0
  0
LINE
  5
1F49
  8
0
 10
199.1103364102638
 20
290.0161342508968
 30
0.0
 11
199.1103364102638
 21
282.0161366648849
 31
0.0
  0
LINE
  5
1F4A
  8
0
 10
195.11033656952
 20
282.0161366648849
 30
0.0
 11
195.11033656952
 21
178.0161345191177
 31
0.0
  0
LINE
  5
1F4B
  8
0
 10
199.1103364102638
 20
282.0161366648849
 30
0.0
 11
199.1103364102638
 21
178.0161345191177
 31
0.0
  0
LINE
  5
1F4C
  8
0
 10
199.1103364102638
 20
170.0161369331058
 30
0.0
 11
195.11033656952
 21
170.0161369331058
 31
0.0
  0
LINE
  5
1F4D
  8
0
 10
195.11033656952
 20
178.0161345191177
 30
0.0
 11
195.11033656952
 21
170.0161369331058
 31
0.0
  0
LINE
  5
1F4E
  8
0
 10
199.1103364102638
 20
178.0161345191177
 30
0.0
 11
199.1103364102638
 21
170.0161369331058
 31
0.0
  0
LINE
  5
1F50
  8
0
 10
195.11033656952
 20
171.1161369271453
 30
0.0
 11
194.6103364875663
 21
171.1161369271453
 31
0.0
  0
LINE
  5
1F52
  8
0
 10
195.11033656952
 20
288.9161342568573
 30
0.0
 11
194.6103364875665
 21
288.9161342568573
 31
0.0
  0
LINE
  5
1F54
  8
0
 10
201.6103363543845
 20
263.0161354131874
 30
0.0
 11
201.6103363543845
 21
197.0161357708152
 31
0.0
  0
LINE
  5
1F55
  8
0
 10
201.6103363543845
 20
195.0161354429897
 30
0.0
 11
199.1103364102638
 21
195.0161354429897
 31
0.0
  0
LINE
  5
1F56
  8
0
 10
201.6103363543845
 20
197.0161357708152
 30
0.0
 11
201.6103363543845
 21
195.0161354429897
 31
0.0
  0
LINE
  5
1F57
  8
0
 10
199.1103364102638
 20
265.0161357410129
 30
0.0
 11
201.6103363543845
 21
265.0161357410129
 31
0.0
  0
LINE
  5
1F58
  8
0
 10
201.6103363543845
 20
265.0161357410129
 30
0.0
 11
201.6103363543845
 21
263.0161354131874
 31
0.0
  0
LINE
  5
1F69
  8
0
 10
201.6103363543845
 20
263.0161354131874
 30
0.0
 11
201.6103363543845
 21
197.0161357708152
 31
0.0
  0
LINE
  5
220E
  8
7
 10
12.72786071078952
 20
229.8911362700034
 30
0.0
 11
138.3158607107895
 21
229.8911362700031
 31
0.0
1001
GENIUS_GENOBJ-N-CEN_13
1002
{
1000
OWNER
1000
GEN
1002
}
1001
GENIUS_GENODEF_13
1002
{
1000
HIER
1070
     0
1002
}
1002
{
1000
MANEDIT
1070
     0
1002
}
1002
{
1000
NOSEL
1070
     0
1002
}
1002
{
1000
BEHIND
1070
     0
1002
}
1002
{
1000
OTHER
1070
     0
1002
}
1002
{
1000
REACTOR
1002
}
1001
GENIUS_GENCEN_19
1002
{
1040
2.794
1002
}
  0
LINE
  5
220F
  8
7
 10
75.52186071078961
 20
294.6851362700035
 30
0.0
 11
75.52186071078961
 21
165.0971362700033
 31
0.0
1001
GENIUS_GENOBJ-N-CEN_13
1002
{
1000
OWNER
1000
GEN
1002
}
1001
GENIUS_GENODEF_13
1002
{
1000
HIER
1070
     0
1002
}
1002
{
1000
MANEDIT
1070
     0
1002
}
1002
{
1000
NOSEL
1070
     0
1002
}
1002
{
1000
BEHIND
1070
     0
1002
}
1002
{
1000
OTHER
1070
     0
1002
}
1002
{
1000
REACTOR
1002
}
1001
GENIUS_GENCEN_19
1002
{
1040
2.794
1002
}
  0
CIRCLE
  5
7246
  8
3A
 10
98.52186071078961
 20
177.8911362700033
 30
0.0
 40
4.0
  0
CIRCLE
  5
7247
  8
3A
 10
98.52186071078961
 20
177.8911362700033
 30
0.0
 40
2.5
  0
CIRCLE
  5
7248
  8
3A
 10
98.52186071078961
 20
281.8911362700032
 30
0.0
 40
2.5
  0
CIRCLE
  5
7249
  8
3A
 10
98.52186071078961
 20
281.8911362700032
 30
0.0
 40
4.0
  0
CIRCLE
  5
724A
  8
3A
 10
52.52186071078961
 20
281.8911362700032
 30
0.0
 40
4.0
  0
CIRCLE
  5
724B
  8
3A
 10
52.52186071078961
 20
281.8911362700032
 30
0.0
 40
2.5
  0
CIRCLE
  5
724C
  8
3A
 10
52.52186071078961
 20
177.8911362700033
 30
0.0
 40
4.0
  0
CIRCLE
  5
724D
  8
3A
 10
52.52186071078961
 20
177.8911362700033
 30
0.0
 40
2.5
  0
LINE
  5
7255
  8
7
 10
52.52186071078961
 20
281.8911362700032
 30
0.0
 11
59.31586071078961
 21
281.8911362700032
 31
0.0
1001
GENIUS_GENOREF_13
1005
7259
  0
LINE
  5
7256
  8
7
 10
52.52186071078961
 20
281.8911362700032
 30
0.0
 11
52.52186071078961
 21
288.6851362700032
 31
0.0
1001
GENIUS_GENOREF_13
1005
7259
  0
LINE
  5
7257
  8
7
 10
52.52186071078961
 20
281.8911362700032
 30
0.0
 11
45.72786071078961
 21
281.8911362700032
 31
0.0
1001
GENIUS_GENOREF_13
1005
7259
  0
LINE
  5
7258
  8
7
 10
52.52186071078961
 20
281.8911362700032
 30
0.0
 11
52.52186071078961
 21
275.0971362700033
 31
0.0
1001
GENIUS_GENOREF_13
1005
7259
  0
POINT
  5
7259
  8
0
 10
0.0
 20
0.0
 30
0.0
1001
GENIUS_GENOLIS_13
1002
{
1000
ENT
1005
7258
1005
7257
1005
7256
1005
7255
1002
}
1001
GENIUS_GENOENT_13
1002
{
1000
MYREF
1005
7259
1002
}
1002
{
1000
GRP
1005
0
1002
}
1001
GENIUS_GENOBJ-N-CRS_13
1002
{
1000
OWNER
1000
GEN
1002
}
1001
GENIUS_GENODEF_13
1002
{
1000
HIER
1070
    10
1002
}
1002
{
1000
MANEDIT
1070
     0
1002
}
1002
{
1000
NOSEL
1070
     0
1002
}
1002
{
1000
BEHIND
1070
     0
1002
}
1002
{
1000
OTHER
1070
     0
1002
}
1002
{
1000
REACTOR
1002
}
  0
LINE
  5
725E
  8
7
 10
98.52186071078961
 20
281.8911362700032
 30
0.0
 11
105.3158607107896
 21
281.8911362700032
 31
0.0
1001
GENIUS_GENOREF_13
1005
7262
  0
LINE
  5
725F
  8
7
 10
98.52186071078961
 20
281.8911362700032
 30
0.0
 11
98.52186071078961
 21
288.6851362700032
 31
0.0
1001
GENIUS_GENOREF_13
1005
7262
  0
LINE
  5
7260
  8
7
 10
98.52186071078961
 20
281.8911362700032
 30
0.0
 11
91.72786071078961
 21
281.8911362700032
 31
0.0
1001
GENIUS_GENOREF_13
1005
7262
  0
LINE
  5
7261
  8
7
 10
98.52186071078961
 20
281.8911362700032
 30
0.0
 11
98.52186071078961
 21
275.0971362700033
 31
0.0
1001
GENIUS_GENOREF_13
1005
7262
  0
POINT
  5
7262
  8
0
 10
0.0
 20
0.0
 30
0.0
1001
GENIUS_GENOLIS_13
1002
{
1000
ENT
1005
7261
1005
7260
1005
725F
1005
725E
1002
}
1001
GENIUS_GENOENT_13
1002
{
1000
MYREF
1005
7262
1002
}
1002
{
1000
GRP
1005
0
1002
}
1001
GENIUS_GENOBJ-N-CRS_13
1002
{
1000
OWNER
1000
GEN
1002
}
1001
GENIUS_GENODEF_13
1002
{
1000
HIER
1070
    10
1002
}
1002
{
1000
MANEDIT
1070
     0
1002
}
1002
{
1000
NOSEL
1070
     0
1002
}
1002
{
1000
BEHIND
1070
     0
1002
}
1002
{
1000
OTHER
1070
     0
1002
}
1002
{
1000
REACTOR
1002
}
  0
LINE
  5
7263
  8
7
 10
52.52186071078961
 20
177.8911362700033
 30
0.0
 11
59.31586071078961
 21
177.8911362700033
 31
0.0
1001
GENIUS_GENOREF_13
1005
7267
  0
LINE
  5
7264
  8
7
 10
52.52186071078961
 20
177.8911362700033
 30
0.0
 11
52.52186071078961
 21
184.6851362700033
 31
0.0
1001
GENIUS_GENOREF_13
1005
7267
  0
LINE
  5
7265
  8
7
 10
52.52186071078961
 20
177.8911362700033
 30
0.0
 11
45.72786071078961
 21
177.8911362700033
 31
0.0
1001
GENIUS_GENOREF_13
1005
7267
  0
LINE
  5
7266
  8
7
 10
52.52186071078961
 20
177.8911362700033
 30
0.0
 11
52.52186071078961
 21
171.0971362700033
 31
0.0
1001
GENIUS_GENOREF_13
1005
7267
  0
POINT
  5
7267
  8
0
 10
0.0
 20
0.0
 30
0.0
1001
GENIUS_GENODEF_13
1002
{
1000
HIER
1070
    10
1002
}
1002
{
1000
MANEDIT
1070
     0
1002
}
1002
{
1000
NOSEL
1070
     0
1002
}
1002
{
1000
BEHIND
1070
     0
1002
}
1002
{
1000
OTHER
1070
     0
1002
}
1002
{
1000
REACTOR
1002
}
1001
GENIUS_GENOBJ-N-CRS_13
1002
{
1000
OWNER
1000
GEN
1002
}
1001
GENIUS_GENOENT_13
1002
{
1000
MYREF
1005
7267
1002
}
1002
{
1000
GRP
1005
0
1002
}
1001
GENIUS_GENOLIS_13
1002
{
1000
ENT
1005
7266
1005
7265
1005
7264
1005
7263
1002
}
  0
LINE
  5
7268
  8
7
 10
98.52186071078961
 20
177.8911362700033
 30
0.0
 11
105.3158607107896
 21
177.8911362700033
 31
0.0
1001
GENIUS_GENOREF_13
1005
726C
  0
LINE
  5
7269
  8
7
 10
98.52186071078961
 20
177.8911362700033
 30
0.0
 11
98.52186071078961
 21
184.6851362700033
 31
0.0
1001
GENIUS_GENOREF_13
1005
726C
  0
LINE
  5
726A
  8
7
 10
98.52186071078961
 20
177.8911362700033
 30
0.0
 11
91.72786071078961
 21
177.8911362700033
 31
0.0
1001
GENIUS_GENOREF_13
1005
726C
  0
LINE
  5
726B
  8
7
 10
98.52186071078961
 20
177.8911362700033
 30
0.0
 11
98.52186071078961
 21
171.0971362700033
 31
0.0
1001
GENIUS_GENOREF_13
1005
726C
  0
POINT
  5
726C
  8
0
 10
0.0
 20
0.0
 30
0.0
1001
GENIUS_GENODEF_13
1002
{
1000
HIER
1070
    10
1002
}
1002
{
1000
MANEDIT
1070
     0
1002
}
1002
{
1000
NOSEL
1070
     0
1002
}
1002
{
1000
BEHIND
1070
     0
1002
}
1002
{
1000
OTHER
1070
     0
1002
}
1002
{
1000
REACTOR
1002
}
1001
GENIUS_GENOBJ-N-CRS_13
1002
{
1000
OWNER
1000
GEN
1002
}
1001
GENIUS_GENOENT_13
1002
{
1000
MYREF
1005
726C
1002
}
1002
{
1000
GRP
1005
0
1002
}
1001
GENIUS_GENOLIS_13
1002
{
1000
ENT
1005
726B
1005
726A
1005
7269
1005
7268
1002
}
  0
LINE
  5
726D
  8
7
 10
235.1103362873292
 20
230.0161355920013
 30
0.0
 11
184.1103364875665
 21
230.0161355920013
 31
0.0
1001
GENIUS_GENOBJ-N-CEN_13
1002
{
1000
OWNER
1000
GEN
1002
}
1001
GENIUS_GENODEF_13
1002
{
1000
HIER
1070
     0
1002
}
1002
{
1000
MANEDIT
1070
     0
1002
}
1002
{
1000
NOSEL
1070
     0
1002
}
1002
{
1000
BEHIND
1070
     0
1002
}
1002
{
1000
OTHER
1070
     0
1002
}
1002
{
1000
REACTOR
1002
}
1001
GENIUS_GENCEN_19
1002
{
1040
2.794
1002
}
  0
LINE
  5
726E
  8
7
 10
75.52186071078967
 20
104.5475056342284
 30
0.0
 11
75.52186071078967
 21
155.5475054339912
 31
0.0
1001
GENIUS_GENOBJ-N-CEN_13
1002
{
1000
OWNER
1000
GEN
1002
}
1001
GENIUS_GENODEF_13
1002
{
1000
HIER
1070
     0
1002
}
1002
{
1000
MANEDIT
1070
     0
1002
}
1002
{
1000
NOSEL
1070
     0
1002
}
1002
{
1000
BEHIND
1070
     0
1002
}
1002
{
1000
OTHER
1070
     0
1002
}
1002
{
1000
REACTOR
1002
}
1001
GENIUS_GENCEN_19
1002
{
1040
2.794
1002
}
  0
LINE
  5
7354
  8
0
 10
48.59898646148982
 20
110.5792596188625
 30
0.0
 11
48.40028702419039
 21
109.6934550575416
 31
0.0
  0
LINE
  5
7355
  8
0
 10
50.02186118762728
 20
109.5475056342284
 30
0.0
 11
50.02186118762728
 21
109.6246154181163
 31
0.0
  0
ARC
  5
7356
  8
0
 10
49.99818192784456
 20
109.6234257302165
 30
0.0
 40
0.0237091269589662
 50
2.876222857360828
 51
43.43589811605213
  0
ARC
  5
7357
  8
0
 10
49.93342100675543
 20
109.5593603589565
 30
0.0
 40
0.1147998884239122
 50
44.43153582575101
 51
70.88950362693414
  0
ARC
  5
7358
  8
0
 10
49.82917264239178
 20
109.2891290601922
 30
0.0
 40
0.4043928833089286
 50
69.46801332213882
 51
91.03603616465543
  0
LINE
  5
7359
  8
0
 10
48.59898655812975
 20
110.5792583100001
 30
0.0
 11
48.52186071079012
 21
110.6274442868451
 31
0.0
  0
LINE
  5
735A
  8
0
 10
48.52186071079012
 20
110.6274442868451
 30
0.0
 11
48.52186071079012
 21
110.9190783306683
 31
0.0
  0
LINE
  5
735B
  8
0
 10
38.91496776740786
 20
118.9544000796477
 30
0.0
 11
38.73607560198542
 21
119.1332922450702
 31
0.0
  0
ARC
  5
7392
  8
0
 10
228.1103362873292
 20
256.2661351002631
 30
0.0
 40
2.0
 50
0.0
 51
90.0
  0
LINE
  5
870E
  8
0
 10
38.27186071078958
 20
264.9911362700033
 30
0.0
 11
112.7718607107896
 21
264.9911362700033
 31
0.0
  0
LINE
  5
870F
  8
0
 10
38.27186071078958
 20
194.7911362700032
 30
0.0
 11
112.7718607107896
 21
194.7911362700032
 31
0.0
  0
LINE
  5
8710
  8
0
 10
38.27186071078958
 20
264.9911362700033
 30
0.0
 11
38.27186071078958
 21
194.7911362700032
 31
0.0
  0
LINE
  5
8711
  8
0
 10
112.7718607107896
 20
264.9911362700033
 30
0.0
 11
112.7718607107896
 21
194.7911362700032
 31
0.0
  0
LINE
  5
8712
  8
0
 10
112.0218601743478
 20
195.3911371342706
 30
0.0
 11
112.0218601743478
 21
264.3911354057359
 31
0.0
  0
LINE
  5
8713
  8
0
 10
39.02186124723139
 20
195.3911371342706
 30
0.0
 11
112.0218601743478
 21
195.3911371342706
 31
0.0
  0
LINE
  5
8714
  8
0
 10
39.02186124723139
 20
264.3911354057359
 30
0.0
 11
39.02186124723139
 21
195.3911371342706
 31
0.0
  0
LINE
  5
8715
  8
0
 10
112.0218601743478
 20
264.3911354057359
 30
0.0
 11
39.02186124723139
 21
264.3911354057359
 31
0.0
  0
LINE
  5
8716
  8
0
 10
40.52186056177797
 20
196.8911364488172
 30
0.0
 11
110.5218608598012
 21
196.8911364488172
 31
0.0
  0
LINE
  5
8717
  8
0
 10
110.5218608598012
 20
196.8911364488172
 30
0.0
 11
110.5218608598012
 21
262.8911360911893
 31
0.0
  0
LINE
  5
8718
  8
0
 10
110.5218608598012
 20
262.8911360911893
 30
0.0
 11
65.521860934307
 21
262.8911360911893
 31
0.0
  0
LINE
  5
8719
  8
0
 10
40.52186056177797
 20
250.8911359868812
 30
0.0
 11
65.521860934307
 21
250.8911359868812
 31
0.0
  0
LINE
  5
871A
  8
0
 10
40.52186056177797
 20
250.8911359868812
 30
0.0
 11
40.52186056177797
 21
196.8911364488172
 31
0.0
  0
LINE
  5
871B
  8
0
 10
47.32186018626871
 20
253.191135805087
 30
0.0
 11
57.32185996275129
 21
253.191135805087
 31
0.0
  0
LINE
  5
871C
  8
0
 10
57.32185996275129
 20
253.191135805087
 30
0.0
 11
57.32185996275129
 21
261.1911371163892
 31
0.0
  0
LINE
  5
871D
  8
0
 10
57.32185996275129
 20
261.1911371163892
 30
0.0
 11
47.32186018626871
 21
261.1911371163892
 31
0.0
  0
LINE
  5
871E
  8
0
 10
47.32186018626871
 20
261.1911371163892
 30
0.0
 11
47.32186018626871
 21
253.191135805087
 31
0.0
  0
LINE
  5
871F
  8
0
 10
65.521860934307
 20
250.8911359868812
 30
0.0
 11
65.521860934307
 21
262.8911360911893
 31
0.0
  0
LINE
  5
8720
  8
0
 10
112.5218611876267
 20
194.8911361209916
 30
0.0
 11
112.5218611876267
 21
264.8911364190149
 31
0.0
  0
LINE
  5
8721
  8
0
 10
38.52186023395242
 20
194.8911361209916
 30
0.0
 11
112.5218611876267
 21
194.8911361209916
 31
0.0
  0
LINE
  5
8722
  8
0
 10
38.52186023395242
 20
264.8911364190149
 30
0.0
 11
38.52186023395242
 21
194.8911361209916
 31
0.0
  0
LINE
  5
8723
  8
0
 10
112.5218611876267
 20
264.8911364190149
 30
0.0
 11
38.52186023395242
 21
264.8911364190149
 31
0.0
  0
ARC
  5
8724
  8
0
 10
48.72186007450998
 20
259.691135805087
 30
0.0
 40
1.0
 50
90.0
 51
180.0
  0
ARC
  5
8725
  8
0
 10
53.72186007450998
 20
259.691135805087
 30
0.0
 40
1.0
 50
0.0
 51
90.0
  0
LINE
  5
8726
  8
0
 10
48.72186007450998
 20
260.691135805087
 30
0.0
 11
53.72186007450998
 21
260.691135805087
 31
0.0
  0
LINE
  5
8727
  8
0
 10
53.72186007450998
 20
253.6911358050871
 30
0.0
 11
48.72186007450998
 21
253.691135805087
 31
0.0
  0
ARC
  5
8728
  8
0
 10
48.72186007450998
 20
254.691135805087
 30
0.0
 40
1.0
 50
180.0
 51
270.0000000000016
  0
ARC
  5
8729
  8
0
 10
53.72186007450998
 20
254.6911358050871
 30
0.0
 40
1.0
 50
270.0
 51
0.0
  0
LINE
  5
872A
  8
0
 10
52.72186007450998
 20
253.6911358050871
 30
0.0
 11
52.72186007450998
 21
260.691135805087
 31
0.0
  0
LINE
  5
872B
  8
0
 10
51.72186007450998
 20
253.691135805087
 30
0.0
 11
51.72186007450998
 21
260.691135805087
 31
0.0
  0
LINE
  5
872C
  8
0
 10
50.72186007450998
 20
253.6911358050869
 30
0.0
 11
50.72186007450998
 21
260.691135805087
 31
0.0
  0
LINE
  5
872D
  8
0
 10
49.72186007450998
 20
253.6911358050869
 30
0.0
 11
49.72186007450998
 21
260.691135805087
 31
0.0
  0
LINE
  5
872E
  8
0
 10
47.72186007450998
 20
254.691135805087
 30
0.0
 11
47.72186007450998
 21
259.691135805087
 31
0.0
  0
LINE
  5
872F
  8
0
 10
54.72186007450998
 20
259.691135805087
 30
0.0
 11
54.72186007450998
 21
254.6911358050871
 31
0.0
  0
LINE
  5
8730
  8
0
 10
65.771860934307
 20
262.6411362700034
 30
0.0
 11
110.2718607107896
 21
262.6411362700032
 31
0.0
  0
LINE
  5
8731
  8
0
 10
110.2718607107896
 20
262.6411362700032
 30
0.0
 11
110.2718607107896
 21
197.1411362700032
 31
0.0
  0
LINE
  5
8732
  8
0
 10
40.77186071078958
 20
197.1411362700034
 30
0.0
 11
40.77186071078958
 21
250.6411359868812
 31
0.0
  0
LINE
  5
8733
  8
0
 10
110.2718607107896
 20
197.1411362700032
 30
0.0
 11
40.77186071078958
 21
197.1411362700034
 31
0.0
  0
LINE
  5
8734
  8
0
  6
CONTINUOUS
 10
65.771860934307
 20
250.6411359868812
 30
0.0
 11
65.771860934307
 21
262.6411362700034
 31
0.0
  0
LINE
  5
8735
  8
0
  6
CONTINUOUS
 10
40.77186071078958
 20
250.6411359868812
 30
0.0
 11
65.771860934307
 21
250.6411359868812
 31
0.0
  0
LINE
  5
8746
  8
0
 10
50.98249511685671
 20
232.063287217329
 30
0.0
 11
52.12611815685668
 21
232.063287217329
 31
0.0
  0
LINE
  5
8747
  8
0
 10
52.12611815685668
 20
232.063287217329
 30
0.0
 11
52.12611815685668
 21
226.1082673773288
 31
0.0
  0
LINE
  5
8748
  8
0
 10
52.12611815685668
 20
226.1082673773288
 30
0.0
 11
50.98249511685671
 21
226.1082673773288
 31
0.0
  0
LINE
  5
8749
  8
0
 10
50.98249511685671
 20
226.1082673773288
 30
0.0
 11
50.98249511685671
 21
232.063287217329
 31
0.0
  0
LINE
  5
874A
  8
0
 10
59.90707287685709
 20
230.4253051373288
 30
0.0
 11
61.05049879685666
 21
230.4253051373288
 31
0.0
  0
LINE
  5
874B
  8
0
 10
61.05049879685666
 20
230.4253051373288
 30
0.0
 11
61.05049879685666
 21
226.1082673773288
 31
0.0
  0
LINE
  5
874C
  8
0
 10
61.05049879685666
 20
226.1082673773288
 30
0.0
 11
59.90707287685709
 21
226.1082673773288
 31
0.0
  0
LINE
  5
874D
  8
0
 10
59.90707287685709
 20
226.1082673773288
 30
0.0
 11
59.90707287685709
 21
230.4253051373288
 31
0.0
  0
LINE
  5
874E
  8
0
 10
60.13497527795889
 20
230.9231380388254
 30
0.0
 11
60.04352135685676
 21
230.8550603373291
 31
0.0
  0
LINE
  5
874F
  8
0
 10
60.04352135685676
 20
230.8550603373291
 30
0.0
 11
60.06822017909107
 21
230.9527546280314
 31
0.0
  0
LINE
  5
8750
  8
0
 10
59.87502185810453
 20
231.9529162407306
 30
0.0
 11
59.80713191685672
 21
232.0440568173289
 31
0.0
  0
LINE
  5
8751
  8
0
 10
59.80713191685672
 20
232.0440568173289
 30
0.0
 11
59.90488425292969
 21
232.0193807765539
 31
0.0
  0
LINE
  5
8752
  8
0
 10
60.90499310420645
 20
232.2126296407763
 30
0.0
 11
60.99606231685684
 21
232.2804473773293
 31
0.0
  0
LINE
  5
8753
  8
0
 10
60.99606231685684
 20
232.2804473773293
 30
0.0
 11
60.9713971344614
 21
232.1825671242276
 31
0.0
  0
LINE
  5
8754
  8
0
 10
61.16516338733126
 20
231.1824874828752
 30
0.0
 11
61.23277767685667
 21
231.0916457773291
 31
0.0
  0
LINE
  5
8755
  8
0
 10
61.23277767685667
 20
231.0916457773291
 30
0.0
 11
61.13502475627783
 21
231.116295918141
 31
0.0
  0
LINE
  5
8756
  8
0
 10
60.70367401377379
 20
230.8393341306254
 30
0.0
 11
60.68724023685681
 21
230.7270219373294
 31
0.0
  0
LINE
  5
8757
  8
0
 10
60.68724023685681
 20
230.7270219373294
 30
0.0
 11
60.63559066998104
 21
230.8135883653239
 31
0.0
  0
LINE
  5
8758
  8
0
 10
59.79194143583445
 20
231.3841968127889
 30
0.0
 11
59.67922007685647
 21
231.4006638573291
 31
0.0
  0
LINE
  5
8759
  8
0
 10
59.67922007685647
 20
231.4006638573291
 30
0.0
 11
59.76559718205053
 21
231.452203505275
 31
0.0
  0
LINE
  5
875A
  8
0
 10
60.3361876644968
 20
232.2960544829292
 30
0.0
 11
60.35266935685658
 21
232.4084880173294
 31
0.0
  0
LINE
  5
875B
  8
0
 10
60.35266935685658
 20
232.4084880173294
 30
0.0
 11
60.40441033803617
 21
232.321849205984
 31
0.0
  0
LINE
  5
875C
  8
0
 10
61.24847395617243
 20
231.7516357958556
 30
0.0
 11
61.36068615685699
 21
231.7351720173291
 31
0.0
  0
LINE
  5
875D
  8
0
 10
61.36068615685699
 20
231.7351720173291
 30
0.0
 11
61.27399198498878
 21
231.6834161158948
 31
0.0
  0
LINE
  5
875E
  8
0
 10
60.41087208845383
 20
230.8244892674983
 30
0.0
 11
60.35266935685658
 21
230.7270219373294
 31
0.0
  0
LINE
  5
875F
  8
0
 10
60.35266935685658
 20
230.7270219373294
 30
0.0
 11
60.33810185698039
 21
230.8264240391453
 31
0.0
  0
LINE
  5
8760
  8
0
 10
59.77699738429519
 20
231.676752710733
 30
0.0
 11
59.67909015685663
 21
231.7351720173291
 31
0.0
  0
LINE
  5
8761
  8
0
 10
59.67909015685663
 20
231.7351720173291
 30
0.0
 11
59.77881582015388
 21
231.7497387079619
 31
0.0
  0
LINE
  5
8762
  8
0
 10
60.62891590188346
 20
232.3109028259204
 30
0.0
 11
60.6871763968571
 21
232.4084880173294
 31
0.0
  0
LINE
  5
8763
  8
0
 10
60.6871763968571
 20
232.4084880173294
 30
0.0
 11
60.70177459553187
 21
232.3088103799172
 31
0.0
  0
LINE
  5
8764
  8
0
 10
61.26303994635973
 20
231.4587447037646
 30
0.0
 11
61.36068615685699
 21
231.4004017773294
 31
0.0
  0
LINE
  5
8765
  8
0
 10
60.96847517643855
 20
230.9651948999334
 30
0.0
 11
60.9962583168568
 21
230.8550603373291
 31
0.0
  0
LINE
  5
8766
  8
0
 10
60.9962583168568
 20
230.8550603373291
 30
0.0
 11
60.9154391013827
 21
230.9152687406703
 31
0.0
  0
LINE
  5
8767
  8
0
 10
59.91749508680149
 20
231.119517532993
 30
0.0
 11
59.80713191685672
 21
231.0916457773291
 31
0.0
  0
LINE
  5
8768
  8
0
 10
59.80713191685672
 20
231.0916457773291
 30
0.0
 11
59.86718926716284
 21
231.1722986689618
 31
0.0
  0
LINE
  5
8769
  8
0
 10
60.07131278011101
 20
232.1704442902809
 30
0.0
 11
60.04352135685676
 21
232.2804473773293
 31
0.0
  0
LINE
  5
876A
  8
0
 10
60.04352135685676
 20
232.2804473773293
 30
0.0
 11
60.12454461489014
 21
232.2201882539219
 31
0.0
  0
LINE
  5
876B
  8
0
 10
61.12278772418594
 20
232.0163294547991
 30
0.0
 11
61.23277767685667
 21
232.0440568173289
 31
0.0
  0
LINE
  5
876C
  8
0
 10
61.23277767685667
 20
232.0440568173289
 30
0.0
 11
61.17248734306949
 21
231.963127697404
 31
0.0
  0
LINE
  5
876D
  8
0
 10
60.20212488052093
 20
230.8870423630796
 30
0.0
 11
60.1184280768567
 21
230.810402577329
 31
0.0
  0
LINE
  5
876E
  8
0
 10
60.1184280768567
 20
230.810402577329
 30
0.0
 11
60.13497527795889
 21
230.9231380388254
 31
0.0
  0
LINE
  5
876F
  8
0
 10
59.83937154461509
 20
231.8856396339596
 30
0.0
 11
59.76266679685668
 21
231.9694088173291
 31
0.0
  0
LINE
  5
8770
  8
0
 10
59.76266679685668
 20
231.9694088173291
 30
0.0
 11
59.87502185810453
 21
231.9529162407306
 31
0.0
  0
LINE
  5
8771
  8
0
 10
60.8378803946799
 20
232.2484648526082
 30
0.0
 11
60.92148039685671
 21
232.3250412973292
 31
0.0
  0
LINE
  5
8772
  8
0
 10
60.92148039685671
 20
232.3250412973292
 30
0.0
 11
60.90499310420645
 21
232.2126296407763
 31
0.0
  0
LINE
  5
8773
  8
0
 10
61.20051978715091
 20
231.2499288962725
 30
0.0
 11
61.27737159685657
 21
231.1659678573286
 31
0.0
  0
LINE
  5
8774
  8
0
 10
60.7764312530272
 20
230.8618929599451
 30
0.0
 11
60.77139815685686
 21
230.7482089773292
 31
0.0
  0
LINE
  5
8775
  8
0
 10
60.77139815685686
 20
230.7482089773292
 30
0.0
 11
60.70367401377379
 21
230.8393341306254
 31
0.0
  0
LINE
  5
8776
  8
0
 10
59.81396389748951
 20
231.3112493032949
 30
0.0
 11
59.70053367685668
 21
231.316164337329
 31
0.0
  0
LINE
  5
8777
  8
0
 10
59.70053367685668
 20
231.316164337329
 30
0.0
 11
59.79194143583445
 21
231.3841968127889
 31
0.0
  0
LINE
  5
8778
  8
0
 10
60.26338708585135
 20
232.2738074118332
 30
0.0
 11
60.2683781568563
 21
232.3871587373291
 31
0.0
  0
LINE
  5
8779
  8
0
 10
60.2683781568563
 20
232.3871587373291
 30
0.0
 11
60.3361876644968
 21
232.2960544829292
 31
0.0
  0
LINE
  5
877A
  8
0
 10
61.22605328535528
 20
231.8243877224603
 30
0.0
 11
61.33950135685663
 21
231.8193814573291
 31
0.0
  0
LINE
  5
877B
  8
0
 10
61.33950135685663
 20
231.8193814573291
 30
0.0
 11
61.24847395617243
 21
231.7516357958556
 31
0.0
  0
LINE
  5
877C
  8
0
 10
60.48672052814581
 20
230.8175369750633
 30
0.0
 11
60.43852855685654
 21
230.714438737329
 31
0.0
  0
LINE
  5
877D
  8
0
 10
60.43852855685654
 20
230.714438737329
 30
0.0
 11
60.41087208845383
 21
230.8244892674983
 31
0.0
  0
LINE
  5
877E
  8
0
 10
59.76945545452972
 20
231.6010115903053
 30
0.0
 11
59.666639116857
 21
231.6489208173288
 31
0.0
  0
LINE
  5
877F
  8
0
 10
59.666639116857
 20
231.6489208173288
 30
0.0
 11
59.77699738429519
 21
231.676752710733
 31
0.0
  0
LINE
  5
8780
  8
0
 10
60.55304512097618
 20
232.3182495919935
 30
0.0
 11
60.60105511685705
 21
232.421135057329
 31
0.0
  0
LINE
  5
8781
  8
0
 10
60.60105511685705
 20
232.421135057329
 30
0.0
 11
60.62891590188346
 21
232.3109028259204
 31
0.0
  0
LINE
  5
8782
  8
0
 10
61.27050992567692
 20
231.5345292225101
 30
0.0
 11
61.37333655685651
 21
231.4865230573295
 31
0.0
  0
LINE
  5
8783
  8
0
 10
61.37333655685651
 20
231.4865230573295
 30
0.0
 11
61.26303994635973
 21
231.4587447037646
 31
0.0
  0
LINE
  5
8784
  8
0
 10
61.02714387091564
 20
231.0136102660134
 30
0.0
 11
61.06588311685672
 21
230.9069555373288
 31
0.0
  0
LINE
  5
8785
  8
0
 10
59.96570042366201
 20
231.0605882082535
 30
0.0
 11
59.85908983685667
 21
231.0217712173288
 31
0.0
  0
LINE
  5
8786
  8
0
 10
59.85908983685667
 20
231.0217712173288
 30
0.0
 11
59.91749508680149
 21
231.119517532993
 31
0.0
  0
LINE
  5
8787
  8
0
 10
60.01288289015392
 20
232.1216582749702
 30
0.0
 11
59.97407351685669
 21
232.2285006573292
 31
0.0
  0
LINE
  5
8788
  8
0
 10
59.97407351685669
 20
232.2285006573292
 30
0.0
 11
60.07131278011101
 21
232.1704442902809
 31
0.0
  0
LINE
  5
8789
  8
0
 10
61.07385674956376
 20
232.0746482126459
 30
0.0
 11
61.18093287685642
 21
232.1134956973291
 31
0.0
  0
LINE
  5
878A
  8
0
 10
61.18093287685642
 20
232.1134956973291
 30
0.0
 11
61.12278772418594
 21
232.0163294547991
 31
0.0
  0
LINE
  5
878B
  8
0
 10
60.2726993465686
 20
230.8585865568729
 30
0.0
 11
60.19705207685692
 21
230.773765137329
 31
0.0
  0
LINE
  5
878C
  8
0
 10
60.19705207685692
 20
230.773765137329
 30
0.0
 11
60.20212488052093
 21
230.8870423630796
 31
0.0
  0
LINE
  5
878D
  8
0
 10
59.81084091319562
 20
231.8150890368087
 30
0.0
 11
59.72602935685663
 21
231.890656017329
 31
0.0
  0
LINE
  5
878E
  8
0
 10
59.72602935685663
 20
231.890656017329
 30
0.0
 11
59.83937154461509
 21
231.8856396339596
 31
0.0
  0
LINE
  5
878F
  8
0
 10
60.767197686711
 20
232.27671171893
 30
0.0
 11
60.84292359685659
 21
232.361669777329
 31
0.0
  0
LINE
  5
8790
  8
0
 10
60.84292359685659
 20
232.361669777329
 30
0.0
 11
60.8378803946799
 21
232.2484648526082
 31
0.0
  0
LINE
  5
8791
  8
0
 10
61.22923539242456
 20
231.3205022754572
 30
0.0
 11
61.31413559685697
 21
231.2448416173291
 31
0.0
  0
LINE
  5
8792
  8
0
 10
60.84664274330916
 20
230.8913257903513
 30
0.0
 11
60.85315815685644
 21
230.778004337329
 31
0.0
  0
LINE
  5
8793
  8
0
 10
60.85315815685644
 20
230.778004337329
 30
0.0
 11
60.7764312530272
 21
230.8618929599451
 31
0.0
  0
LINE
  5
8794
  8
0
 10
59.84367646117434
 20
231.2411590282067
 30
0.0
 11
59.73020135685701
 21
231.2345600173293
 31
0.0
  0
LINE
  5
8795
  8
0
 10
59.73020135685701
 20
231.2345600173293
 30
0.0
 11
59.81396389748951
 21
231.3112493032949
 31
0.0
  0
LINE
  5
8796
  8
0
 10
60.19333142915693
 20
232.2441103816676
 30
0.0
 11
60.18681415685668
 21
232.3574496173291
 31
0.0
  0
LINE
  5
8797
  8
0
 10
60.18681415685668
 20
232.3574496173291
 30
0.0
 11
60.26338708585135
 21
232.2738074118332
 31
0.0
  0
LINE
  5
8798
  8
0
 10
61.19674338518789
 20
231.8945301190787
 30
0.0
 11
61.30983367685675
 21
231.9010328173289
 31
0.0
  0
LINE
  5
8799
  8
0
 10
61.30983367685675
 20
231.9010328173289
 30
0.0
 11
61.22605328535528
 21
231.8243877224603
 31
0.0
  0
LINE
  5
879A
  8
0
 10
60.56288158759216
 20
230.8177209425511
 30
0.0
 11
60.52556039685678
 21
230.7104616173291
 31
0.0
  0
LINE
  5
879B
  8
0
 10
60.52556039685678
 20
230.7104616173291
 30
0.0
 11
60.48672052814581
 21
230.8175369750633
 31
0.0
  0
LINE
  5
879C
  8
0
 10
59.77009028473239
 20
231.5249246967677
 30
0.0
 11
59.66272583685677
 21
231.5622776173294
 31
0.0
  0
LINE
  5
879D
  8
0
 10
59.66272583685677
 20
231.5622776173294
 30
0.0
 11
59.76945545452972
 21
231.6010115903053
 31
0.0
  0
LINE
  5
879E
  8
0
 10
60.47702819435708
 20
232.3178021349366
 30
0.0
 11
60.51428199685697
 21
232.4248523373288
 31
0.0
  0
LINE
  5
879F
  8
0
 10
60.51428199685697
 20
232.4248523373288
 30
0.0
 11
60.55304512097618
 21
232.3182495919935
 31
0.0
  0
LINE
  5
87A0
  8
0
 10
61.2697725973463
 20
231.6106230816675
 30
0.0
 11
61.37711655685652
 21
231.5731662573288
 31
0.0
  0
LINE
  5
87A1
  8
0
 10
61.08069536869752
 20
231.0678008550802
 30
0.0
 11
61.13009943685674
 21
230.9654979373289
 31
0.0
  0
LINE
  5
87A2
  8
0
 10
61.13009943685674
 20
230.9654979373289
 30
0.0
 11
61.02714387091564
 21
231.0136102660134
 31
0.0
  0
LINE
  5
87A3
  8
0
 10
60.01987561762107
 20
231.0071638760872
 30
0.0
 11
59.91763335685673
 21
230.9577452973289
 31
0.0
  0
LINE
  5
87A4
  8
0
 10
59.91763335685673
 20
230.9577452973289
 30
0.0
 11
59.96570042366201
 21
231.0605882082535
 31
0.0
  0
LINE
  5
87A5
  8
0
 10
59.95915664469803
 20
232.0677012381601
 30
0.0
 11
59.90987623685677
 21
232.1696860973287
 31
0.0
  0
LINE
  5
87A6
  8
0
 10
59.90987623685677
 20
232.1696860973287
 30
0.0
 11
60.01288289015392
 21
232.1216582749702
 31
0.0
  0
LINE
  5
87A7
  8
0
 10
61.02014616936921
 20
232.1287813584867
 30
0.0
 11
61.1222123968565
 21
232.1780939373292
 31
0.0
  0
LINE
  5
87A8
  8
0
 10
61.1222123968565
 20
232.1780939373292
 30
0.0
 11
61.07385674956376
 21
232.0746482126459
 31
0.0
  0
LINE
  5
87A9
  8
0
 10
60.33810185698039
 20
230.8264240391453
 30
0.0
 11
60.27919399685706
 21
230.7450796973288
 31
0.0
  0
LINE
  5
87AA
  8
0
 10
60.27919399685706
 20
230.7450796973288
 30
0.0
 11
60.2726993465686
 21
230.8585865568729
 31
0.0
  0
LINE
  5
87AB
  8
0
 10
59.77881582015297
 20
231.7497387079619
 30
0.0
 11
59.69740439685629
 21
231.8086428973292
 31
0.0
  0
LINE
  5
87AC
  8
0
 10
59.69740439685629
 20
231.8086428973292
 30
0.0
 11
59.81084091319562
 21
231.8150890368087
 31
0.0
  0
LINE
  5
87AD
  8
0
 10
60.70177459553187
 20
232.3088103799172
 30
0.0
 11
60.76070887685691
 21
232.3903104173286
 31
0.0
  0
LINE
  5
87AE
  8
0
 10
60.76070887685691
 20
232.3903104173286
 30
0.0
 11
60.767197686711
 21
232.27671171893
 31
0.0
  0
LINE
  5
87AF
  8
0
 10
61.26134601064049
 20
231.3859205450407
 30
0.0
 11
61.34282663685653
 21
231.3269432173291
 31
0.0
  0
LINE
  5
87B0
  8
0
 10
61.34282663685653
 20
231.3269432173291
 30
0.0
 11
61.22923539242456
 21
231.3205022754572
 31
0.0
  0
LINE
  5
87B1
  8
0
 10
60.9154391013827
 20
230.9152687406703
 30
0.0
 11
60.93139015685674
 21
230.815684497329
 31
0.0
  0
LINE
  5
87B2
  8
0
 10
60.93139015685674
 20
230.815684497329
 30
0.0
 11
60.84664274330916
 21
230.8913257903513
 31
0.0
  0
LINE
  5
87B3
  8
0
 10
59.86718926716284
 20
231.1722986689618
 30
0.0
 11
59.76807863685653
 21
231.1563840173293
 31
0.0
  0
LINE
  5
87B4
  8
0
 10
59.76807863685653
 20
231.1563840173293
 30
0.0
 11
59.84367646117434
 21
231.2411590282067
 31
0.0
  0
LINE
  5
87B5
  8
0
 10
60.12454461489014
 20
232.2201882539219
 30
0.0
 11
60.10864823685651
 21
232.3196294573289
 31
0.0
  0
LINE
  5
87B6
  8
0
 10
60.10864823685651
 20
232.3196294573289
 30
0.0
 11
60.19333142915693
 21
232.2441103816676
 31
0.0
  0
LINE
  5
87B7
  8
0
 10
61.17248734306949
 20
231.963127697404
 30
0.0
 11
61.27221959685639
 21
231.9790598573289
 31
0.0
  0
LINE
  5
87B8
  8
0
 10
61.27221959685639
 20
231.9790598573289
 30
0.0
 11
61.19674338518789
 21
231.8945301190787
 31
0.0
  0
LINE
  5
87B9
  8
0
 10
60.63559066998104
 20
230.8135883653239
 30
0.0
 11
60.61220359685657
 21
230.7154187373288
 31
0.0
  0
LINE
  5
87BA
  8
0
 10
59.76559718205053
 20
231.452203505275
 30
0.0
 11
59.66761575685686
 21
231.4755044973289
 31
0.0
  0
LINE
  5
87BB
  8
0
 10
59.66761575685686
 20
231.4755044973289
 30
0.0
 11
59.77009028473239
 21
231.5249246967677
 31
0.0
  0
LINE
  5
87BC
  8
0
 10
60.40441033803617
 20
232.321849205984
 30
0.0
 11
60.42777207685648
 21
232.4198324973294
 31
0.0
  0
LINE
  5
87BD
  8
0
 10
60.42777207685648
 20
232.4198324973294
 30
0.0
 11
60.47702819435708
 21
232.3178021349366
 31
0.0
  0
LINE
  5
87BE
  8
0
 10
61.27399198498878
 20
231.6834161158948
 30
0.0
 11
61.37216391685669
 21
231.6600020973291
 31
0.0
  0
LINE
  5
87BF
  8
0
 10
61.37216391685669
 20
231.6600020973291
 30
0.0
 11
61.2697725973463
 21
231.6106230816675
 31
0.0
  0
LINE
  5
87C8
  8
0
 10
61.13502475627783
 20
231.116295918141
 30
0.0
 11
61.18786119685691
 21
231.0303660973294
 31
0.0
  0
LINE
  5
87C9
  8
0
 10
60.06822017909107
 20
230.9527546280314
 30
0.0
 11
59.98243431685714
 21
230.8999790573288
 31
0.0
  0
LINE
  5
87CA
  8
0
 10
59.98243431685714
 20
230.8999790573288
 30
0.0
 11
60.01987561762107
 21
231.0071638760872
 31
0.0
  0
LINE
  5
87CB
  8
0
 10
59.90488425292969
 20
232.0193807765539
 30
0.0
 11
59.85224327685646
 21
232.104947857329
 31
0.0
  0
LINE
  5
87CC
  8
0
 10
59.85224327685646
 20
232.104947857329
 30
0.0
 11
59.95915664469803
 21
232.0677012381601
 31
0.0
  0
LINE
  5
87CD
  8
0
 10
60.9713971344614
 20
232.1825671242276
 30
0.0
 11
61.0574080768566
 21
232.235464817329
 31
0.0
  0
LINE
  5
87CF
  8
0
 10
55.26074279685653
 20
228.170596177329
 30
0.0
 11
55.26074279685653
 21
227.944308017329
 31
0.0
  0
LINE
  5
87DA
  8
0
 10
52.69116487685696
 20
229.2818792173292
 30
0.0
 11
53.79990663685621
 21
229.2818792173292
 31
0.0
  0
LINE
  5
87E9
  8
0
 10
55.49193319685682
 20
226.1082673773288
 30
0.0
 11
56.62251719685636
 21
226.1082673773288
 31
0.0
  0
LINE
  5
87EE
  8
0
 10
58.09508983685654
 20
229.8122921773291
 30
0.0
 11
58.09508983685654
 21
230.4253051373288
 31
0.0
  0
LINE
  5
87EF
  8
0
 10
58.09508983685654
 20
230.4253051373288
 30
0.0
 11
57.03530663685669
 21
230.4253051373288
 31
0.0
  0
LINE
  5
87F0
  8
0
 10
57.03530663685669
 20
230.4253051373288
 30
0.0
 11
57.03530663685669
 21
226.1082673773288
 31
0.0
  0
LINE
  5
87F1
  8
0
 10
57.03530663685669
 20
226.1082673773288
 30
0.0
 11
58.17866647685659
 21
226.1082673773288
 31
0.0
  0
LINE
  5
87F2
  8
0
 10
58.17866647685659
 20
226.1082673773288
 30
0.0
 11
58.17866647685659
 21
227.4397132973289
 31
0.0
  0
LINE
  5
87FB
  8
0
 10
59.47960023685673
 20
229.3071755373293
 30
0.0
 11
59.47960023685673
 21
230.4555552173287
 31
0.0
  0
LINE
  5
8808
  8
0
 10
64.11745191685677
 20
229.3719137773286
 30
0.0
 11
65.27750199685678
 21
229.3719137773286
 31
0.0
  0
LINE
  5
880F
  8
0
 10
62.59590503685658
 20
227.3287537773293
 30
0.0
 11
61.39726087685685
 21
227.3287537773293
 31
0.0
  0
LINE
  5
8811
  8
0
 10
44.87127447685688
 20
233.695469937329
 30
0.0
 11
45.39836215685645
 21
233.695469937329
 31
0.0
  0
LINE
  5
8816
  8
0
 10
45.43636823685674
 20
229.3110854573287
 30
0.0
 11
44.9345107968571
 21
229.3110854573287
 31
0.0
  0
LINE
  5
8817
  8
0
 10
44.67165127685675
 20
229.6025004973288
 30
0.0
 11
44.67165127685675
 21
233.2240574573287
 31
0.0
  0
LINE
  5
881C
  8
0
 10
44.72243767685686
 20
228.8267649773287
 30
0.0
 11
45.25786935685673
 21
228.8267649773287
 31
0.0
  0
LINE
  5
881E
  8
0
 10
45.70398775685689
 20
234.1801824173289
 30
0.0
 11
42.03314631685643
 21
234.1801824173289
 31
0.0
  0
LINE
  5
881F
  8
0
 10
42.03314631685643
 20
234.1801824173289
 30
0.0
 11
42.03314631685643
 21
233.7338019373291
 31
0.0
  0
LINE
  5
8820
  8
0
 10
42.03314631685643
 20
233.7338019373291
 30
0.0
 11
42.34776887685675
 21
233.7338019373291
 31
0.0
  0
LINE
  5
8822
  8
0
 10
43.11659511685647
 20
232.8588422573292
 30
0.0
 11
43.11659511685647
 21
227.2732734573291
 31
0.0
  0
LINE
  5
8824
  8
0
 10
42.08419143685668
 20
226.3541790573289
 30
0.0
 11
42.08419143685668
 21
225.9081894573291
 31
0.0
  0
LINE
  5
8825
  8
0
 10
42.08419143685668
 20
225.9081894573291
 30
0.0
 11
46.02917079685639
 21
225.9081894573291
 31
0.0
  0
LINE
  5
8826
  8
0
 10
46.02917079685639
 20
225.9081894573291
 30
0.0
 11
46.02917079685639
 21
226.3543078573292
 31
0.0
  0
LINE
  5
8828
  8
0
 10
44.67165127685675
 20
227.3208633773291
 30
0.0
 11
44.67165127685675
 21
228.6231030573289
 31
0.0
  0
LINE
  5
8829
  8
0
  6
CONTINUOUS
 10
60.56288158759216
 20
230.8177209425511
 30
0.0
 11
60.61220359685657
 21
230.7154187373288
 31
0.0
  0
LINE
  5
882A
  8
0
  6
CONTINUOUS
 10
60.96847517643855
 20
230.9651948999334
 30
0.0
 11
61.06588311685672
 21
230.9069555373288
 31
0.0
  0
LINE
  5
882B
  8
0
  6
CONTINUOUS
 10
61.08069536869752
 20
231.0678008550802
 30
0.0
 11
61.18786119685691
 21
231.0303660973294
 31
0.0
  0
LINE
  5
882C
  8
0
  6
CONTINUOUS
 10
61.16516338733126
 20
231.1824874828752
 30
0.0
 11
61.27737159685657
 21
231.1659678573286
 31
0.0
  0
LINE
  5
882D
  8
0
  6
CONTINUOUS
 10
61.20051978715091
 20
231.2499288962725
 30
0.0
 11
61.31413559685697
 21
231.2448416173291
 31
0.0
  0
LINE
  5
882E
  8
0
  6
CONTINUOUS
 10
61.26134601064049
 20
231.3859205450407
 30
0.0
 11
61.36068615685699
 21
231.4004017773294
 31
0.0
  0
LINE
  5
882F
  8
0
  6
CONTINUOUS
 10
61.27050992567692
 20
231.5345292225101
 30
0.0
 11
61.37711655685652
 21
231.5731662573288
 31
0.0
  0
LINE
  5
8830
  8
0
  6
CONTINUOUS
 10
61.0574080768566
 20
232.235464817329
 30
0.0
 11
61.02014616936921
 21
232.1287813584867
 31
0.0
  0
LINE
  5
8844
  8
0
 10
54.6033025479679
 20
238.277967235107
 30
0.0
 11
56.88752193996797
 21
238.7501735711065
 31
0.0
  0
LINE
  5
8845
  8
0
 10
56.88752193996797
 20
238.7501735711065
 30
0.0
 11
54.60338184396787
 21
239.222148739107
 31
0.0
  0
LINE
  5
8846
  8
0
 10
54.60338184396787
 20
239.222148739107
 30
0.0
 11
55.88873505996852
 21
241.0060735391079
 31
0.0
  0
LINE
  5
8847
  8
0
 10
55.88873505996852
 20
241.0060735391079
 30
0.0
 11
54.10465435596788
 21
239.7207996191067
 31
0.0
  0
LINE
  5
8848
  8
0
 10
54.10465435596788
 20
239.7207996191067
 30
0.0
 11
53.8258998404427
 21
241.0698861584032
 31
0.0
  0
LINE
  5
8849
  8
0
 10
53.41422135681077
 20
240.9476374394561
 30
0.0
 11
53.16078465996733
 21
239.7209555231065
 31
0.0
  0
LINE
  5
884A
  8
0
 10
53.16078465996733
 20
239.7209555231065
 30
0.0
 11
52.31630278512066
 21
240.3292038163453
 31
0.0
  0
LINE
  5
884B
  8
0
 10
52.04114494434825
 20
240.08368537169
 30
0.0
 11
52.66189723596753
 21
239.222148739107
 31
0.0
  0
LINE
  5
884C
  8
0
 10
52.66189723596753
 20
239.222148739107
 30
0.0
 11
51.60073220244212
 21
239.0027260689111
 31
0.0
  0
LINE
  5
884D
  8
0
 10
51.62145527260972
 20
238.4931215962014
 30
0.0
 11
52.66213243596812
 21
238.278277699107
 31
0.0
  0
LINE
  5
884E
  8
0
 10
52.66213243596812
 20
238.278277699107
 30
0.0
 11
52.04907205628396
 21
237.4273210216933
 31
0.0
  0
LINE
  5
884F
  8
0
 10
52.28871939702466
 20
237.1510284747372
 30
0.0
 11
53.16078465996733
 21
237.7792357151064
 31
0.0
  0
LINE
  5
8850
  8
0
 10
53.16078465996733
 20
237.7792357151064
 30
0.0
 11
53.4667071036707
 21
236.2986129795225
 31
0.0
  0
LINE
  5
8851
  8
0
 10
53.77137802213255
 20
236.1665686084297
 30
0.0
 11
54.10465435596788
 21
237.7794709151066
 31
0.0
  0
LINE
  5
8852
  8
0
 10
54.10465435596788
 20
237.7794709151066
 30
0.0
 11
55.88889096396733
 21
236.494042435107
 31
0.0
  0
LINE
  5
8853
  8
0
 10
55.88889096396733
 20
236.494042435107
 30
0.0
 11
54.6033025479679
 21
238.277967235107
 31
0.0
  0
LINE
  5
8859
  8
0
 10
58.36152477018967
 20
224.9475095038223
 30
0.0
 11
58.36152477018967
 21
225.4104116795514
 31
0.0
  0
LINE
  5
885A
  8
0
 10
57.58389194420178
 20
224.7932016180047
 30
0.0
 11
57.58389194420178
 21
224.9475095038223
 31
0.0
  0
LINE
  5
885B
  8
0
 10
58.36152477018967
 20
224.9475095038223
 30
0.0
 11
57.58389194420178
 21
224.9475095038223
 31
0.0
  0
LINE
  5
885C
  8
0
 10
58.35782365944405
 20
224.7932016180047
 30
0.0
 11
57.58389194420178
 21
224.7932016180047
 31
0.0
  0
LINE
  5
885D
  8
0
 10
58.75008906553384
 20
225.4104116795514
 30
0.0
 11
58.36152477018967
 21
225.4104116795514
 31
0.0
  0
LINE
  5
885E
  8
0
 10
58.75008906553384
 20
225.4104116795514
 30
0.0
 11
58.75008906553384
 21
224.9401394659025
 31
0.0
  0
LINE
  5
885F
  8
0
 10
59.49780749571673
 20
224.9401394659025
 30
0.0
 11
58.75008906553384
 21
224.9401394659025
 31
0.0
  0
LINE
  5
8860
  8
0
 10
59.49780749571673
 20
224.7907556665554
 30
0.0
 11
59.49780749571673
 21
224.9401394659025
 31
0.0
  0
LINE
  5
8861
  8
0
 10
58.7449879694187
 20
224.7907556665554
 30
0.0
 11
59.49780749571673
 21
224.7907556665554
 31
0.0
  0
ARC
  5
8862
  8
0
 10
56.51468731447912
 20
225.600734648311
 30
0.0
 40
1.78373366193507
 50
310.0456923729903
 51
327.1738262384467
  0
ARC
  5
8863
  8
0
 10
56.25651791752679
 20
224.9441370296835
 30
0.0
 40
1.92069235163314
 50
325.4885178757467
 51
349.9185299046333
  0
LINE
  5
8864
  8
0
 10
58.01359269708936
 20
224.6337866503808
 30
0.0
 11
58.14755447859042
 21
224.6079230586146
 31
0.0
  0
LINE
  5
8865
  8
0
 10
57.45980943199683
 20
224.0921810821773
 30
0.0
 11
57.83919273847786
 21
223.8559277112389
 31
0.0
  0
ARC
  5
8866
  8
0
 10
56.22875497254753
 20
226.0500046538062
 30
0.0
 40
2.312697174244312
 50
302.1611570594345
 51
308.3070197817706
  0
LINE
  5
8867
  8
0
 10
58.35782365944405
 20
224.7932016180047
 30
0.0
 11
58.35782365944405
 21
223.9044490475361
 31
0.0
  0
LINE
  5
8868
  8
0
 10
58.02107968023265
 20
223.9118373371156
 30
0.0
 11
58.02107968023265
 21
223.7651339502162
 31
0.0
  0
LINE
  5
8869
  8
0
 10
58.02107968023265
 20
223.9118373371156
 30
0.0
 11
58.2598841330815
 21
223.8335019890154
 31
0.0
  0
ARC
  5
886A
  8
0
 10
58.28315699277718
 20
223.9044490475361
 30
0.0
 40
0.0746666666666667
 50
251.8388875732299
 51
0.0
  0
LINE
  5
886B
  8
0
 10
58.7449879694187
 20
223.8773354219092
 30
0.0
 11
58.7449879694187
 21
224.7907556665554
 31
0.0
  0
LINE
  5
886C
  8
0
 10
58.3678903094993
 20
223.623801847093
 30
0.0
 11
58.02107968023265
 21
223.7651339502162
 31
0.0
  0
ARC
  5
886D
  8
0
 10
58.47121019164078
 20
223.8773354219092
 30
0.0
 40
0.2737777777777778
 50
247.8281449539039
 51
0.0
  0
LINE
  5
886E
  8
0
 10
59.05427140421952
 20
224.6443725989155
 30
0.0
 11
59.16637915675992
 21
224.5391122384789
 31
0.0
  0
LINE
  5
886F
  8
0
 10
58.93140859331524
 20
224.6028549833558
 30
0.0
 11
59.05427140421952
 21
224.6443725989155
 31
0.0
  0
LINE
  5
8870
  8
0
 10
59.56812368847667
 20
224.0461933657015
 30
0.0
 11
59.13668292439715
 21
223.8598233733295
 31
0.0
  0
ARC
  5
8871
  8
0
 10
56.54297614292645
 20
223.543141472904
 30
0.0
 40
2.61296810051403
 50
6.961145816582685
 51
23.92618042379387
  0
ARC
  5
8872
  8
0
 10
57.49391840801363
 20
222.784190613141
 30
0.0
 40
2.4279576794027
 50
31.31746538013244
 51
50.00949102187557
  0
LINE
  5
8875
  8
0
 10
61.34510914602433
 20
225.2716749403743
 30
0.0
 11
61.34510914602433
 21
225.1173670545562
 31
0.0
  0
LINE
  5
8876
  8
0
 10
61.34510914602433
 20
225.2716749403743
 30
0.0
 11
59.85344299742437
 21
225.2716749403743
 31
0.0
  0
LINE
  5
8877
  8
0
 10
59.85344299742437
 20
225.1173670545562
 30
0.0
 11
59.85344299742437
 21
225.2716749403743
 31
0.0
  0
LINE
  5
8878
  8
0
 10
61.34510914602433
 20
225.1173670545562
 30
0.0
 11
59.85344299742437
 21
225.1173670545562
 31
0.0
  0
LINE
  5
8879
  8
0
 10
61.48553528862212
 20
224.7953737750012
 30
0.0
 11
59.69599721336553
 21
224.7953737750012
 31
0.0
  0
LINE
  5
887A
  8
0
 10
59.69599721336553
 20
224.6342484399519
 30
0.0
 11
59.69599721336553
 21
224.7953737750012
 31
0.0
  0
LINE
  5
887B
  8
0
 10
60.99630183440976
 20
224.6342484399519
 30
0.0
 11
59.69599721336553
 21
224.6342484399519
 31
0.0
  0
LINE
  5
887C
  8
0
 10
61.48553528862212
 20
224.6564185591868
 30
0.0
 11
61.48553528862212
 21
224.7953737750012
 31
0.0
  0
LINE
  5
887D
  8
0
 10
59.85514070973213
 20
223.7357089598648
 30
0.0
 11
59.90345790072942
 21
223.6109495154268
 31
0.0
  0
ARC
  5
887E
  8
0
 10
59.38489231898129
 20
225.7243577305734
 30
0.0
 40
2.043491493068839
 50
283.3041404476273
 51
312.187984758957
  0
ARC
  5
887F
  8
0
 10
59.72960287778196
 20
225.0690614445629
 30
0.0
 40
1.33924926570833
 50
320.1134675612495
 51
341.0544644537724
  0
ARC
  5
8880
  8
0
 10
60.28015248987785
 20
224.9681588859584
 30
0.0
 40
1.245042056656759
 50
284.1440925346391
 51
345.4996819276624
  0
ARC
  5
8881
  8
0
 10
59.86880951040675
 20
225.3897705958397
 30
0.0
 40
1.77915849408482
 50
271.1158826182763
 51
293.7159784209443
  0
LINE
  5
8882
  8
0
 10
62.14129556700581
 20
224.2933903535021
 30
0.0
 11
62.14129556700581
 21
225.3337241643384
 31
0.0
  0
LINE
  5
8883
  8
0
 10
62.14129556700581
 20
225.3337241643384
 30
0.0
 11
61.73249874100074
 21
225.3337241643384
 31
0.0
  0
LINE
  5
8884
  8
0
 10
61.73249874100074
 20
224.2933903535021
 30
0.0
 11
61.73249874100074
 21
225.3337241643384
 31
0.0
  0
LINE
  5
8885
  8
0
 10
62.14129556700581
 20
224.2933903535021
 30
0.0
 11
61.73249874100074
 21
224.2933903535021
 31
0.0
  0
LINE
  5
8886
  8
0
 10
63.07892191309392
 20
224.5884835887845
 30
0.0
 11
63.07892191309392
 21
225.3337241643384
 31
0.0
  0
LINE
  5
8887
  8
0
 10
62.68049882099294
 20
224.6430941549487
 30
0.0
 11
62.68049882099294
 21
225.3337241643384
 31
0.0
  0
LINE
  5
8888
  8
0
 10
62.68049882099294
 20
225.3337241643384
 30
0.0
 11
63.07892191309392
 21
225.3337241643384
 31
0.0
  0
LINE
  5
8889
  8
0
 10
61.84759125682203
 20
223.6730477836535
 30
0.0
 11
61.93138877212922
 21
223.5654815245451
 31
0.0
  0
ARC
  5
888A
  8
0
 10
61.73526096789109
 20
224.6120990091921
 30
0.0
 40
0.9457458950466363
 50
276.8213681552839
 51
1.878103949386534
  0
ARC
  5
888B
  8
0
 10
61.87426527407351
 20
224.9016265543158
 30
0.0
 40
1.337365557583815
 50
272.4480452339944
 51
323.9127955890404
  0
ARC
  5
888C
  8
0
 10
62.03129566426614
 20
224.6085256532787
 30
0.0
 40
1.047817942956835
 50
331.8321656005633
 51
358.9040121443402
  0
LINE
  5
888D
  8
0
 10
64.71642104433803
 20
225.0632396768855
 30
0.0
 11
64.71642104433803
 21
225.1826719751078
 31
0.0
  0
LINE
  5
888E
  8
0
 10
63.36816650495766
 20
225.0438657129415
 30
0.0
 11
63.36816650495766
 21
225.1826719751078
 31
0.0
  0
LINE
  5
888F
  8
0
 10
64.71642104433803
 20
225.1826719751078
 30
0.0
 11
63.36816650495766
 21
225.1826719751078
 31
0.0
  0
LINE
  5
8890
  8
0
 10
64.23955169759628
 20
225.0438657129415
 30
0.0
 11
63.36816650495766
 21
225.0438657129415
 31
0.0
  0
LINE
  5
8891
  8
0
 10
62.98337905088474
 20
223.7254388332029
 30
0.0
 11
63.06039726727167
 21
223.6054717016731
 31
0.0
  0
ARC
  5
8892
  8
0
 10
62.37740299873084
 20
225.5604439868747
 30
0.0
 40
1.932472739726369
 50
288.2748377643809
 51
344.4954648401276
  0
ARC
  5
8893
  8
0
 10
62.39068372267238
 20
226.1655475208585
 30
0.0
 40
2.646224561861322
 50
284.6600032593546
 51
312.5396667739578
  0
LINE
  5
8894
  8
0
 10
64.81691565058426
 20
223.5841590194494
 30
0.0
 11
65.12240321401222
 21
223.9279877389916
 31
0.0
  0
ARC
  5
8895
  8
0
 10
62.78856148968734
 20
222.175307250839
 30
0.0
 40
2.469632342666266
 50
34.78302390875149
 51
55.71309290050228
  0
ARC
  5
8896
  8
0
 10
62.96248485210171
 20
225.6001422727176
 30
0.0
 40
1.834272761572525
 50
316.4306178633717
 51
342.9799715932805
  0
ARC
  5
8897
  8
0
 10
62.71363163530268
 20
220.0715989281151
 30
0.0
 40
4.546857725842939
 50
58.0103401497656
 51
69.6947510335346
  0
LINE
  5
88AB
  8
0
 10
55.82186007451
 20
248.2411362700035
 30
0.0
 11
55.82186007451
 21
246.2411362700035
 31
0.0
  0
LINE
  5
88AC
  8
0
 10
48.82186007451
 20
248.2411362700035
 30
0.0
 11
48.82186007451
 21
246.2411362700035
 31
0.0
  0
ARC
  5
88AD
  8
0
 10
49.82186007451
 20
248.2411362700035
 30
0.0
 40
1.0
 50
90.0
 51
180.0
  0
ARC
  5
88AE
  8
0
 10
49.82186007451
 20
246.2411362700035
 30
0.0
 40
1.0
 50
180.0
 51
270.0
  0
ARC
  5
88AF
  8
0
 10
54.82186007451
 20
246.2411362700035
 30
0.0
 40
1.0
 50
270.0
 51
0.0
  0
ARC
  5
88B0
  8
0
 10
54.82186007451
 20
248.2411362700035
 30
0.0
 40
1.0
 50
0.0
 51
90.0
  0
LINE
  5
88B1
  8
0
 10
49.82186007451
 20
249.2411362700035
 30
0.0
 11
54.82186007451
 21
249.2411362700035
 31
0.0
  0
LINE
  5
88B2
  8
0
 10
49.82186007451
 20
245.2411362700035
 30
0.0
 11
54.82186007451
 21
245.2411362700035
 31
0.0
  0
TEXT
  5
88B3
  8
0
 10
42.16044691739713
 20
246.2788604505848
 30
0.0
 40
2.0
  1
OFF
 41
1.5
  0
TEXT
  5
88B4
  8
0
 10
57.20729606708885
 20
246.2788604505848
 30
0.0
 40
2.0
  1
ON
 41
1.5
  0
TEXT
  5
88B5
  8
0
 10
49.75043150308143
 20
246.2980317554704
 30
0.0
 40
2.0
  1
電源
  0
LINE
  5
88B7
  8
0
 10
42.27186071078958
 20
217.1012443773085
 30
0.0
 11
42.27186071078958
 21
219.6387443773091
 31
0.0
  0
LINE
  5
88B8
  8
0
 10
44.37436071078955
 20
217.1012443773085
 30
0.0
 11
44.37436071078955
 21
219.6387443773091
 31
0.0
  0
LINE
  5
88B9
  8
0
 10
44.59186071078975
 20
217.1012443773085
 30
0.0
 11
44.59186071078975
 21
219.6387443773091
 31
0.0
  0
LINE
  5
88BA
  8
0
 10
42.27186071078958
 20
217.1012443773085
 30
0.0
 11
43.06936071078971
 21
217.1012443773085
 31
0.0
  0
LINE
  5
88BB
  8
0
 10
42.27186071078958
 20
219.6387443773091
 30
0.0
 11
43.06936071078971
 21
219.6387443773091
 31
0.0
  0
LINE
  5
88BC
  8
0
 10
43.06936071078971
 20
219.6387443773091
 30
0.0
 11
43.06936071078971
 21
218.768744377309
 31
0.0
  0
LINE
  5
88BD
  8
0
 10
43.57686071078942
 20
219.6387443773091
 30
0.0
 11
43.57686071078942
 21
218.768744377309
 31
0.0
  0
LINE
  5
88BE
  8
0
 10
43.06936071078971
 20
217.1012443773085
 30
0.0
 11
43.06936071078971
 21
217.9712443773084
 31
0.0
  0
LINE
  5
88BF
  8
0
 10
43.57686071078942
 20
217.1012443773085
 30
0.0
 11
43.57686071078942
 21
217.9712443773084
 31
0.0
  0
LINE
  5
88C0
  8
0
 10
43.57686071078942
 20
219.6387443773091
 30
0.0
 11
44.37436071078955
 21
219.6387443773091
 31
0.0
  0
LINE
  5
88C1
  8
0
 10
43.57686071078942
 20
217.1012443773085
 30
0.0
 11
44.37436071078955
 21
217.1012443773085
 31
0.0
  0
LINE
  5
88C2
  8
0
 10
43.06936071078971
 20
218.768744377309
 30
0.0
 11
43.57686071078942
 21
218.768744377309
 31
0.0
  0
LINE
  5
88C3
  8
0
 10
43.06936071078971
 20
217.9712443773084
 30
0.0
 11
43.57686071078942
 21
217.9712443773084
 31
0.0
  0
LINE
  5
88C4
  8
0
 10
45.38936071078942
 20
217.1012443773085
 30
0.0
 11
45.38936071078942
 21
219.6387443773091
 31
0.0
  0
LINE
  5
88C5
  8
0
 10
45.60686071078962
 20
217.1012443773085
 30
0.0
 11
45.60686071078962
 21
219.6387443773091
 31
0.0
  0
LINE
  5
88C6
  8
0
 10
44.59186071078975
 20
219.6387443773091
 30
0.0
 11
45.38936071078942
 21
219.6387443773091
 31
0.0
  0
LINE
  5
88C7
  8
0
 10
44.59186071078975
 20
217.1012443773085
 30
0.0
 11
45.38936071078942
 21
217.1012443773085
 31
0.0
  0
LINE
  5
88C8
  8
0
 10
47.70936071078958
 20
217.1012443773085
 30
0.0
 11
47.70936071078958
 21
217.6812443773084
 31
0.0
  0
LINE
  5
88C9
  8
0
 10
47.70936071078958
 20
219.0587443773092
 30
0.0
 11
47.70936071078958
 21
219.6387443773091
 31
0.0
  0
LINE
  5
88CA
  8
0
 10
45.60686071078962
 20
217.1012443773085
 30
0.0
 11
46.40436071078975
 21
217.1012443773085
 31
0.0
  0
LINE
  5
88CB
  8
0
 10
45.60686071078962
 20
219.6387443773091
 30
0.0
 11
46.40436071078975
 21
219.6387443773091
 31
0.0
  0
LINE
  5
88CC
  8
0
 10
46.40436071078975
 20
219.6387443773091
 30
0.0
 11
46.40436071078975
 21
218.768744377309
 31
0.0
  0
LINE
  5
88CD
  8
0
 10
46.91186071078945
 20
219.6387443773091
 30
0.0
 11
46.91186071078945
 21
219.0587443773092
 31
0.0
  0
LINE
  5
88CE
  8
0
 10
46.40436071078975
 20
217.1012443773085
 30
0.0
 11
46.40436071078975
 21
217.9712443773084
 31
0.0
  0
LINE
  5
88CF
  8
0
 10
46.91186071078945
 20
217.1012443773085
 30
0.0
 11
46.91186071078945
 21
217.6812443773084
 31
0.0
  0
ARC
  5
88D0
  8
0
 10
46.62186071078949
 20
217.6812443773084
 30
0.0
 40
0.29
 50
0.0
 51
90.0
  0
ARC
  5
88D1
  8
0
 10
46.62186071078949
 20
217.6812443773084
 30
0.0
 40
1.0875
 50
0.0
 51
39.29648023919388
  0
LINE
  5
88D2
  8
0
 10
46.91186071078945
 20
219.6387443773091
 30
0.0
 11
47.70936071078958
 21
219.6387443773091
 31
0.0
  0
LINE
  5
88D3
  8
0
 10
46.91186071078945
 20
217.1012443773085
 30
0.0
 11
47.70936071078958
 21
217.1012443773085
 31
0.0
  0
LINE
  5
88D4
  8
0
 10
46.40436071078975
 20
218.768744377309
 30
0.0
 11
46.62186071078949
 21
218.768744377309
 31
0.0
  0
ARC
  5
88D5
  8
0
 10
46.62186071078949
 20
219.0587443773092
 30
0.0
 40
0.29
 50
270.0
 51
0.0
  0
ARC
  5
88D6
  8
0
 10
46.62186071078949
 20
219.0587443773092
 30
0.0
 40
1.0875
 50
320.703519760822
 51
0.0
  0
LINE
  5
88D7
  8
0
 10
46.40436071078975
 20
217.9712443773084
 30
0.0
 11
46.62186071078949
 21
217.9712443773084
 31
0.0
  0
LINE
  5
88D8
  8
0
 10
47.92686071078978
 20
217.1012443773085
 30
0.0
 11
47.92686071078978
 21
218.5874943773084
 31
0.0
  0
LINE
  5
88D9
  8
0
 10
50.02936071078975
 20
217.1012443773085
 30
0.0
 11
50.02936071078975
 21
218.5874943773084
 31
0.0
  0
LINE
  5
88DA
  8
0
 10
47.92686071078978
 20
217.1012443773085
 30
0.0
 11
48.72436071078945
 21
217.1012443773085
 31
0.0
  0
LINE
  5
88DB
  8
0
 10
48.72436071078945
 20
217.1012443773085
 30
0.0
 11
48.72436071078945
 21
217.6087443773082
 31
0.0
  0
LINE
  5
88DC
  8
0
 10
49.23186071078962
 20
217.1012443773085
 30
0.0
 11
49.23186071078962
 21
217.6087443773082
 31
0.0
  0
LINE
  5
88DD
  8
0
 10
49.23186071078962
 20
217.1012443773085
 30
0.0
 11
50.02936071078975
 21
217.1012443773085
 31
0.0
  0
LINE
  5
88DE
  8
0
 10
48.72436071078945
 20
217.6087443773082
 30
0.0
 11
49.23186071078962
 21
217.6087443773082
 31
0.0
  0
LINE
  5
88DF
  8
0
 10
48.72436071078945
 20
218.3337443773086
 30
0.0
 11
49.23186071078962
 21
218.3337443773086
 31
0.0
  0
ARC
  5
88E0
  8
0
 10
48.97811071078976
 20
218.5874943773084
 30
0.0
 40
1.05125
 50
0.0
 51
180.0
  0
ARC
  5
88E1
  8
0
 10
48.97811071078976
 20
218.5874943773084
 30
0.0
 40
0.25375
 50
0.0
 51
180.0
  0
LINE
  5
88E2
  8
0
 10
48.72436071078945
 20
218.3337443773086
 30
0.0
 11
48.72436071078945
 21
218.5874943773084
 31
0.0
  0
LINE
  5
88E3
  8
0
 10
49.23186071078962
 20
218.5874943773084
 30
0.0
 11
49.23186071078962
 21
218.3337443773086
 31
0.0
  0
LINE
  5
88E4
  8
0
 10
50.24686071078949
 20
217.1012443773085
 30
0.0
 11
50.24686071078949
 21
219.6387443773091
 31
0.0
  0
LINE
  5
88E5
  8
0
 10
52.34936071078945
 20
217.1012443773085
 30
0.0
 11
52.34936071078945
 21
217.6812443773084
 31
0.0
  0
LINE
  5
88E6
  8
0
 10
50.24686071078949
 20
217.1012443773085
 30
0.0
 11
51.04436071078962
 21
217.1012443773085
 31
0.0
  0
LINE
  5
88E7
  8
0
 10
51.1893607107896
 20
217.8987443773086
 30
0.0
 11
51.33436071078958
 21
217.8987443773086
 31
0.0
  0
LINE
  5
88E8
  8
0
 10
51.1893607107896
 20
218.478744377309
 30
0.0
 11
51.33436071078958
 21
218.478744377309
 31
0.0
  0
LINE
  5
88E9
  8
0
 10
51.04436071078962
 20
217.1012443773085
 30
0.0
 11
51.04436071078962
 21
218.9137443773087
 31
0.0
  0
LINE
  5
88EA
  8
0
 10
51.55186071078978
 20
217.1012443773085
 30
0.0
 11
51.55186071078978
 21
217.6812443773084
 31
0.0
  0
ARC
  5
88EB
  8
0
 10
51.33436071078958
 20
217.6812443773084
 30
0.0
 40
0.2175
 50
0.0
 51
90.0
  0
ARC
  5
88EC
  8
0
 10
51.33436071078958
 20
217.6812443773084
 30
0.0
 40
1.015
 50
0.0
 51
30.66296328368622
  0
LINE
  5
88ED
  8
0
 10
50.24686071078949
 20
219.6387443773091
 30
0.0
 11
51.40686071078935
 21
219.6387443773091
 31
0.0
  0
LINE
  5
88EE
  8
0
 10
51.04436071078962
 20
218.9137443773087
 30
0.0
 11
51.33436071078958
 21
218.9137443773087
 31
0.0
  0
LINE
  5
88EF
  8
0
 10
51.55186071078978
 20
217.1012443773085
 30
0.0
 11
52.34936071078945
 21
217.1012443773085
 31
0.0
  0
ARC
  5
88F0
  8
0
 10
51.33436071078958
 20
218.6962443773087
 30
0.0
 40
0.2175
 50
270.0
 51
90.0
  0
ARC
  5
88F1
  8
0
 10
51.40686071078935
 20
218.6962443773087
 30
0.0
 40
0.9425
 50
328.1493895340843
 51
90.0
  0
LINE
  5
88F2
  8
0
 10
51.1893607107896
 20
218.478744377309
 30
0.0
 11
51.1893607107896
 21
217.8987443773086
 31
0.0
  0
LINE
  5
88F3
  8
0
 10
52.56686071078965
 20
217.1012443773085
 30
0.0
 11
52.56686071078965
 21
219.6387443773091
 31
0.0
  0
LINE
  5
88F4
  8
0
 10
53.36436071078978
 20
217.1012443773085
 30
0.0
 11
53.36436071078978
 21
219.6387443773091
 31
0.0
  0
LINE
  5
88F5
  8
0
 10
56.26436071078942
 20
217.1374943773086
 30
0.0
 11
56.26436071078942
 21
218.5874943773084
 31
0.0
  0
LINE
  5
88F6
  8
0
 10
52.56686071078965
 20
219.6387443773091
 30
0.0
 11
53.36436071078978
 21
219.6387443773091
 31
0.0
  0
LINE
  5
88F7
  8
0
 10
52.56686071078965
 20
217.1012443773085
 30
0.0
 11
53.36436071078978
 21
217.1012443773085
 31
0.0
  0
ARC
  5
88F8
  8
0
 10
55.53936071078951
 20
218.3699943773087
 30
0.0
 40
1.305
 50
84.27518954777628
 51
281.4211862750073
  0
ARC
  5
88F9
  8
0
 10
55.53936071078951
 20
218.3699943773087
 30
0.0
 40
0.5075000000000001
 50
84.27518954777645
 51
270.0
  0
CIRCLE
  5
88FA
  8
0
 10
57.78686071078945
 20
218.3699943773087
 30
0.0
 40
1.305
  0
CIRCLE
  5
88FB
  8
0
 10
57.78686071078945
 20
218.3699943773087
 30
0.0
 40
0.5075000000000001
  0
LINE
  5
88FC
  8
0
 10
55.53936071078951
 20
217.862494377309
 30
0.0
 11
55.53936071078951
 21
218.5874943773084
 31
0.0
  0
LINE
  5
88FD
  8
0
 10
55.53936071078951
 20
218.5874943773084
 30
0.0
 11
56.26436071078942
 21
218.5874943773084
 31
0.0
  0
LINE
  5
88FE
  8
0
 10
55.79777655237385
 20
217.0908359614674
 30
0.0
 11
56.26436071078942
 21
217.1374943773086
 31
0.0
  0
LINE
  5
88FF
  8
0
 10
55.66953527438054
 20
219.6684856491291
 30
0.0
 11
56.26436071078942
 21
219.6387443773091
 31
0.0
  0
LINE
  5
8900
  8
0
 10
56.26436071078942
 20
219.6387443773091
 30
0.0
 11
56.26436071078942
 21
218.8412443773085
 31
0.0
  0
LINE
  5
8901
  8
0
 10
56.26436071078942
 20
218.8412443773085
 30
0.0
 11
55.58998415218602
 21
218.8749632052394
 31
0.0
  0
LINE
  5
8902
  8
0
 10
59.30936071078949
 20
217.1012443773085
 30
0.0
 11
59.30936071078949
 21
219.6387443773091
 31
0.0
  0
LINE
  5
8903
  8
0
 10
61.41186071078945
 20
217.1012443773085
 30
0.0
 11
61.41186071078945
 21
217.6812443773084
 31
0.0
  0
LINE
  5
8904
  8
0
 10
61.41186071078945
 20
219.0587443773092
 30
0.0
 11
61.41186071078945
 21
219.6387443773091
 31
0.0
  0
LINE
  5
8905
  8
0
 10
59.30936071078949
 20
217.1012443773085
 30
0.0
 11
60.10686071078962
 21
217.1012443773085
 31
0.0
  0
LINE
  5
8906
  8
0
 10
59.30936071078949
 20
219.6387443773091
 30
0.0
 11
60.10686071078962
 21
219.6387443773091
 31
0.0
  0
LINE
  5
8907
  8
0
 10
60.10686071078962
 20
219.6387443773091
 30
0.0
 11
60.10686071078962
 21
218.768744377309
 31
0.0
  0
LINE
  5
8908
  8
0
 10
60.61436071078978
 20
219.6387443773091
 30
0.0
 11
60.61436071078978
 21
219.0587443773092
 31
0.0
  0
LINE
  5
8909
  8
0
 10
60.10686071078962
 20
217.1012443773085
 30
0.0
 11
60.10686071078962
 21
217.9712443773084
 31
0.0
  0
LINE
  5
890A
  8
0
 10
60.61436071078978
 20
217.1012443773085
 30
0.0
 11
60.61436071078978
 21
217.6812443773084
 31
0.0
  0
ARC
  5
890B
  8
0
 10
60.32436071078936
 20
217.6812443773084
 30
0.0
 40
0.29
 50
0.0
 51
90.0
  0
ARC
  5
890C
  8
0
 10
60.32436071078936
 20
217.6812443773084
 30
0.0
 40
1.0875
 50
0.0
 51
39.29648023919341
  0
LINE
  5
890D
  8
0
 10
60.61436071078978
 20
219.6387443773091
 30
0.0
 11
61.41186071078945
 21
219.6387443773091
 31
0.0
  0
LINE
  5
890E
  8
0
 10
60.61436071078978
 20
217.1012443773085
 30
0.0
 11
61.41186071078945
 21
217.1012443773085
 31
0.0
  0
LINE
  5
890F
  8
0
 10
60.10686071078962
 20
218.768744377309
 30
0.0
 11
60.32436071078936
 21
218.768744377309
 31
0.0
  0
ARC
  5
8910
  8
0
 10
60.32436071078936
 20
219.0587443773092
 30
0.0
 40
0.29
 50
270.0
 51
0.0
  0
ARC
  5
8911
  8
0
 10
60.32436071078936
 20
219.0587443773092
 30
0.0
 40
1.0875
 50
320.7035197608225
 51
0.0
  0
LINE
  5
8912
  8
0
 10
60.10686071078962
 20
217.9712443773084
 30
0.0
 11
60.32436071078936
 21
217.9712443773084
 31
0.0
  0
LINE
  5
8913
  8
0
 10
61.62936071078965
 20
217.1012443773085
 30
0.0
 11
61.62936071078965
 21
219.6387443773091
 31
0.0
  0
LINE
  5
8914
  8
0
 10
62.42686071078978
 20
217.1012443773085
 30
0.0
 11
62.42686071078978
 21
219.6387443773091
 31
0.0
  0
LINE
  5
8915
  8
0
 10
61.62936071078965
 20
219.6387443773091
 30
0.0
 11
62.42686071078978
 21
219.6387443773091
 31
0.0
  0
LINE
  5
8916
  8
0
 10
61.62936071078965
 20
217.1012443773085
 30
0.0
 11
62.42686071078978
 21
217.1012443773085
 31
0.0
  0
LINE
  5
8917
  8
0
 10
62.64436071078953
 20
217.1012443773085
 30
0.0
 11
62.64436071078953
 21
218.5874943773084
 31
0.0
  0
LINE
  5
8918
  8
0
 10
64.74686071078949
 20
217.1012443773085
 30
0.0
 11
64.74686071078949
 21
218.5874943773084
 31
0.0
  0
LINE
  5
8919
  8
0
 10
62.64436071078953
 20
217.1012443773085
 30
0.0
 11
63.44186071078965
 21
217.1012443773085
 31
0.0
  0
LINE
  5
891A
  8
0
 10
63.44186071078965
 20
217.1012443773085
 30
0.0
 11
63.44186071078965
 21
218.5874943773084
 31
0.0
  0
LINE
  5
891B
  8
0
 10
63.94936071078936
 20
217.1012443773085
 30
0.0
 11
63.94936071078936
 21
218.5874943773084
 31
0.0
  0
LINE
  5
891C
  8
0
 10
63.94936071078936
 20
217.1012443773085
 30
0.0
 11
64.74686071078949
 21
217.1012443773085
 31
0.0
  0
ARC
  5
891D
  8
0
 10
63.69561071078951
 20
218.5874943773084
 30
0.0
 40
1.05125
 50
0.0
 51
180.0
  0
ARC
  5
891E
  8
0
 10
63.69561071078951
 20
218.5874943773084
 30
0.0
 40
0.25375
 50
0.0
 51
180.0
  0
LINE
  5
891F
  8
0
 10
56.52186071078958
 20
212.8911362700034
 30
0.0
 11
64.52186071078958
 21
212.8911362700034
 31
0.0
  0
ARC
  5
8920
  8
0
 10
64.52186071078958
 20
210.8911362700034
 30
0.0
 40
2.0
 50
0.0
 51
90.0
  0
ARC
  5
8921
  8
0
 10
56.52186071078958
 20
210.8911362700034
 30
0.0
 40
2.0
 50
90.0
 51
180.0
  0
ARC
  5
8922
  8
0
 10
64.52186071078958
 20
203.8911362700029
 30
0.0
 40
2.0
 50
270.0
 51
0.0
  0
LINE
  5
8923
  8
0
 10
66.52186071078958
 20
203.8911362700029
 30
0.0
 11
66.52186071078958
 21
210.8911362700034
 31
0.0
  0
LINE
  5
8924
  8
0
 10
56.52186071078958
 20
201.8911362700029
 30
0.0
 11
64.52186071078958
 21
201.8911362700029
 31
0.0
  0
ARC
  5
8925
  8
0
 10
56.52186071078958
 20
203.8911362700029
 30
0.0
 40
2.0
 50
180.0
 51
270.0
  0
LINE
  5
8926
  8
0
 10
54.52186071078958
 20
203.8911362700029
 30
0.0
 11
54.52186071078958
 21
210.8911362700034
 31
0.0
  0
CIRCLE
  5
8927
  8
0
 10
95.52186071078958
 20
209.8911362700034
 30
0.0
 40
7.499999999999949
  0
CIRCLE
  5
8928
  8
0
 10
95.52186071078958
 20
209.8911362700034
 30
0.0
 40
8.20000000000001
  0
CIRCLE
  5
8929
  8
0
 10
95.52186071078958
 20
209.8911362700034
 30
0.0
 40
8.499999999999963
  0
LINE
  5
892A
  8
0
 10
68.27186071078958
 20
203.8911362700029
 30
0.0
 11
68.27186071078958
 21
215.8911362700034
 31
0.0
  0
LINE
  5
892B
  8
0
 10
68.57186071078954
 20
203.8911362700029
 30
0.0
 11
68.57186071078954
 21
209.8911362700029
 31
0.0
  0
ARC
  5
892C
  8
0
 10
70.27186071078958
 20
203.8911362700029
 30
0.0
 40
2.0
 50
180.0
 51
270.0
1001
GENIUS_GENOBJ-N-FIL_13
1002
{
1000
OWNER
1000
GEN
1002
}
1001
GENIUS_GENODEF_13
1002
{
1000
HIER
1070
     0
1002
}
1002
{
1000
MANEDIT
1070
     0
1002
}
1002
{
1000
NOSEL
1070
     0
1002
}
1002
{
1000
BEHIND
1070
     0
1002
}
1002
{
1000
OTHER
1070
     0
1002
}
1002
{
1000
REACTOR
1002
}
  0
ARC
  5
892D
  8
0
 10
70.27186071078958
 20
203.8911362700029
 30
0.0
 40
1.7
 50
180.0
 51
270.0
1001
GENIUS_GENOBJ-N-FIL_13
1002
{
1000
OWNER
1000
GEN
1002
}
1001
GENIUS_GENODEF_13
1002
{
1000
HIER
1070
     0
1002
}
1002
{
1000
MANEDIT
1070
     0
1002
}
1002
{
1000
NOSEL
1070
     0
1002
}
1002
{
1000
BEHIND
1070
     0
1002
}
1002
{
1000
OTHER
1070
     0
1002
}
1002
{
1000
REACTOR
1002
}
  0
LINE
  5
892E
  8
0
 10
86.27186071078867
 20
203.8911362700029
 30
0.0
 11
86.27186071078867
 21
215.8911362700024
 31
0.0
  0
LINE
  5
892F
  8
0
 10
85.97186071078872
 20
203.8911362700029
 30
0.0
 11
85.97186071078872
 21
209.8911362700029
 31
0.0
  0
ARC
  5
8930
  8
0
 10
84.27186071078867
 20
215.8911362700024
 30
0.0
 40
2.0
 50
0.0
 51
90.0
1001
GENIUS_GENODEF_13
1002
{
1000
HIER
1070
     0
1002
}
1002
{
1000
MANEDIT
1070
     0
1002
}
1002
{
1000
NOSEL
1070
     0
1002
}
1002
{
1000
BEHIND
1070
     0
1002
}
1002
{
1000
OTHER
1070
     0
1002
}
1002
{
1000
REACTOR
1002
}
1001
GENIUS_GENOBJ-N-FIL_13
1002
{
1000
OWNER
1000
GEN
1002
}
  0
INSERT
  5
8931
  8
0
  2
*X13
 10
0.0
 20
0.0
 30
0.0
  0
LINE
  5
8932
  8
0
 10
86.27186071078867
 20
209.8911362700029
 30
0.0
 11
68.27186071078958
 21
209.8911362700029
 31
0.0
  0
CIRCLE
  5
8933
  8
0
 10
77.4734742502047
 20
213.8911362700034
 30
0.0
 40
2.0
  0
LINE
  5
8934
  8
0
 10
84.27186071078867
 20
217.8911362700024
 30
0.0
 11
70.27186071078958
 21
217.8911362700034
 31
0.0
  0
ARC
  5
8935
  8
0
 10
70.27186071078958
 20
215.8911362700034
 30
0.0
 40
2.0
 50
90.0
 51
180.0
1001
GENIUS_GENOBJ-N-FIL_13
1002
{
1000
OWNER
1000
GEN
1002
}
1001
GENIUS_GENODEF_13
1002
{
1000
HIER
1070
     0
1002
}
1002
{
1000
MANEDIT
1070
     0
1002
}
1002
{
1000
NOSEL
1070
     0
1002
}
1002
{
1000
BEHIND
1070
     0
1002
}
1002
{
1000
OTHER
1070
     0
1002
}
1002
{
1000
REACTOR
1002
}
  0
LINE
  5
8936
  8
0
 10
84.27186071078867
 20
201.8911362700029
 30
0.0
 11
70.27186071078958
 21
201.8911362700029
 31
0.0
  0
LINE
  5
8937
  8
0
 10
84.27186071078867
 20
202.1911362700029
 30
0.0
 11
70.27186071078958
 21
202.1911362700029
 31
0.0
  0
ARC
  5
8938
  8
0
 10
84.27186071078867
 20
203.8911362700029
 30
0.0
 40
2.0
 50
270.0
 51
0.0
1001
GENIUS_GENODEF_13
1002
{
1000
HIER
1070
     0
1002
}
1002
{
1000
MANEDIT
1070
     0
1002
}
1002
{
1000
NOSEL
1070
     0
1002
}
1002
{
1000
BEHIND
1070
     0
1002
}
1002
{
1000
OTHER
1070
     0
1002
}
1002
{
1000
REACTOR
1002
}
1001
GENIUS_GENOBJ-N-FIL_13
1002
{
1000
OWNER
1000
GEN
1002
}
  0
ARC
  5
8939
  8
0
 10
84.27186071078867
 20
203.8911362700029
 30
0.0
 40
1.7
 50
270.0
 51
0.0
1001
GENIUS_GENODEF_13
1002
{
1000
HIER
1070
     0
1002
}
1002
{
1000
MANEDIT
1070
     0
1002
}
1002
{
1000
NOSEL
1070
     0
1002
}
1002
{
1000
BEHIND
1070
     0
1002
}
1002
{
1000
OTHER
1070
     0
1002
}
1002
{
1000
REACTOR
1002
}
1001
GENIUS_GENOBJ-N-FIL_13
1002
{
1000
OWNER
1000
GEN
1002
}
  0
TEXT
  5
893A
  8
0
 10
69.34773150036412
 20
212.9769742415556
 30
0.0
 40
1.9
  1
給水
  0
TEXT
  5
893B
  8
0
 10
89.34301098908271
 20
207.9715320646849
 30
0.0
 40
4.0
  1
PUSH
 41
1.2
  0
TEXT
  5
893C
  8
0
 10
42.15052490373949
 20
220.3458387727714
 30
0.0
 40
1.8
  1
電動水抜操作盤
  0
TEXT
  5
893D
  8
0
 10
42.07371599835916
 20
214.4200502755542
 30
0.0
 40
1.8
  1
ER2000
  0
TEXT
  5
893F
  8
0
 10
44.47302753709982
 20
198.5567190563594
 30
0.0
 40
1.3
  1
冬期以外(凍結の心配がない期間)や長期間使用しないときは電源をOFFにしてください
  0
CIRCLE
  5
8942
  8
0
 10
42.83879638719449
 20
198.5903705977995
 30
0.0
 40
0.1
  0
LINE
  5
8943
  8
0
 10
42.73879638719458
 20
199.5903705977995
 30
0.0
 11
42.78923886507059
 21
198.833733429659
 31
0.0
  0
LINE
  5
8944
  8
0
 10
42.93879638719486
 20
199.5903705977995
 30
0.0
 11
42.8883539093184
 21
198.8337334296572
 31
0.0
  0
ARC
  5
8945
  8
0
 10
42.83879638719449
 20
199.5903705977995
 30
0.0
 40
0.1
 50
0.0
 51
180.0
  0
ARC
  5
8946
  8
0
 10
42.83879638719449
 20
198.8403705977995
 30
0.0
 40
0.05
 50
187.6281496672678
 51
352.3718503306272
  0
TEXT
  5
894A
  8
0
 10
55.65609498313664
 20
203.1068556636895
 30
0.0
 40
1.9
  1
点検
  0
CIRCLE
  5
894B
  8
0
 10
82.52186071079004
 20
205.8911362700032
 30
0.0
 40
2.0
  0
CIRCLE
  5
894C
  8
0
 10
82.52186071079004
 20
205.8911362700032
 30
0.0
 40
1.5
  0
CIRCLE
  5
894D
  8
0
 10
82.52186071079004
 20
213.8911362700032
 30
0.0
 40
2.0
  0
CIRCLE
  5
894E
  8
0
 10
82.52186071079004
 20
213.8911362700032
 30
0.0
 40
1.5
  0
ARC
  5
894F
  8
0
 10
64.27349690451774
 20
204.4584520354259
 30
0.0
 40
0.9999999999999992
 50
233.0491207032591
 51
57.32628399712536
  0
LINE
  5
8950
  8
0
 10
63.67236678704717
 20
203.6593008720847
 30
0.0
 11
58.96523257543257
 21
207.2000579545677
 31
0.0
  0
LINE
  5
8951
  8
0
 10
59.85525242607736
 20
208.4800423840364
 30
0.0
 11
64.81335113157988
 21
205.3002105598993
 31
0.0
  0
ARC
  5
8952
  8
0
 10
57.40560133188031
 20
209.2339502767104
 30
0.0
 40
1.99079584716086
 50
1.683229077249547
 51
160.7903378653509
  0
ARC
  5
8953
  8
0
 10
60.39510665313992
 20
209.3218009085096
 30
0.0
 40
0.9999999999999992
 50
181.6832290772424
 51
237.3262839971245
1001
GENIUS_GENODEF_13
1002
{
1000
HIER
1070
     0
1002
}
1002
{
1000
MANEDIT
1070
     0
1002
}
1002
{
1000
NOSEL
1070
     0
1002
}
1002
{
1000
BEHIND
1070
     0
1002
}
1002
{
1000
OTHER
1070
     0
1002
}
1002
{
1000
REACTOR
1002
}
1001
GENIUS_GENOBJ-N-FIL_13
1002
{
1000
OWNER
1000
GEN
1002
}
  0
ARC
  5
8954
  8
0
 10
57.40560133188031
 20
209.2339502767104
 30
0.0
 40
1.99079584716086
 50
219.5850668351124
 51
288.6921756231421
  0
ARC
  5
8955
  8
0
 10
58.36410245796236
 20
206.4009067912262
 30
0.0
 40
0.9999999999999992
 50
53.04912070325908
 51
108.6921756231406
1001
GENIUS_GENOBJ-N-FIL_13
1002
{
1000
OWNER
1000
GEN
1002
}
1001
GENIUS_GENODEF_13
1002
{
1000
HIER
1070
     0
1002
}
1002
{
1000
MANEDIT
1070
     0
1002
}
1002
{
1000
NOSEL
1070
     0
1002
}
1002
{
1000
BEHIND
1070
     0
1002
}
1002
{
1000
OTHER
1070
     0
1002
}
1002
{
1000
REACTOR
1002
}
  0
LINE
  5
8956
  8
0
 10
57.96654585710496
 20
209.3347558361868
 30
0.0
 11
57.58409148041193
 21
208.273162916147
 31
0.0
  0
LINE
  5
8957
  8
0
 10
57.58409148041193
 20
208.273162916147
 30
0.0
 11
55.87133608188205
 21
207.9653690819417
 31
0.0
  0
LINE
  5
8958
  8
0
 10
57.96654585710485
 20
209.3347558361875
 30
0.0
 11
57.23840660821811
 21
210.1967675022119
 31
0.0
  0
LINE
  5
8959
  8
0
 10
57.23840660821811
 20
210.1967675022119
 30
0.0
 11
55.52565120968799
 21
209.8889736680063
 31
0.0
  0
CIRCLE
  5
895A
  8
0
 10
64.27349690451774
 20
204.4584520354259
 30
0.0
 40
0.4999999999999996
  0
LINE
  5
895B
  8
0
 10
42.53437110525473
 20
212.5722712700029
 30
0.0
 11
44.87115260525476
 21
212.5722712700029
 31
0.0
  0
LINE
  5
895C
  8
0
 10
44.87115260525476
 20
212.5722712700029
 30
0.0
 11
44.87115260525476
 21
212.9062551700029
 31
0.0
  0
LINE
  5
895D
  8
0
 10
44.87115260525476
 20
212.9062551700029
 30
0.0
 11
42.53437110525473
 21
212.9062551700029
 31
0.0
  0
LINE
  5
895E
  8
0
 10
42.53437110525473
 20
212.9062551700029
 30
0.0
 11
42.53437110525473
 21
212.5722712700029
 31
0.0
  0
LINE
  5
895F
  8
0
 10
45.53874610525475
 20
212.5722712700029
 30
0.0
 11
46.53996060525475
 21
212.5722712700029
 31
0.0
  0
LINE
  5
8960
  8
0
 10
46.53996060525475
 20
212.5722712700029
 30
0.0
 11
46.53996060525475
 21
212.9062551700029
 31
0.0
  0
LINE
  5
8961
  8
0
 10
46.53996060525475
 20
212.9062551700029
 30
0.0
 11
45.53874610525475
 21
212.9062551700029
 31
0.0
  0
LINE
  5
8962
  8
0
 10
45.53874610525475
 20
212.9062551700029
 30
0.0
 11
45.53874610525475
 21
212.5722712700029
 31
0.0
  0
LINE
  5
8963
  8
0
 10
47.20751610525474
 20
212.5722712700029
 30
0.0
 11
47.54150000525476
 21
212.5722712700029
 31
0.0
  0
LINE
  5
8964
  8
0
 10
47.54150000525476
 20
212.5722712700029
 30
0.0
 11
47.54150000525476
 21
212.9062551700029
 31
0.0
  0
LINE
  5
8965
  8
0
 10
47.54150000525476
 20
212.9062551700029
 30
0.0
 11
47.20751610525474
 21
212.9062551700029
 31
0.0
  0
LINE
  5
8966
  8
0
 10
47.20751610525474
 20
212.9062551700029
 30
0.0
 11
47.20751610525474
 21
212.5722712700029
 31
0.0
  0
LINE
  5
8967
  8
0
 10
47.87508110525474
 20
212.5722712700029
 30
0.0
 11
48.20906595525474
 21
212.5722712700029
 31
0.0
  0
LINE
  5
8968
  8
0
 10
48.20906595525474
 20
212.5722712700029
 30
0.0
 11
48.20906595525474
 21
212.9062551700029
 31
0.0
  0
LINE
  5
8969
  8
0
 10
48.20906595525474
 20
212.9062551700029
 30
0.0
 11
47.87508110525474
 21
212.9062551700029
 31
0.0
  0
LINE
  5
896A
  8
0
 10
47.87508110525474
 20
212.9062551700029
 30
0.0
 11
47.87508110525474
 21
212.5722712700029
 31
0.0
  0
LINE
  5
896B
  8
0
 10
48.54274110525472
 20
212.5722712700029
 30
0.0
 11
48.87672595525476
 21
212.5722712700029
 31
0.0
  0
LINE
  5
896C
  8
0
 10
48.87672595525476
 20
212.5722712700029
 30
0.0
 11
48.87672595525476
 21
212.9062551700029
 31
0.0
  0
LINE
  5
896D
  8
0
 10
48.87672595525476
 20
212.9062551700029
 30
0.0
 11
48.54274110525472
 21
212.9062551700029
 31
0.0
  0
LINE
  5
896E
  8
0
 10
48.54274110525472
 20
212.9062551700029
 30
0.0
 11
48.54274110525472
 21
212.5722712700029
 31
0.0
  0
LINE
  5
896F
  8
0
 10
49.87749110525473
 20
212.5722712700029
 30
0.0
 11
50.21147500525474
 21
212.5722712700029
 31
0.0
  0
LINE
  5
8970
  8
0
 10
50.21147500525474
 20
212.5722712700029
 30
0.0
 11
50.21147500525474
 21
212.9062551700029
 31
0.0
  0
LINE
  5
8971
  8
0
 10
50.21147500525474
 20
212.9062551700029
 30
0.0
 11
49.87749110525473
 21
212.9062551700029
 31
0.0
  0
LINE
  5
8972
  8
0
 10
49.87749110525473
 20
212.9062551700029
 30
0.0
 11
49.87749110525473
 21
212.5722712700029
 31
0.0
  0
LINE
  5
8974
  8
0
 10
51.54708000525474
 20
212.5722712700029
 30
0.0
 11
53.21550610525475
 21
212.5722712700029
 31
0.0
  0
LINE
  5
8975
  8
0
 10
53.54987760525474
 20
210.5691012700029
 30
0.0
 11
53.54987760525474
 21
212.9062551700029
 31
0.0
  0
LINE
  5
8976
  8
0
 10
53.54987760525474
 20
212.9062551700029
 30
0.0
 11
51.21309610525475
 21
212.9062551700029
 31
0.0
  0
LINE
  5
8977
  8
0
 10
51.21309610525475
 20
212.9062551700029
 30
0.0
 11
51.21309610525475
 21
210.5691012700029
 31
0.0
  0
LINE
  5
8978
  8
0
 10
42.53437110525473
 20
212.2383462700029
 30
0.0
 11
42.86872645525474
 21
212.2383462700029
 31
0.0
  0
LINE
  5
8979
  8
0
 10
42.86872645525474
 20
212.2383462700029
 30
0.0
 11
42.86872645525474
 21
212.5723311200029
 31
0.0
  0
LINE
  5
897A
  8
0
 10
42.86872645525474
 20
212.5723311200029
 30
0.0
 11
42.53437110525473
 21
212.5723311200029
 31
0.0
  0
LINE
  5
897B
  8
0
 10
42.53437110525473
 20
212.5723311200029
 30
0.0
 11
42.53437110525473
 21
212.2383462700029
 31
0.0
  0
LINE
  5
897C
  8
0
 10
44.53744610525473
 20
212.2383462700029
 30
0.0
 11
44.87143000525472
 21
212.2383462700029
 31
0.0
  0
LINE
  5
897D
  8
0
 10
44.87143000525472
 20
212.2383462700029
 30
0.0
 11
44.87143000525472
 21
212.5723311200029
 31
0.0
  0
LINE
  5
897E
  8
0
 10
44.87143000525472
 20
212.5723311200029
 30
0.0
 11
44.53744610525473
 21
212.5723311200029
 31
0.0
  0
LINE
  5
897F
  8
0
 10
44.53744610525473
 20
212.5723311200029
 30
0.0
 11
44.53744610525473
 21
212.2383462700029
 31
0.0
  0
LINE
  5
8980
  8
0
 10
45.20510610525474
 20
212.2383462700029
 30
0.0
 11
46.20669110525472
 21
212.2383462700029
 31
0.0
  0
LINE
  5
8981
  8
0
 10
46.20669110525472
 20
212.2383462700029
 30
0.0
 11
46.20669110525472
 21
212.5723311200029
 31
0.0
  0
LINE
  5
8982
  8
0
 10
46.20669110525472
 20
212.5723311200029
 30
0.0
 11
45.20510610525474
 21
212.5723311200029
 31
0.0
  0
LINE
  5
8983
  8
0
 10
45.20510610525474
 20
212.5723311200029
 30
0.0
 11
45.20510610525474
 21
212.2383462700029
 31
0.0
  0
LINE
  5
8984
  8
0
 10
46.54033110525475
 20
212.2383462700029
 30
0.0
 11
47.54154560525473
 21
212.2383462700029
 31
0.0
  0
LINE
  5
8985
  8
0
 10
47.54154560525473
 20
212.2383462700029
 30
0.0
 11
47.54154560525473
 21
212.5723311200029
 31
0.0
  0
LINE
  5
8986
  8
0
 10
47.54154560525473
 20
212.5723311200029
 30
0.0
 11
46.54033110525475
 21
212.5723311200029
 31
0.0
  0
LINE
  5
8987
  8
0
 10
46.54033110525475
 20
212.5723311200029
 30
0.0
 11
46.54033110525475
 21
212.2383462700029
 31
0.0
  0
LINE
  5
8988
  8
0
 10
48.20910110525475
 20
212.2383462700029
 30
0.0
 11
48.54308500525474
 21
212.2383462700029
 31
0.0
  0
LINE
  5
8989
  8
0
 10
48.54308500525474
 20
212.2383462700029
 30
0.0
 11
48.54308500525474
 21
212.5723311200029
 31
0.0
  0
LINE
  5
898A
  8
0
 10
48.54308500525474
 20
212.5723311200029
 30
0.0
 11
48.20910110525475
 21
212.5723311200029
 31
0.0
  0
LINE
  5
898B
  8
0
 10
48.20910110525475
 20
212.5723311200029
 30
0.0
 11
48.20910110525475
 21
212.2383462700029
 31
0.0
  0
LINE
  5
898C
  8
0
 10
49.20992610525474
 20
212.2383462700029
 30
0.0
 11
49.54428145525475
 21
212.2383462700029
 31
0.0
  0
LINE
  5
898D
  8
0
 10
49.54428145525475
 20
212.2383462700029
 30
0.0
 11
49.54428145525475
 21
212.5723311200029
 31
0.0
  0
LINE
  5
898E
  8
0
 10
49.54428145525475
 20
212.5723311200029
 30
0.0
 11
49.20992610525474
 21
212.5723311200029
 31
0.0
  0
LINE
  5
898F
  8
0
 10
49.20992610525474
 20
212.5723311200029
 30
0.0
 11
49.20992610525474
 21
212.2383462700029
 31
0.0
  0
LINE
  5
8990
  8
0
 10
49.87749110525473
 20
212.2383462700029
 30
0.0
 11
50.21147500525474
 21
212.2383462700029
 31
0.0
  0
LINE
  5
8991
  8
0
 10
50.21147500525474
 20
212.2383462700029
 30
0.0
 11
50.21147500525474
 21
212.5723311200029
 31
0.0
  0
LINE
  5
8992
  8
0
 10
50.21147500525474
 20
212.5723311200029
 30
0.0
 11
49.87749110525473
 21
212.5723311200029
 31
0.0
  0
LINE
  5
8993
  8
0
 10
49.87749110525473
 20
212.5723311200029
 30
0.0
 11
49.87749110525473
 21
212.2383462700029
 31
0.0
  0
LINE
  5
8994
  8
0
 10
50.54591110525473
 20
212.2383462700029
 30
0.0
 11
50.87989595525474
 21
212.2383462700029
 31
0.0
  0
LINE
  5
8996
  8
0
 10
50.87989595525474
 20
212.2383016200029
 30
0.0
 11
50.87989595525474
 21
212.5723311200029
 31
0.0
  0
LINE
  5
8997
  8
0
 10
50.87989595525474
 20
212.5723311200029
 30
0.0
 11
50.54591110525473
 21
212.5723311200029
 31
0.0
  0
LINE
  5
8998
  8
0
 10
50.54591110525473
 20
212.5723311200029
 30
0.0
 11
50.54591110525473
 21
212.2383016200029
 31
0.0
  0
LINE
  5
8999
  8
0
 10
42.53437110525473
 20
211.9039462700029
 30
0.0
 11
42.86872645525474
 21
211.9039462700029
 31
0.0
  0
LINE
  5
899A
  8
0
 10
42.86872645525474
 20
211.9039462700029
 30
0.0
 11
42.86872645525474
 21
212.2383016200029
 31
0.0
  0
LINE
  5
899B
  8
0
 10
42.86872645525474
 20
212.2383016200029
 30
0.0
 11
42.53437110525473
 21
212.2383016200029
 31
0.0
  0
LINE
  5
899C
  8
0
 10
42.53437110525473
 20
212.2383016200029
 30
0.0
 11
42.53437110525473
 21
211.9039462700029
 31
0.0
  0
LINE
  5
899D
  8
0
 10
43.20193610525473
 20
211.9039462700029
 30
0.0
 11
44.20352110525474
 21
211.9039462700029
 31
0.0
  0
LINE
  5
899E
  8
0
 10
44.20352110525474
 20
211.9039462700029
 30
0.0
 11
44.20352110525474
 21
212.2383016200029
 31
0.0
  0
LINE
  5
899F
  8
0
 10
44.20352110525474
 20
212.2383016200029
 30
0.0
 11
43.20193610525473
 21
212.2383016200029
 31
0.0
  0
LINE
  5
89A0
  8
0
 10
43.20193610525473
 20
212.2383016200029
 30
0.0
 11
43.20193610525473
 21
211.9039462700029
 31
0.0
  0
LINE
  5
89A1
  8
0
 10
44.53744610525473
 20
211.9039462700029
 30
0.0
 11
44.87143000525472
 21
211.9039462700029
 31
0.0
  0
LINE
  5
89A2
  8
0
 10
44.87143000525472
 20
211.9039462700029
 30
0.0
 11
44.87143000525472
 21
212.2383016200029
 31
0.0
  0
LINE
  5
89A3
  8
0
 10
44.87143000525472
 20
212.2383016200029
 30
0.0
 11
44.53744610525473
 21
212.2383016200029
 31
0.0
  0
LINE
  5
89A4
  8
0
 10
44.53744610525473
 20
212.2383016200029
 30
0.0
 11
44.53744610525473
 21
211.9039462700029
 31
0.0
  0
LINE
  5
89A5
  8
0
 10
45.20510610525474
 20
211.9039462700029
 30
0.0
 11
46.20669110525472
 21
211.9039462700029
 31
0.0
  0
LINE
  5
89A6
  8
0
 10
46.20669110525472
 20
211.9039462700029
 30
0.0
 11
46.20669110525472
 21
212.2383016200029
 31
0.0
  0
LINE
  5
89A7
  8
0
 10
46.20669110525472
 20
212.2383016200029
 30
0.0
 11
45.20510610525474
 21
212.2383016200029
 31
0.0
  0
LINE
  5
89A8
  8
0
 10
45.20510610525474
 20
212.2383016200029
 30
0.0
 11
45.20510610525474
 21
211.9039462700029
 31
0.0
  0
LINE
  5
89A9
  8
0
 10
46.54033110525475
 20
211.9039462700029
 30
0.0
 11
47.20755790525473
 21
211.9039462700029
 31
0.0
  0
LINE
  5
89AA
  8
0
 10
47.20755790525473
 20
211.9039462700029
 30
0.0
 11
47.20755790525473
 21
212.2383016200029
 31
0.0
  0
LINE
  5
89AB
  8
0
 10
47.20755790525473
 20
212.2383016200029
 30
0.0
 11
46.54033110525475
 21
212.2383016200029
 31
0.0
  0
LINE
  5
89AC
  8
0
 10
46.54033110525475
 20
212.2383016200029
 30
0.0
 11
46.54033110525475
 21
211.9039462700029
 31
0.0
  0
LINE
  5
89AD
  8
0
 10
47.54153610525475
 20
211.9039462700029
 30
0.0
 11
47.87589145525476
 21
211.9039462700029
 31
0.0
  0
LINE
  5
89AE
  8
0
 10
47.87589145525476
 20
211.9039462700029
 30
0.0
 11
47.87589145525476
 21
212.2383016200029
 31
0.0
  0
LINE
  5
89AF
  8
0
 10
47.87589145525476
 20
212.2383016200029
 30
0.0
 11
47.54153610525475
 21
212.2383016200029
 31
0.0
  0
LINE
  5
89B0
  8
0
 10
47.54153610525475
 20
212.2383016200029
 30
0.0
 11
47.54153610525475
 21
211.9039462700029
 31
0.0
  0
LINE
  5
89B1
  8
0
 10
48.20910110525475
 20
211.9039462700029
 30
0.0
 11
49.21068610525475
 21
211.9039462700029
 31
0.0
  0
LINE
  5
89B2
  8
0
 10
49.21068610525475
 20
211.9039462700029
 30
0.0
 11
49.21068610525475
 21
212.2383016200029
 31
0.0
  0
LINE
  5
89B3
  8
0
 10
49.21068610525475
 20
212.2383016200029
 30
0.0
 11
48.20910110525475
 21
212.2383016200029
 31
0.0
  0
LINE
  5
89B4
  8
0
 10
48.20910110525475
 20
212.2383016200029
 30
0.0
 11
48.20910110525475
 21
211.9039462700029
 31
0.0
  0
LINE
  5
89B5
  8
0
 10
49.54432610525475
 20
211.9039462700029
 30
0.0
 11
49.87831095525473
 21
211.9039462700029
 31
0.0
  0
LINE
  5
89B6
  8
0
 10
49.87831095525473
 20
211.9039462700029
 30
0.0
 11
49.87831095525473
 21
212.2383016200029
 31
0.0
  0
LINE
  5
89B7
  8
0
 10
49.87831095525473
 20
212.2383016200029
 30
0.0
 11
49.54432610525475
 21
212.2383016200029
 31
0.0
  0
LINE
  5
89B8
  8
0
 10
49.54432610525475
 20
212.2383016200029
 30
0.0
 11
49.54432610525475
 21
211.9039462700029
 31
0.0
  0
LINE
  5
89B9
  8
0
 10
50.54591110525473
 20
211.9039462700029
 30
0.0
 11
50.87989595525474
 21
211.9039462700029
 31
0.0
  0
LINE
  5
89BA
  8
0
 10
50.87989595525474
 20
211.9039462700029
 30
0.0
 11
50.87989595525474
 21
212.2383016200029
 31
0.0
  0
LINE
  5
89BB
  8
0
 10
50.87989595525474
 20
212.2383016200029
 30
0.0
 11
50.54591110525473
 21
212.2383016200029
 31
0.0
  0
LINE
  5
89BC
  8
0
 10
50.54591110525473
 20
212.2383016200029
 30
0.0
 11
50.54591110525473
 21
211.9039462700029
 31
0.0
  0
LINE
  5
89BE
  8
0
 10
52.88224610525474
 20
211.2367612700029
 30
0.0
 11
52.88224610525474
 21
212.2383016200029
 31
0.0
  0
LINE
  5
89BF
  8
0
 10
52.88224610525474
 20
212.2383016200029
 30
0.0
 11
51.88066110525473
 21
212.2383016200029
 31
0.0
  0
LINE
  5
89C0
  8
0
 10
51.88066110525473
 20
212.2383016200029
 30
0.0
 11
51.88066110525473
 21
211.2367612700029
 31
0.0
  0
LINE
  5
89C1
  8
0
 10
42.53437110525473
 20
211.5706862700029
 30
0.0
 11
42.86872645525474
 21
211.5706862700029
 31
0.0
  0
LINE
  5
89C2
  8
0
 10
42.86872645525474
 20
211.5706862700029
 30
0.0
 11
42.86872645525474
 21
211.9046701700029
 31
0.0
  0
LINE
  5
89C3
  8
0
 10
42.86872645525474
 20
211.9046701700029
 30
0.0
 11
42.53437110525473
 21
211.9046701700029
 31
0.0
  0
LINE
  5
89C4
  8
0
 10
42.53437110525473
 20
211.9046701700029
 30
0.0
 11
42.53437110525473
 21
211.5706862700029
 31
0.0
  0
LINE
  5
89C5
  8
0
 10
43.20193610525473
 20
211.5706862700029
 30
0.0
 11
44.20352110525474
 21
211.5706862700029
 31
0.0
  0
LINE
  5
89C6
  8
0
 10
44.20352110525474
 20
211.5706862700029
 30
0.0
 11
44.20352110525474
 21
211.9046701700029
 31
0.0
  0
LINE
  5
89C7
  8
0
 10
44.20352110525474
 20
211.9046701700029
 30
0.0
 11
43.20193610525473
 21
211.9046701700029
 31
0.0
  0
LINE
  5
89C8
  8
0
 10
43.20193610525473
 20
211.9046701700029
 30
0.0
 11
43.20193610525473
 21
211.5706862700029
 31
0.0
  0
LINE
  5
89C9
  8
0
 10
44.53744610525473
 20
211.5706862700029
 30
0.0
 11
44.87143000525472
 21
211.5706862700029
 31
0.0
  0
LINE
  5
89CA
  8
0
 10
44.87143000525472
 20
211.5706862700029
 30
0.0
 11
44.87143000525472
 21
211.9046701700029
 31
0.0
  0
LINE
  5
89CB
  8
0
 10
44.87143000525472
 20
211.9046701700029
 30
0.0
 11
44.53744610525473
 21
211.9046701700029
 31
0.0
  0
LINE
  5
89CC
  8
0
 10
44.53744610525473
 20
211.9046701700029
 30
0.0
 11
44.53744610525473
 21
211.5706862700029
 31
0.0
  0
LINE
  5
89CD
  8
0
 10
45.20510610525474
 20
211.5706862700029
 30
0.0
 11
45.53909095525475
 21
211.5706862700029
 31
0.0
  0
LINE
  5
89CE
  8
0
 10
45.53909095525475
 20
211.5706862700029
 30
0.0
 11
45.53909095525475
 21
211.9046701700029
 31
0.0
  0
LINE
  5
89CF
  8
0
 10
45.53909095525475
 20
211.9046701700029
 30
0.0
 11
45.20510610525474
 21
211.9046701700029
 31
0.0
  0
LINE
  5
89D0
  8
0
 10
45.20510610525474
 20
211.9046701700029
 30
0.0
 11
45.20510610525474
 21
211.5706862700029
 31
0.0
  0
LINE
  5
89D1
  8
0
 10
48.87666610525474
 20
211.5706862700029
 30
0.0
 11
49.21065000525473
 21
211.5706862700029
 31
0.0
  0
LINE
  5
89D2
  8
0
 10
49.21065000525473
 20
211.5706862700029
 30
0.0
 11
49.21065000525473
 21
211.9046701700029
 31
0.0
  0
LINE
  5
89D3
  8
0
 10
49.21065000525473
 20
211.9046701700029
 30
0.0
 11
48.87666610525474
 21
211.9046701700029
 31
0.0
  0
LINE
  5
89D4
  8
0
 10
48.87666610525474
 20
211.9046701700029
 30
0.0
 11
48.87666610525474
 21
211.5706862700029
 31
0.0
  0
LINE
  5
89D5
  8
0
 10
49.54432610525475
 20
211.5706862700029
 30
0.0
 11
50.87915210525473
 21
211.5706862700029
 31
0.0
  0
LINE
  5
89D6
  8
0
 10
50.87915210525473
 20
211.5706862700029
 30
0.0
 11
50.87915210525473
 21
211.9046701700029
 31
0.0
  0
LINE
  5
89D7
  8
0
 10
50.87915210525473
 20
211.9046701700029
 30
0.0
 11
49.54432610525475
 21
211.9046701700029
 31
0.0
  0
LINE
  5
89D8
  8
0
 10
49.54432610525475
 20
211.9046701700029
 30
0.0
 11
49.54432610525475
 21
211.5706862700029
 31
0.0
  0
LINE
  5
89D9
  8
0
 10
42.53437110525473
 20
211.2367612700029
 30
0.0
 11
42.86872645525474
 21
211.2367612700029
 31
0.0
  0
LINE
  5
89DA
  8
0
 10
42.86872645525474
 20
211.2367612700029
 30
0.0
 11
42.86872645525474
 21
211.5707461200029
 31
0.0
  0
LINE
  5
89DB
  8
0
 10
42.86872645525474
 20
211.5707461200029
 30
0.0
 11
42.53437110525473
 21
211.5707461200029
 31
0.0
  0
LINE
  5
89DC
  8
0
 10
42.53437110525473
 20
211.5707461200029
 30
0.0
 11
42.53437110525473
 21
211.2367612700029
 31
0.0
  0
LINE
  5
89DD
  8
0
 10
43.20193610525473
 20
211.2367612700029
 30
0.0
 11
44.20352110525474
 21
211.2367612700029
 31
0.0
  0
LINE
  5
89DE
  8
0
 10
44.20352110525474
 20
211.2367612700029
 30
0.0
 11
44.20352110525474
 21
211.5707461200029
 31
0.0
  0
LINE
  5
89DF
  8
0
 10
44.20352110525474
 20
211.5707461200029
 30
0.0
 11
43.20193610525473
 21
211.5707461200029
 31
0.0
  0
LINE
  5
89E0
  8
0
 10
43.20193610525473
 20
211.5707461200029
 30
0.0
 11
43.20193610525473
 21
211.2367612700029
 31
0.0
  0
LINE
  5
89E1
  8
0
 10
44.53744610525473
 20
211.2367612700029
 30
0.0
 11
44.87143000525472
 21
211.2367612700029
 31
0.0
  0
LINE
  5
89E2
  8
0
 10
44.87143000525472
 20
211.2367612700029
 30
0.0
 11
44.87143000525472
 21
211.5707461200029
 31
0.0
  0
LINE
  5
89E3
  8
0
 10
44.87143000525472
 20
211.5707461200029
 30
0.0
 11
44.53744610525473
 21
211.5707461200029
 31
0.0
  0
LINE
  5
89E4
  8
0
 10
44.53744610525473
 20
211.5707461200029
 30
0.0
 11
44.53744610525473
 21
211.2367612700029
 31
0.0
  0
LINE
  5
89E5
  8
0
 10
45.53874610525475
 20
211.2367612700029
 30
0.0
 11
45.87273095525472
 21
211.2367612700029
 31
0.0
  0
LINE
  5
89E6
  8
0
 10
45.87273095525472
 20
211.2367612700029
 30
0.0
 11
45.87273095525472
 21
211.5707461200029
 31
0.0
  0
LINE
  5
89E7
  8
0
 10
45.87273095525472
 20
211.5707461200029
 30
0.0
 11
45.53874610525475
 21
211.5707461200029
 31
0.0
  0
LINE
  5
89E8
  8
0
 10
45.53874610525475
 20
211.5707461200029
 30
0.0
 11
45.53874610525475
 21
211.2367612700029
 31
0.0
  0
LINE
  5
89E9
  8
0
 10
46.20593110525473
 20
211.2367612700029
 30
0.0
 11
47.20751610525474
 21
211.2367612700029
 31
0.0
  0
LINE
  5
89EA
  8
0
 10
47.20751610525474
 20
211.2367612700029
 30
0.0
 11
47.20751610525474
 21
211.5707461200029
 31
0.0
  0
LINE
  5
89EB
  8
0
 10
47.20751610525474
 20
211.5707461200029
 30
0.0
 11
46.20593110525473
 21
211.5707461200029
 31
0.0
  0
LINE
  5
89EC
  8
0
 10
46.20593110525473
 20
211.5707461200029
 30
0.0
 11
46.20593110525473
 21
211.2367612700029
 31
0.0
  0
LINE
  5
89ED
  8
0
 10
47.54153610525475
 20
211.2367612700029
 30
0.0
 11
47.87589145525476
 21
211.2367612700029
 31
0.0
  0
LINE
  5
89EE
  8
0
 10
47.87589145525476
 20
211.2367612700029
 30
0.0
 11
47.87589145525476
 21
211.5707461200029
 31
0.0
  0
LINE
  5
89EF
  8
0
 10
47.87589145525476
 20
211.5707461200029
 30
0.0
 11
47.54153610525475
 21
211.5707461200029
 31
0.0
  0
LINE
  5
89F0
  8
0
 10
47.54153610525475
 20
211.5707461200029
 30
0.0
 11
47.54153610525475
 21
211.2367612700029
 31
0.0
  0
LINE
  5
89F1
  8
0
 10
48.20910110525475
 20
211.2367612700029
 30
0.0
 11
48.87669840525473
 21
211.2367612700029
 31
0.0
  0
LINE
  5
89F2
  8
0
 10
48.87669840525473
 20
211.2367612700029
 30
0.0
 11
48.87669840525473
 21
211.5707461200029
 31
0.0
  0
LINE
  5
89F3
  8
0
 10
48.87669840525473
 20
211.5707461200029
 30
0.0
 11
48.20910110525475
 21
211.5707461200029
 31
0.0
  0
LINE
  5
89F4
  8
0
 10
48.20910110525475
 20
211.5707461200029
 30
0.0
 11
48.20910110525475
 21
211.2367612700029
 31
0.0
  0
LINE
  5
89F5
  8
0
 10
50.21151110525474
 20
211.2367612700029
 30
0.0
 11
50.54586645525474
 21
211.2367612700029
 31
0.0
  0
LINE
  5
89F6
  8
0
 10
50.54586645525474
 20
211.2367612700029
 30
0.0
 11
50.54586645525474
 21
211.5707461200029
 31
0.0
  0
LINE
  5
89F7
  8
0
 10
50.54586645525474
 20
211.5707461200029
 30
0.0
 11
50.21151110525474
 21
211.5707461200029
 31
0.0
  0
LINE
  5
89F8
  8
0
 10
50.21151110525474
 20
211.5707461200029
 30
0.0
 11
50.21151110525474
 21
211.2367612700029
 31
0.0
  0
LINE
  5
89F9
  8
0
 10
51.88066110525473
 20
211.2367612700029
 30
0.0
 11
52.88224610525474
 21
211.2367612700029
 31
0.0
  0
LINE
  5
89FA
  8
0
 10
42.53437110525473
 20
210.9031212700029
 30
0.0
 11
42.86872645525474
 21
210.9031212700029
 31
0.0
  0
LINE
  5
89FB
  8
0
 10
42.86872645525474
 20
210.9031212700029
 30
0.0
 11
42.86872645525474
 21
211.2371061200029
 31
0.0
  0
LINE
  5
89FC
  8
0
 10
42.86872645525474
 20
211.2371061200029
 30
0.0
 11
42.53437110525473
 21
211.2371061200029
 31
0.0
  0
LINE
  5
89FD
  8
0
 10
42.53437110525473
 20
211.2371061200029
 30
0.0
 11
42.53437110525473
 21
210.9031212700029
 31
0.0
  0
LINE
  5
89FE
  8
0
 10
44.53744610525473
 20
210.9031212700029
 30
0.0
 11
44.87143000525472
 21
210.9031212700029
 31
0.0
  0
LINE
  5
89FF
  8
0
 10
44.87143000525472
 20
210.9031212700029
 30
0.0
 11
44.87143000525472
 21
211.2371061200029
 31
0.0
  0
LINE
  5
8A00
  8
0
 10
44.87143000525472
 20
211.2371061200029
 30
0.0
 11
44.53744610525473
 21
211.2371061200029
 31
0.0
  0
LINE
  5
8A01
  8
0
 10
44.53744610525473
 20
211.2371061200029
 30
0.0
 11
44.53744610525473
 21
210.9031212700029
 31
0.0
  0
LINE
  5
8A02
  8
0
 10
46.87349610525473
 20
210.9031212700029
 30
0.0
 11
47.54109435525476
 21
210.9031212700029
 31
0.0
  0
LINE
  5
8A03
  8
0
 10
47.54109435525476
 20
210.9031212700029
 30
0.0
 11
47.54109435525476
 21
211.2371061200029
 31
0.0
  0
LINE
  5
8A04
  8
0
 10
47.54109435525476
 20
211.2371061200029
 30
0.0
 11
46.87349610525473
 21
211.2371061200029
 31
0.0
  0
LINE
  5
8A05
  8
0
 10
46.87349610525473
 20
211.2371061200029
 30
0.0
 11
46.87349610525473
 21
210.9031212700029
 31
0.0
  0
LINE
  5
8A06
  8
0
 10
47.87508110525474
 20
210.9031212700029
 30
0.0
 11
48.20906595525474
 21
210.9031212700029
 31
0.0
  0
LINE
  5
8A07
  8
0
 10
48.20906595525474
 20
210.9031212700029
 30
0.0
 11
48.20906595525474
 21
211.2371061200029
 31
0.0
  0
LINE
  5
8A08
  8
0
 10
48.20906595525474
 20
211.2371061200029
 30
0.0
 11
47.87508110525474
 21
211.2371061200029
 31
0.0
  0
LINE
  5
8A09
  8
0
 10
47.87508110525474
 20
211.2371061200029
 30
0.0
 11
47.87508110525474
 21
210.9031212700029
 31
0.0
  0
LINE
  5
8A0A
  8
0
 10
48.54274110525472
 20
210.9031212700029
 30
0.0
 11
48.87672595525476
 21
210.9031212700029
 31
0.0
  0
LINE
  5
8A0B
  8
0
 10
48.87672595525476
 20
210.9031212700029
 30
0.0
 11
48.87672595525476
 21
211.2371061200029
 31
0.0
  0
LINE
  5
8A0C
  8
0
 10
48.87672595525476
 20
211.2371061200029
 30
0.0
 11
48.54274110525472
 21
211.2371061200029
 31
0.0
  0
LINE
  5
8A0D
  8
0
 10
48.54274110525472
 20
211.2371061200029
 30
0.0
 11
48.54274110525472
 21
210.9031212700029
 31
0.0
  0
LINE
  5
8A0E
  8
0
 10
49.20992610525474
 20
210.9031212700029
 30
0.0
 11
49.54428145525475
 21
210.9031212700029
 31
0.0
  0
LINE
  5
8A0F
  8
0
 10
49.54428145525475
 20
210.9031212700029
 30
0.0
 11
49.54428145525475
 21
211.2371061200029
 31
0.0
  0
LINE
  5
8A10
  8
0
 10
49.54428145525475
 20
211.2371061200029
 30
0.0
 11
49.20992610525474
 21
211.2371061200029
 31
0.0
  0
LINE
  5
8A11
  8
0
 10
49.20992610525474
 20
211.2371061200029
 30
0.0
 11
49.20992610525474
 21
210.9031212700029
 31
0.0
  0
LINE
  5
8A12
  8
0
 10
51.54708000525474
 20
210.9030851700029
 30
0.0
 11
51.54708000525474
 21
212.5722712700029
 31
0.0
  0
LINE
  5
8A13
  8
0
 10
53.21550610525475
 20
212.5722712700029
 30
0.0
 11
53.21550610525475
 21
210.9030851700029
 31
0.0
  0
LINE
  5
8A14
  8
0
 10
42.53437110525473
 20
210.5691012700029
 30
0.0
 11
44.87115260525476
 21
210.5691012700029
 31
0.0
  0
LINE
  5
8A15
  8
0
 10
44.87115260525476
 20
210.5691012700029
 30
0.0
 11
44.87115260525476
 21
210.9030851700029
 31
0.0
  0
LINE
  5
8A16
  8
0
 10
44.87115260525476
 20
210.9030851700029
 30
0.0
 11
42.53437110525473
 21
210.9030851700029
 31
0.0
  0
LINE
  5
8A17
  8
0
 10
42.53437110525473
 20
210.9030851700029
 30
0.0
 11
42.53437110525473
 21
210.5691012700029
 31
0.0
  0
LINE
  5
8A18
  8
0
 10
45.20510610525474
 20
210.5691012700029
 30
0.0
 11
45.53909095525475
 21
210.5691012700029
 31
0.0
  0
LINE
  5
8A19
  8
0
 10
45.53909095525475
 20
210.5691012700029
 30
0.0
 11
45.53909095525475
 21
210.9030851700029
 31
0.0
  0
LINE
  5
8A1A
  8
0
 10
45.53909095525475
 20
210.9030851700029
 30
0.0
 11
45.20510610525474
 21
210.9030851700029
 31
0.0
  0
LINE
  5
8A1B
  8
0
 10
45.20510610525474
 20
210.9030851700029
 30
0.0
 11
45.20510610525474
 21
210.5691012700029
 31
0.0
  0
LINE
  5
8A1C
  8
0
 10
45.87267110525474
 20
210.5691012700029
 30
0.0
 11
46.20665500525473
 21
210.5691012700029
 31
0.0
  0
LINE
  5
8A1D
  8
0
 10
46.20665500525473
 20
210.5691012700029
 30
0.0
 11
46.20665500525473
 21
210.9030851700029
 31
0.0
  0
LINE
  5
8A1E
  8
0
 10
46.20665500525473
 20
210.9030851700029
 30
0.0
 11
45.87267110525474
 21
210.9030851700029
 31
0.0
  0
LINE
  5
8A1F
  8
0
 10
45.87267110525474
 20
210.9030851700029
 30
0.0
 11
45.87267110525474
 21
210.5691012700029
 31
0.0
  0
LINE
  5
8A20
  8
0
 10
46.54033110525475
 20
210.5691012700029
 30
0.0
 11
46.87431500525474
 21
210.5691012700029
 31
0.0
  0
LINE
  5
8A21
  8
0
 10
46.87431500525474
 20
210.5691012700029
 30
0.0
 11
46.87431500525474
 21
210.9030851700029
 31
0.0
  0
LINE
  5
8A22
  8
0
 10
46.87431500525474
 20
210.9030851700029
 30
0.0
 11
46.54033110525475
 21
210.9030851700029
 31
0.0
  0
LINE
  5
8A23
  8
0
 10
46.54033110525475
 20
210.9030851700029
 30
0.0
 11
46.54033110525475
 21
210.5691012700029
 31
0.0
  0
LINE
  5
8A24
  8
0
 10
47.20751610525474
 20
210.5691012700029
 30
0.0
 11
47.54150000525476
 21
210.5691012700029
 31
0.0
  0
LINE
  5
8A25
  8
0
 10
47.54150000525476
 20
210.5691012700029
 30
0.0
 11
47.54150000525476
 21
210.9030851700029
 31
0.0
  0
LINE
  5
8A26
  8
0
 10
47.54150000525476
 20
210.9030851700029
 30
0.0
 11
47.20751610525474
 21
210.9030851700029
 31
0.0
  0
LINE
  5
8A27
  8
0
 10
47.20751610525474
 20
210.9030851700029
 30
0.0
 11
47.20751610525474
 21
210.5691012700029
 31
0.0
  0
LINE
  5
8A28
  8
0
 10
47.87508110525474
 20
210.5691012700029
 30
0.0
 11
48.20906595525474
 21
210.5691012700029
 31
0.0
  0
LINE
  5
8A29
  8
0
 10
48.20906595525474
 20
210.5691012700029
 30
0.0
 11
48.20906595525474
 21
210.9030851700029
 31
0.0
  0
LINE
  5
8A2A
  8
0
 10
48.20906595525474
 20
210.9030851700029
 30
0.0
 11
47.87508110525474
 21
210.9030851700029
 31
0.0
  0
LINE
  5
8A2B
  8
0
 10
47.87508110525474
 20
210.9030851700029
 30
0.0
 11
47.87508110525474
 21
210.5691012700029
 31
0.0
  0
LINE
  5
8A2C
  8
0
 10
48.54274110525472
 20
210.5691012700029
 30
0.0
 11
48.87672595525476
 21
210.5691012700029
 31
0.0
  0
LINE
  5
8A2D
  8
0
 10
48.87672595525476
 20
210.5691012700029
 30
0.0
 11
48.87672595525476
 21
210.9030851700029
 31
0.0
  0
LINE
  5
8A2E
  8
0
 10
48.87672595525476
 20
210.9030851700029
 30
0.0
 11
48.54274110525472
 21
210.9030851700029
 31
0.0
  0
LINE
  5
8A2F
  8
0
 10
48.54274110525472
 20
210.9030851700029
 30
0.0
 11
48.54274110525472
 21
210.5691012700029
 31
0.0
  0
LINE
  5
8A30
  8
0
 10
49.20992610525474
 20
210.5691012700029
 30
0.0
 11
49.54428145525475
 21
210.5691012700029
 31
0.0
  0
LINE
  5
8A31
  8
0
 10
49.54428145525475
 20
210.5691012700029
 30
0.0
 11
49.54428145525475
 21
210.9030851700029
 31
0.0
  0
LINE
  5
8A32
  8
0
 10
49.54428145525475
 20
210.9030851700029
 30
0.0
 11
49.20992610525474
 21
210.9030851700029
 31
0.0
  0
LINE
  5
8A33
  8
0
 10
49.20992610525474
 20
210.9030851700029
 30
0.0
 11
49.20992610525474
 21
210.5691012700029
 31
0.0
  0
LINE
  5
8A34
  8
0
 10
49.87749110525473
 20
210.5691012700029
 30
0.0
 11
50.21147500525474
 21
210.5691012700029
 31
0.0
  0
LINE
  5
8A35
  8
0
 10
50.21147500525474
 20
210.5691012700029
 30
0.0
 11
50.21147500525474
 21
210.9030851700029
 31
0.0
  0
LINE
  5
8A36
  8
0
 10
50.21147500525474
 20
210.9030851700029
 30
0.0
 11
49.87749110525473
 21
210.9030851700029
 31
0.0
  0
LINE
  5
8A37
  8
0
 10
49.87749110525473
 20
210.9030851700029
 30
0.0
 11
49.87749110525473
 21
210.5691012700029
 31
0.0
  0
LINE
  5
8A38
  8
0
 10
50.54591110525473
 20
210.5691012700029
 30
0.0
 11
50.87989595525474
 21
210.5691012700029
 31
0.0
  0
LINE
  5
8A39
  8
0
 10
50.87989595525474
 20
210.5691012700029
 30
0.0
 11
50.87989595525474
 21
210.9030851700029
 31
0.0
  0
LINE
  5
8A3A
  8
0
 10
50.87989595525474
 20
210.9030851700029
 30
0.0
 11
50.54591110525473
 21
210.9030851700029
 31
0.0
  0
LINE
  5
8A3B
  8
0
 10
50.54591110525473
 20
210.9030851700029
 30
0.0
 11
50.54591110525473
 21
210.5691012700029
 31
0.0
  0
LINE
  5
8A3C
  8
0
 10
51.21309610525475
 20
210.5691012700029
 30
0.0
 11
53.54987760525474
 21
210.5691012700029
 31
0.0
  0
LINE
  5
8A3D
  8
0
 10
53.21550610525475
 20
210.9030851700029
 30
0.0
 11
51.54708000525474
 21
210.9030851700029
 31
0.0
  0
LINE
  5
8A3E
  8
0
 10
45.20510610525474
 20
210.2359362700029
 30
0.0
 11
45.53909095525475
 21
210.2359362700029
 31
0.0
  0
LINE
  5
8A3F
  8
0
 10
45.53909095525475
 20
210.2359362700029
 30
0.0
 11
45.53909095525475
 21
210.5699201700029
 31
0.0
  0
LINE
  5
8A40
  8
0
 10
45.53909095525475
 20
210.5699201700029
 30
0.0
 11
45.20510610525474
 21
210.5699201700029
 31
0.0
  0
LINE
  5
8A41
  8
0
 10
45.20510610525474
 20
210.5699201700029
 30
0.0
 11
45.20510610525474
 21
210.2359362700029
 31
0.0
  0
LINE
  5
8A42
  8
0
 10
46.54033110525475
 20
210.2359362700029
 30
0.0
 11
46.87431500525474
 21
210.2359362700029
 31
0.0
  0
LINE
  5
8A43
  8
0
 10
46.87431500525474
 20
210.2359362700029
 30
0.0
 11
46.87431500525474
 21
210.5699201700029
 31
0.0
  0
LINE
  5
8A44
  8
0
 10
46.87431500525474
 20
210.5699201700029
 30
0.0
 11
46.54033110525475
 21
210.5699201700029
 31
0.0
  0
LINE
  5
8A45
  8
0
 10
46.54033110525475
 20
210.5699201700029
 30
0.0
 11
46.54033110525475
 21
210.2359362700029
 31
0.0
  0
LINE
  5
8A46
  8
0
 10
47.20751610525474
 20
210.2359362700029
 30
0.0
 11
47.54150000525476
 21
210.2359362700029
 31
0.0
  0
LINE
  5
8A47
  8
0
 10
47.54150000525476
 20
210.2359362700029
 30
0.0
 11
47.54150000525476
 21
210.5699201700029
 31
0.0
  0
LINE
  5
8A48
  8
0
 10
47.54150000525476
 20
210.5699201700029
 30
0.0
 11
47.20751610525474
 21
210.5699201700029
 31
0.0
  0
LINE
  5
8A49
  8
0
 10
47.20751610525474
 20
210.5699201700029
 30
0.0
 11
47.20751610525474
 21
210.2359362700029
 31
0.0
  0
LINE
  5
8A4A
  8
0
 10
49.87749110525473
 20
210.2359362700029
 30
0.0
 11
50.21147500525474
 21
210.2359362700029
 31
0.0
  0
LINE
  5
8A4B
  8
0
 10
50.21147500525474
 20
210.2359362700029
 30
0.0
 11
50.21147500525474
 21
210.5699201700029
 31
0.0
  0
LINE
  5
8A4C
  8
0
 10
50.21147500525474
 20
210.5699201700029
 30
0.0
 11
49.87749110525473
 21
210.5699201700029
 31
0.0
  0
LINE
  5
8A4D
  8
0
 10
49.87749110525473
 20
210.5699201700029
 30
0.0
 11
49.87749110525473
 21
210.2359362700029
 31
0.0
  0
LINE
  5
8A4E
  8
0
 10
50.54591110525473
 20
210.2359362700029
 30
0.0
 11
50.87989595525474
 21
210.2359362700029
 31
0.0
  0
LINE
  5
8A4F
  8
0
 10
50.87989595525474
 20
210.2359362700029
 30
0.0
 11
50.87989595525474
 21
210.5699201700029
 31
0.0
  0
LINE
  5
8A50
  8
0
 10
50.87989595525474
 20
210.5699201700029
 30
0.0
 11
50.54591110525473
 21
210.5699201700029
 31
0.0
  0
LINE
  5
8A51
  8
0
 10
50.54591110525473
 20
210.5699201700029
 30
0.0
 11
50.54591110525473
 21
210.2359362700029
 31
0.0
  0
LINE
  5
8A52
  8
0
 10
42.53437110525473
 20
209.9015362700029
 30
0.0
 11
42.86872645525474
 21
209.9015362700029
 31
0.0
  0
LINE
  5
8A53
  8
0
 10
42.86872645525474
 20
209.9015362700029
 30
0.0
 11
42.86872645525474
 21
210.2358916200029
 31
0.0
  0
LINE
  5
8A54
  8
0
 10
42.86872645525474
 20
210.2358916200029
 30
0.0
 11
42.53437110525473
 21
210.2358916200029
 31
0.0
  0
LINE
  5
8A55
  8
0
 10
42.53437110525473
 20
210.2358916200029
 30
0.0
 11
42.53437110525473
 21
209.9015362700029
 31
0.0
  0
LINE
  5
8A56
  8
0
 10
44.53744610525473
 20
209.9015362700029
 30
0.0
 11
44.87143000525472
 21
209.9015362700029
 31
0.0
  0
LINE
  5
8A57
  8
0
 10
44.87143000525472
 20
209.9015362700029
 30
0.0
 11
44.87143000525472
 21
210.2358916200029
 31
0.0
  0
LINE
  5
8A58
  8
0
 10
44.87143000525472
 20
210.2358916200029
 30
0.0
 11
44.53744610525473
 21
210.2358916200029
 31
0.0
  0
LINE
  5
8A59
  8
0
 10
44.53744610525473
 20
210.2358916200029
 30
0.0
 11
44.53744610525473
 21
209.9015362700029
 31
0.0
  0
LINE
  5
8A5A
  8
0
 10
45.20510610525474
 20
209.9015362700029
 30
0.0
 11
46.20669110525472
 21
209.9015362700029
 31
0.0
  0
LINE
  5
8A5B
  8
0
 10
46.20669110525472
 20
209.9015362700029
 30
0.0
 11
46.20669110525472
 21
210.2358916200029
 31
0.0
  0
LINE
  5
8A5C
  8
0
 10
46.20669110525472
 20
210.2358916200029
 30
0.0
 11
45.20510610525474
 21
210.2358916200029
 31
0.0
  0
LINE
  5
8A5D
  8
0
 10
45.20510610525474
 20
210.2358916200029
 30
0.0
 11
45.20510610525474
 21
209.9015362700029
 31
0.0
  0
LINE
  5
8A5E
  8
0
 10
46.87349610525473
 20
209.9015362700029
 30
0.0
 11
48.54267460525475
 21
209.9015362700029
 31
0.0
  0
LINE
  5
8A5F
  8
0
 10
48.54267460525475
 20
209.9015362700029
 30
0.0
 11
48.54267460525475
 21
210.2358916200029
 31
0.0
  0
LINE
  5
8A60
  8
0
 10
48.54267460525475
 20
210.2358916200029
 30
0.0
 11
46.87349610525473
 21
210.2358916200029
 31
0.0
  0
LINE
  5
8A61
  8
0
 10
46.87349610525473
 20
210.2358916200029
 30
0.0
 11
46.87349610525473
 21
209.9015362700029
 31
0.0
  0
LINE
  5
8A62
  8
0
 10
49.87749110525473
 20
209.9015362700029
 30
0.0
 11
50.21147500525474
 21
209.9015362700029
 31
0.0
  0
LINE
  5
8A63
  8
0
 10
50.21147500525474
 20
209.9015362700029
 30
0.0
 11
50.21147500525474
 21
210.2358916200029
 31
0.0
  0
LINE
  5
8A64
  8
0
 10
50.21147500525474
 20
210.2358916200029
 30
0.0
 11
49.87749110525473
 21
210.2358916200029
 31
0.0
  0
LINE
  5
8A65
  8
0
 10
49.87749110525473
 20
210.2358916200029
 30
0.0
 11
49.87749110525473
 21
209.9015362700029
 31
0.0
  0
LINE
  5
8A66
  8
0
 10
50.54591110525473
 20
209.9015362700029
 30
0.0
 11
51.54712560525473
 21
209.9015362700029
 31
0.0
  0
LINE
  5
8A67
  8
0
 10
51.54712560525473
 20
209.9015362700029
 30
0.0
 11
51.54712560525473
 21
210.2358916200029
 31
0.0
  0
LINE
  5
8A68
  8
0
 10
51.54712560525473
 20
210.2358916200029
 30
0.0
 11
50.54591110525473
 21
210.2358916200029
 31
0.0
  0
LINE
  5
8A69
  8
0
 10
50.54591110525473
 20
210.2358916200029
 30
0.0
 11
50.54591110525473
 21
209.9015362700029
 31
0.0
  0
LINE
  5
8A6A
  8
0
 10
52.21392110525474
 20
209.9015362700029
 30
0.0
 11
53.21550610525475
 21
209.9015362700029
 31
0.0
  0
LINE
  5
8A6B
  8
0
 10
53.21550610525475
 20
209.9015362700029
 30
0.0
 11
53.21550610525475
 21
210.2358916200029
 31
0.0
  0
LINE
  5
8A6C
  8
0
 10
53.21550610525475
 20
210.2358916200029
 30
0.0
 11
52.21392110525474
 21
210.2358916200029
 31
0.0
  0
LINE
  5
8A6D
  8
0
 10
52.21392110525474
 20
210.2358916200029
 30
0.0
 11
52.21392110525474
 21
209.9015362700029
 31
0.0
  0
LINE
  5
8A6E
  8
0
 10
42.53437110525473
 20
209.5682762700029
 30
0.0
 11
42.86872645525474
 21
209.5682762700029
 31
0.0
  0
LINE
  5
8A6F
  8
0
 10
42.86872645525474
 20
209.5682762700029
 30
0.0
 11
42.86872645525474
 21
209.9022611200029
 31
0.0
  0
LINE
  5
8A70
  8
0
 10
42.86872645525474
 20
209.9022611200029
 30
0.0
 11
42.53437110525473
 21
209.9022611200029
 31
0.0
  0
LINE
  5
8A71
  8
0
 10
42.53437110525473
 20
209.9022611200029
 30
0.0
 11
42.53437110525473
 21
209.5682762700029
 31
0.0
  0
LINE
  5
8A72
  8
0
 10
44.20352110525474
 20
209.5682762700029
 30
0.0
 11
44.53750595525474
 21
209.5682762700029
 31
0.0
  0
LINE
  5
8A73
  8
0
 10
44.53750595525474
 20
209.5682762700029
 30
0.0
 11
44.53750595525474
 21
209.9022611200029
 31
0.0
  0
LINE
  5
8A74
  8
0
 10
44.53750595525474
 20
209.9022611200029
 30
0.0
 11
44.20352110525474
 21
209.9022611200029
 31
0.0
  0
LINE
  5
8A75
  8
0
 10
44.20352110525474
 20
209.9022611200029
 30
0.0
 11
44.20352110525474
 21
209.5682762700029
 31
0.0
  0
LINE
  5
8A76
  8
0
 10
45.20510610525474
 20
209.5682762700029
 30
0.0
 11
45.53909095525475
 21
209.5682762700029
 31
0.0
  0
LINE
  5
8A77
  8
0
 10
45.53909095525475
 20
209.5682762700029
 30
0.0
 11
45.53909095525475
 21
209.9022611200029
 31
0.0
  0
LINE
  5
8A78
  8
0
 10
45.53909095525475
 20
209.9022611200029
 30
0.0
 11
45.20510610525474
 21
209.9022611200029
 31
0.0
  0
LINE
  5
8A79
  8
0
 10
45.20510610525474
 20
209.9022611200029
 30
0.0
 11
45.20510610525474
 21
209.5682762700029
 31
0.0
  0
LINE
  5
8A7A
  8
0
 10
45.87267110525474
 20
209.5682762700029
 30
0.0
 11
46.87388560525474
 21
209.5682762700029
 31
0.0
  0
LINE
  5
8A7B
  8
0
 10
46.87388560525474
 20
209.5682762700029
 30
0.0
 11
46.87388560525474
 21
209.9022611200029
 31
0.0
  0
LINE
  5
8A7C
  8
0
 10
46.87388560525474
 20
209.9022611200029
 30
0.0
 11
45.87267110525474
 21
209.9022611200029
 31
0.0
  0
LINE
  5
8A7D
  8
0
 10
45.87267110525474
 20
209.9022611200029
 30
0.0
 11
45.87267110525474
 21
209.5682762700029
 31
0.0
  0
LINE
  5
8A7E
  8
0
 10
47.54153610525475
 20
209.5682762700029
 30
0.0
 11
47.87589145525476
 21
209.5682762700029
 31
0.0
  0
LINE
  5
8A7F
  8
0
 10
47.87589145525476
 20
209.5682762700029
 30
0.0
 11
47.87589145525476
 21
209.9022611200029
 31
0.0
  0
LINE
  5
8A80
  8
0
 10
47.87589145525476
 20
209.9022611200029
 30
0.0
 11
47.54153610525475
 21
209.9022611200029
 31
0.0
  0
LINE
  5
8A81
  8
0
 10
47.54153610525475
 20
209.9022611200029
 30
0.0
 11
47.54153610525475
 21
209.5682762700029
 31
0.0
  0
LINE
  5
8A82
  8
0
 10
48.54274110525472
 20
209.5682762700029
 30
0.0
 11
49.20996790525476
 21
209.5682762700029
 31
0.0
  0
LINE
  5
8A83
  8
0
 10
49.20996790525476
 20
209.5682762700029
 30
0.0
 11
49.20996790525476
 21
209.9022611200029
 31
0.0
  0
LINE
  5
8A84
  8
0
 10
49.20996790525476
 20
209.9022611200029
 30
0.0
 11
48.54274110525472
 21
209.9022611200029
 31
0.0
  0
LINE
  5
8A85
  8
0
 10
48.54274110525472
 20
209.9022611200029
 30
0.0
 11
48.54274110525472
 21
209.5682762700029
 31
0.0
  0
LINE
  5
8A86
  8
0
 10
49.54432610525475
 20
209.5682762700029
 30
0.0
 11
50.54591110525473
 21
209.5682762700029
 31
0.0
  0
LINE
  5
8A87
  8
0
 10
50.54591110525473
 20
209.5682762700029
 30
0.0
 11
50.54591110525473
 21
209.9022611200029
 31
0.0
  0
LINE
  5
8A88
  8
0
 10
50.54591110525473
 20
209.9022611200029
 30
0.0
 11
49.54432610525475
 21
209.9022611200029
 31
0.0
  0
LINE
  5
8A89
  8
0
 10
49.54432610525475
 20
209.9022611200029
 30
0.0
 11
49.54432610525475
 21
209.5682762700029
 31
0.0
  0
LINE
  5
8A8A
  8
0
 10
51.88066110525473
 20
209.5682762700029
 30
0.0
 11
52.88224610525474
 21
209.5682762700029
 31
0.0
  0
LINE
  5
8A8B
  8
0
 10
52.88224610525474
 20
209.5682762700029
 30
0.0
 11
52.88224610525474
 21
209.9022611200029
 31
0.0
  0
LINE
  5
8A8C
  8
0
 10
52.88224610525474
 20
209.9022611200029
 30
0.0
 11
51.88066110525473
 21
209.9022611200029
 31
0.0
  0
LINE
  5
8A8D
  8
0
 10
51.88066110525473
 20
209.9022611200029
 30
0.0
 11
51.88066110525473
 21
209.5682762700029
 31
0.0
  0
LINE
  5
8A8E
  8
0
 10
43.20193610525473
 20
209.2343512700029
 30
0.0
 11
43.53629240525473
 21
209.2343512700029
 31
0.0
  0
LINE
  5
8A8F
  8
0
 10
43.53629240525473
 20
209.2343512700029
 30
0.0
 11
43.53629240525473
 21
209.5683351700029
 31
0.0
  0
LINE
  5
8A90
  8
0
 10
43.53629240525473
 20
209.5683351700029
 30
0.0
 11
43.20193610525473
 21
209.5683351700029
 31
0.0
  0
LINE
  5
8A91
  8
0
 10
43.20193610525473
 20
209.5683351700029
 30
0.0
 11
43.20193610525473
 21
209.2343512700029
 31
0.0
  0
LINE
  5
8A92
  8
0
 10
43.86950110525476
 20
209.2343512700029
 30
0.0
 11
45.20469760525472
 21
209.2343512700029
 31
0.0
  0
LINE
  5
8A93
  8
0
 10
45.20469760525472
 20
209.2343512700029
 30
0.0
 11
45.20469760525472
 21
209.5683351700029
 31
0.0
  0
LINE
  5
8A94
  8
0
 10
45.20469760525472
 20
209.5683351700029
 30
0.0
 11
43.86950110525476
 21
209.5683351700029
 31
0.0
  0
LINE
  5
8A95
  8
0
 10
43.86950110525476
 20
209.5683351700029
 30
0.0
 11
43.86950110525476
 21
209.2343512700029
 31
0.0
  0
LINE
  5
8A96
  8
0
 10
45.53874610525475
 20
209.2343512700029
 30
0.0
 11
46.20597290525473
 21
209.2343512700029
 31
0.0
  0
LINE
  5
8A97
  8
0
 10
46.20597290525473
 20
209.2343512700029
 30
0.0
 11
46.20597290525473
 21
209.5683351700029
 31
0.0
  0
LINE
  5
8A98
  8
0
 10
46.20597290525473
 20
209.5683351700029
 30
0.0
 11
45.53874610525475
 21
209.5683351700029
 31
0.0
  0
LINE
  5
8A99
  8
0
 10
45.53874610525475
 20
209.5683351700029
 30
0.0
 11
45.53874610525475
 21
209.2343512700029
 31
0.0
  0
LINE
  5
8A9A
  8
0
 10
46.54033110525475
 20
209.2343512700029
 30
0.0
 11
46.87431500525474
 21
209.2343512700029
 31
0.0
  0
LINE
  5
8A9B
  8
0
 10
46.87431500525474
 20
209.2343512700029
 30
0.0
 11
46.87431500525474
 21
209.5683351700029
 31
0.0
  0
LINE
  5
8A9C
  8
0
 10
46.87431500525474
 20
209.5683351700029
 30
0.0
 11
46.54033110525475
 21
209.5683351700029
 31
0.0
  0
LINE
  5
8A9D
  8
0
 10
46.54033110525475
 20
209.5683351700029
 30
0.0
 11
46.54033110525475
 21
209.2343512700029
 31
0.0
  0
LINE
  5
8A9E
  8
0
 10
47.54153610525475
 20
209.2343512700029
 30
0.0
 11
47.87589145525476
 21
209.2343512700029
 31
0.0
  0
LINE
  5
8A9F
  8
0
 10
47.87589145525476
 20
209.2343512700029
 30
0.0
 11
47.87589145525476
 21
209.5683351700029
 31
0.0
  0
LINE
  5
8AA0
  8
0
 10
47.87589145525476
 20
209.5683351700029
 30
0.0
 11
47.54153610525475
 21
209.5683351700029
 31
0.0
  0
LINE
  5
8AA1
  8
0
 10
47.54153610525475
 20
209.5683351700029
 30
0.0
 11
47.54153610525475
 21
209.2343512700029
 31
0.0
  0
LINE
  5
8AA2
  8
0
 10
48.54274110525472
 20
209.2343512700029
 30
0.0
 11
48.87672595525476
 21
209.2343512700029
 31
0.0
  0
LINE
  5
8AA3
  8
0
 10
48.87672595525476
 20
209.2343512700029
 30
0.0
 11
48.87672595525476
 21
209.5683351700029
 31
0.0
  0
LINE
  5
8AA4
  8
0
 10
48.87672595525476
 20
209.5683351700029
 30
0.0
 11
48.54274110525472
 21
209.5683351700029
 31
0.0
  0
LINE
  5
8AA5
  8
0
 10
48.54274110525472
 20
209.5683351700029
 30
0.0
 11
48.54274110525472
 21
209.2343512700029
 31
0.0
  0
LINE
  5
8AA6
  8
0
 10
49.20992610525474
 20
209.2343512700029
 30
0.0
 11
49.54428145525475
 21
209.2343512700029
 31
0.0
  0
LINE
  5
8AA7
  8
0
 10
49.54428145525475
 20
209.2343512700029
 30
0.0
 11
49.54428145525475
 21
209.5683351700029
 31
0.0
  0
LINE
  5
8AA8
  8
0
 10
49.54428145525475
 20
209.5683351700029
 30
0.0
 11
49.20992610525474
 21
209.5683351700029
 31
0.0
  0
LINE
  5
8AA9
  8
0
 10
49.20992610525474
 20
209.5683351700029
 30
0.0
 11
49.20992610525474
 21
209.2343512700029
 31
0.0
  0
LINE
  5
8AAA
  8
0
 10
49.87749110525473
 20
209.2343512700029
 30
0.0
 11
50.21147500525474
 21
209.2343512700029
 31
0.0
  0
LINE
  5
8AAB
  8
0
 10
50.21147500525474
 20
209.2343512700029
 30
0.0
 11
50.21147500525474
 21
209.5683351700029
 31
0.0
  0
LINE
  5
8AAC
  8
0
 10
50.21147500525474
 20
209.5683351700029
 30
0.0
 11
49.87749110525473
 21
209.5683351700029
 31
0.0
  0
LINE
  5
8AAD
  8
0
 10
49.87749110525473
 20
209.5683351700029
 30
0.0
 11
49.87749110525473
 21
209.2343512700029
 31
0.0
  0
LINE
  5
8AAE
  8
0
 10
50.54591110525473
 20
209.2343512700029
 30
0.0
 11
51.54712560525473
 21
209.2343512700029
 31
0.0
  0
LINE
  5
8AAF
  8
0
 10
51.54712560525473
 20
209.2343512700029
 30
0.0
 11
51.54712560525473
 21
209.5683351700029
 31
0.0
  0
LINE
  5
8AB0
  8
0
 10
51.54712560525473
 20
209.5683351700029
 30
0.0
 11
50.54591110525473
 21
209.5683351700029
 31
0.0
  0
LINE
  5
8AB1
  8
0
 10
50.54591110525473
 20
209.5683351700029
 30
0.0
 11
50.54591110525473
 21
209.2343512700029
 31
0.0
  0
LINE
  5
8AB2
  8
0
 10
51.88066110525473
 20
209.2343512700029
 30
0.0
 11
52.21464595525474
 21
209.2343512700029
 31
0.0
  0
LINE
  5
8AB3
  8
0
 10
52.21464595525474
 20
209.2343512700029
 30
0.0
 11
52.21464595525474
 21
209.5683351700029
 31
0.0
  0
LINE
  5
8AB4
  8
0
 10
52.21464595525474
 20
209.5683351700029
 30
0.0
 11
51.88066110525473
 21
209.5683351700029
 31
0.0
  0
LINE
  5
8AB5
  8
0
 10
51.88066110525473
 20
209.5683351700029
 30
0.0
 11
51.88066110525473
 21
209.2343512700029
 31
0.0
  0
LINE
  5
8AB6
  8
0
 10
52.54832110525473
 20
209.2343512700029
 30
0.0
 11
53.21554695525475
 21
209.2343512700029
 31
0.0
  0
LINE
  5
8AB7
  8
0
 10
53.21554695525475
 20
209.2343512700029
 30
0.0
 11
53.21554695525475
 21
209.5683351700029
 31
0.0
  0
LINE
  5
8AB8
  8
0
 10
53.21554695525475
 20
209.5683351700029
 30
0.0
 11
52.54832110525473
 21
209.5683351700029
 31
0.0
  0
LINE
  5
8AB9
  8
0
 10
52.54832110525473
 20
209.5683351700029
 30
0.0
 11
52.54832110525473
 21
209.2343512700029
 31
0.0
  0
LINE
  5
8ABA
  8
0
 10
42.53437110525473
 20
208.8999512700029
 30
0.0
 11
43.20196840525472
 21
208.8999512700029
 31
0.0
  0
LINE
  5
8ABB
  8
0
 10
43.20196840525472
 20
208.8999512700029
 30
0.0
 11
43.20196840525472
 21
209.2343066200029
 31
0.0
  0
LINE
  5
8ABC
  8
0
 10
43.20196840525472
 20
209.2343066200029
 30
0.0
 11
42.53437110525473
 21
209.2343066200029
 31
0.0
  0
LINE
  5
8ABD
  8
0
 10
42.53437110525473
 20
209.2343066200029
 30
0.0
 11
42.53437110525473
 21
208.8999512700029
 31
0.0
  0
LINE
  5
8ABE
  8
0
 10
43.53586110525475
 20
208.8999512700029
 30
0.0
 11
44.20345840525474
 21
208.8999512700029
 31
0.0
  0
LINE
  5
8ABF
  8
0
 10
44.20345840525474
 20
208.8999512700029
 30
0.0
 11
44.20345840525474
 21
209.2343066200029
 31
0.0
  0
LINE
  5
8AC0
  8
0
 10
44.20345840525474
 20
209.2343066200029
 30
0.0
 11
43.53586110525475
 21
209.2343066200029
 31
0.0
  0
LINE
  5
8AC1
  8
0
 10
43.53586110525475
 20
209.2343066200029
 30
0.0
 11
43.53586110525475
 21
208.8999512700029
 31
0.0
  0
LINE
  5
8AC2
  8
0
 10
44.87108610525473
 20
208.8999512700029
 30
0.0
 11
45.20507000525473
 21
208.8999512700029
 31
0.0
  0
LINE
  5
8AC3
  8
0
 10
45.20507000525473
 20
208.8999512700029
 30
0.0
 11
45.20507000525473
 21
209.2343066200029
 31
0.0
  0
LINE
  5
8AC4
  8
0
 10
45.20507000525473
 20
209.2343066200029
 30
0.0
 11
44.87108610525473
 21
209.2343066200029
 31
0.0
  0
LINE
  5
8AC5
  8
0
 10
44.87108610525473
 20
209.2343066200029
 30
0.0
 11
44.87108610525473
 21
208.8999512700029
 31
0.0
  0
LINE
  5
8AC6
  8
0
 10
45.87267110525474
 20
208.8999512700029
 30
0.0
 11
46.53989695525473
 21
208.8999512700029
 31
0.0
  0
LINE
  5
8AC7
  8
0
 10
46.53989695525473
 20
208.8999512700029
 30
0.0
 11
46.53989695525473
 21
209.2343066200029
 31
0.0
  0
LINE
  5
8AC8
  8
0
 10
46.53989695525473
 20
209.2343066200029
 30
0.0
 11
45.87267110525474
 21
209.2343066200029
 31
0.0
  0
LINE
  5
8AC9
  8
0
 10
45.87267110525474
 20
209.2343066200029
 30
0.0
 11
45.87267110525474
 21
208.8999512700029
 31
0.0
  0
LINE
  5
8ACA
  8
0
 10
47.20751610525474
 20
208.8999512700029
 30
0.0
 11
47.87511340525475
 21
208.8999512700029
 31
0.0
  0
LINE
  5
8ACB
  8
0
 10
47.87511340525475
 20
208.8999512700029
 30
0.0
 11
47.87511340525475
 21
209.2343066200029
 31
0.0
  0
LINE
  5
8ACC
  8
0
 10
47.87511340525475
 20
209.2343066200029
 30
0.0
 11
47.20751610525474
 21
209.2343066200029
 31
0.0
  0
LINE
  5
8ACD
  8
0
 10
47.20751610525474
 20
209.2343066200029
 30
0.0
 11
47.20751610525474
 21
208.8999512700029
 31
0.0
  0
LINE
  5
8ACE
  8
0
 10
48.87666610525474
 20
208.8999512700029
 30
0.0
 11
49.54426340525472
 21
208.8999512700029
 31
0.0
  0
LINE
  5
8ACF
  8
0
 10
49.54426340525472
 20
208.8999512700029
 30
0.0
 11
49.54426340525472
 21
209.2343066200029
 31
0.0
  0
LINE
  5
8AD0
  8
0
 10
49.54426340525472
 20
209.2343066200029
 30
0.0
 11
48.87666610525474
 21
209.2343066200029
 31
0.0
  0
LINE
  5
8AD1
  8
0
 10
48.87666610525474
 20
209.2343066200029
 30
0.0
 11
48.87666610525474
 21
208.8999512700029
 31
0.0
  0
LINE
  5
8AD2
  8
0
 10
49.87749110525473
 20
208.8999512700029
 30
0.0
 11
50.54508840525475
 21
208.8999512700029
 31
0.0
  0
LINE
  5
8AD3
  8
0
 10
50.54508840525475
 20
208.8999512700029
 30
0.0
 11
50.54508840525475
 21
209.2343066200029
 31
0.0
  0
LINE
  5
8AD4
  8
0
 10
50.54508840525475
 20
209.2343066200029
 30
0.0
 11
49.87749110525473
 21
209.2343066200029
 31
0.0
  0
LINE
  5
8AD5
  8
0
 10
49.87749110525473
 20
209.2343066200029
 30
0.0
 11
49.87749110525473
 21
208.8999512700029
 31
0.0
  0
LINE
  5
8AD6
  8
0
 10
50.87907610525474
 20
208.8999512700029
 30
0.0
 11
51.21306095525475
 21
208.8999512700029
 31
0.0
  0
LINE
  5
8AD7
  8
0
 10
51.21306095525475
 20
208.8999512700029
 30
0.0
 11
51.21306095525475
 21
209.2343066200029
 31
0.0
  0
LINE
  5
8AD8
  8
0
 10
51.21306095525475
 20
209.2343066200029
 30
0.0
 11
50.87907610525474
 21
209.2343066200029
 31
0.0
  0
LINE
  5
8AD9
  8
0
 10
50.87907610525474
 20
209.2343066200029
 30
0.0
 11
50.87907610525474
 21
208.8999512700029
 31
0.0
  0
LINE
  5
8ADA
  8
0
 10
51.54673610525474
 20
208.8999512700029
 30
0.0
 11
53.54915560525475
 21
208.8999512700029
 31
0.0
  0
LINE
  5
8ADB
  8
0
 10
53.54915560525475
 20
208.8999512700029
 30
0.0
 11
53.54915560525475
 21
209.2343066200029
 31
0.0
  0
LINE
  5
8ADC
  8
0
 10
53.54915560525475
 20
209.2343066200029
 30
0.0
 11
51.54673610525474
 21
209.2343066200029
 31
0.0
  0
LINE
  5
8ADD
  8
0
 10
51.54673610525474
 20
209.2343066200029
 30
0.0
 11
51.54673610525474
 21
208.8999512700029
 31
0.0
  0
LINE
  5
8ADE
  8
0
 10
42.86867610525474
 20
208.5666912700029
 30
0.0
 11
43.20266095525474
 21
208.5666912700029
 31
0.0
  0
LINE
  5
8ADF
  8
0
 10
43.20266095525474
 20
208.5666912700029
 30
0.0
 11
43.20266095525474
 21
208.9006761200029
 31
0.0
  0
LINE
  5
8AE0
  8
0
 10
43.20266095525474
 20
208.9006761200029
 30
0.0
 11
42.86867610525474
 21
208.9006761200029
 31
0.0
  0
LINE
  5
8AE1
  8
0
 10
42.86867610525474
 20
208.9006761200029
 30
0.0
 11
42.86867610525474
 21
208.5666912700029
 31
0.0
  0
LINE
  5
8AE2
  8
0
 10
43.53586110525475
 20
208.5666912700029
 30
0.0
 11
43.86984500525475
 21
208.5666912700029
 31
0.0
  0
LINE
  5
8AE3
  8
0
 10
43.86984500525475
 20
208.5666912700029
 30
0.0
 11
43.86984500525475
 21
208.9006761200029
 31
0.0
  0
LINE
  5
8AE4
  8
0
 10
43.86984500525475
 20
208.9006761200029
 30
0.0
 11
43.53586110525475
 21
208.9006761200029
 31
0.0
  0
LINE
  5
8AE5
  8
0
 10
43.53586110525475
 20
208.9006761200029
 30
0.0
 11
43.53586110525475
 21
208.5666912700029
 31
0.0
  0
LINE
  5
8AE6
  8
0
 10
44.53744610525473
 20
208.5666912700029
 30
0.0
 11
45.53903110525474
 21
208.5666912700029
 31
0.0
  0
LINE
  5
8AE7
  8
0
 10
45.53903110525474
 20
208.5666912700029
 30
0.0
 11
45.53903110525474
 21
208.9006761200029
 31
0.0
  0
LINE
  5
8AE8
  8
0
 10
45.53903110525474
 20
208.9006761200029
 30
0.0
 11
44.53744610525473
 21
208.9006761200029
 31
0.0
  0
LINE
  5
8AE9
  8
0
 10
44.53744610525473
 20
208.9006761200029
 30
0.0
 11
44.53744610525473
 21
208.5666912700029
 31
0.0
  0
LINE
  5
8AEA
  8
0
 10
46.87349610525473
 20
208.5666912700029
 30
0.0
 11
47.54109435525476
 21
208.5666912700029
 31
0.0
  0
LINE
  5
8AEB
  8
0
 10
47.54109435525476
 20
208.5666912700029
 30
0.0
 11
47.54109435525476
 21
208.9006761200029
 31
0.0
  0
LINE
  5
8AEC
  8
0
 10
47.54109435525476
 20
208.9006761200029
 30
0.0
 11
46.87349610525473
 21
208.9006761200029
 31
0.0
  0
LINE
  5
8AED
  8
0
 10
46.87349610525473
 20
208.9006761200029
 30
0.0
 11
46.87349610525473
 21
208.5666912700029
 31
0.0
  0
LINE
  5
8AEE
  8
0
 10
47.87508110525474
 20
208.5666912700029
 30
0.0
 11
48.87666610525474
 21
208.5666912700029
 31
0.0
  0
LINE
  5
8AEF
  8
0
 10
48.87666610525474
 20
208.5666912700029
 30
0.0
 11
48.87666610525474
 21
208.9006761200029
 31
0.0
  0
LINE
  5
8AF0
  8
0
 10
48.87666610525474
 20
208.9006761200029
 30
0.0
 11
47.87508110525474
 21
208.9006761200029
 31
0.0
  0
LINE
  5
8AF1
  8
0
 10
47.87508110525474
 20
208.9006761200029
 30
0.0
 11
47.87508110525474
 21
208.5666912700029
 31
0.0
  0
LINE
  5
8AF2
  8
0
 10
49.20992610525474
 20
208.5666912700029
 30
0.0
 11
50.21151110525474
 21
208.5666912700029
 31
0.0
  0
LINE
  5
8AF3
  8
0
 10
50.21151110525474
 20
208.5666912700029
 30
0.0
 11
50.21151110525474
 21
208.9006761200029
 31
0.0
  0
LINE
  5
8AF4
  8
0
 10
50.21151110525474
 20
208.9006761200029
 30
0.0
 11
49.20992610525474
 21
208.9006761200029
 31
0.0
  0
LINE
  5
8AF5
  8
0
 10
49.20992610525474
 20
208.9006761200029
 30
0.0
 11
49.20992610525474
 21
208.5666912700029
 31
0.0
  0
LINE
  5
8AF6
  8
0
 10
50.54591110525473
 20
208.5666912700029
 30
0.0
 11
50.87989595525474
 21
208.5666912700029
 31
0.0
  0
LINE
  5
8AF7
  8
0
 10
50.87989595525474
 20
208.5666912700029
 30
0.0
 11
50.87989595525474
 21
208.9006761200029
 31
0.0
  0
LINE
  5
8AF8
  8
0
 10
50.87989595525474
 20
208.9006761200029
 30
0.0
 11
50.54591110525473
 21
208.9006761200029
 31
0.0
  0
LINE
  5
8AF9
  8
0
 10
50.54591110525473
 20
208.9006761200029
 30
0.0
 11
50.54591110525473
 21
208.5666912700029
 31
0.0
  0
LINE
  5
8AFA
  8
0
 10
51.21309610525475
 20
208.5666912700029
 30
0.0
 11
51.88069340525473
 21
208.5666912700029
 31
0.0
  0
LINE
  5
8AFB
  8
0
 10
51.88069340525473
 20
208.5666912700029
 30
0.0
 11
51.88069340525473
 21
208.9006761200029
 31
0.0
  0
LINE
  5
8AFC
  8
0
 10
51.88069340525473
 20
208.9006761200029
 30
0.0
 11
51.21309610525475
 21
208.9006761200029
 31
0.0
  0
LINE
  5
8AFD
  8
0
 10
51.21309610525475
 20
208.9006761200029
 30
0.0
 11
51.21309610525475
 21
208.5666912700029
 31
0.0
  0
LINE
  5
8AFE
  8
0
 10
42.53437110525473
 20
208.2327662700029
 30
0.0
 11
43.20196840525472
 21
208.2327662700029
 31
0.0
  0
LINE
  5
8AFF
  8
0
 10
43.20196840525472
 20
208.2327662700029
 30
0.0
 11
43.20196840525472
 21
208.5667501700029
 31
0.0
  0
LINE
  5
8B00
  8
0
 10
43.20196840525472
 20
208.5667501700029
 30
0.0
 11
42.53437110525473
 21
208.5667501700029
 31
0.0
  0
LINE
  5
8B01
  8
0
 10
42.53437110525473
 20
208.5667501700029
 30
0.0
 11
42.53437110525473
 21
208.2327662700029
 31
0.0
  0
LINE
  5
8B02
  8
0
 10
43.53586110525475
 20
208.2327662700029
 30
0.0
 11
44.20345840525474
 21
208.2327662700029
 31
0.0
  0
LINE
  5
8B03
  8
0
 10
44.20345840525474
 20
208.2327662700029
 30
0.0
 11
44.20345840525474
 21
208.5667501700029
 31
0.0
  0
LINE
  5
8B04
  8
0
 10
44.20345840525474
 20
208.5667501700029
 30
0.0
 11
43.53586110525475
 21
208.5667501700029
 31
0.0
  0
LINE
  5
8B05
  8
0
 10
43.53586110525475
 20
208.5667501700029
 30
0.0
 11
43.53586110525475
 21
208.2327662700029
 31
0.0
  0
LINE
  5
8B06
  8
0
 10
44.87108610525473
 20
208.2327662700029
 30
0.0
 11
45.53868340525474
 21
208.2327662700029
 31
0.0
  0
LINE
  5
8B07
  8
0
 10
45.53868340525474
 20
208.2327662700029
 30
0.0
 11
45.53868340525474
 21
208.5667501700029
 31
0.0
  0
LINE
  5
8B08
  8
0
 10
45.53868340525474
 20
208.5667501700029
 30
0.0
 11
44.87108610525473
 21
208.5667501700029
 31
0.0
  0
LINE
  5
8B09
  8
0
 10
44.87108610525473
 20
208.5667501700029
 30
0.0
 11
44.87108610525473
 21
208.2327662700029
 31
0.0
  0
LINE
  5
8B0A
  8
0
 10
46.20593110525473
 20
208.2327662700029
 30
0.0
 11
46.87352840525475
 21
208.2327662700029
 31
0.0
  0
LINE
  5
8B0B
  8
0
 10
46.87352840525475
 20
208.2327662700029
 30
0.0
 11
46.87352840525475
 21
208.5667501700029
 31
0.0
  0
LINE
  5
8B0C
  8
0
 10
46.87352840525475
 20
208.5667501700029
 30
0.0
 11
46.20593110525473
 21
208.5667501700029
 31
0.0
  0
LINE
  5
8B0D
  8
0
 10
46.20593110525473
 20
208.5667501700029
 30
0.0
 11
46.20593110525473
 21
208.2327662700029
 31
0.0
  0
LINE
  5
8B0E
  8
0
 10
47.20751610525474
 20
208.2327662700029
 30
0.0
 11
47.54150000525476
 21
208.2327662700029
 31
0.0
  0
LINE
  5
8B0F
  8
0
 10
47.54150000525476
 20
208.2327662700029
 30
0.0
 11
47.54150000525476
 21
208.5667501700029
 31
0.0
  0
LINE
  5
8B10
  8
0
 10
47.54150000525476
 20
208.5667501700029
 30
0.0
 11
47.20751610525474
 21
208.5667501700029
 31
0.0
  0
LINE
  5
8B11
  8
0
 10
47.20751610525474
 20
208.5667501700029
 30
0.0
 11
47.20751610525474
 21
208.2327662700029
 31
0.0
  0
LINE
  5
8B12
  8
0
 10
47.87508110525474
 20
208.2327662700029
 30
0.0
 11
48.54267840525472
 21
208.2327662700029
 31
0.0
  0
LINE
  5
8B13
  8
0
 10
48.54267840525472
 20
208.2327662700029
 30
0.0
 11
48.54267840525472
 21
208.5667501700029
 31
0.0
  0
LINE
  5
8B14
  8
0
 10
48.54267840525472
 20
208.5667501700029
 30
0.0
 11
47.87508110525474
 21
208.5667501700029
 31
0.0
  0
LINE
  5
8B15
  8
0
 10
47.87508110525474
 20
208.5667501700029
 30
0.0
 11
47.87508110525474
 21
208.2327662700029
 31
0.0
  0
LINE
  5
8B16
  8
0
 10
49.20992610525474
 20
208.2327662700029
 30
0.0
 11
49.87752435525474
 21
208.2327662700029
 31
0.0
  0
LINE
  5
8B17
  8
0
 10
49.87752435525474
 20
208.2327662700029
 30
0.0
 11
49.87752435525474
 21
208.5667501700029
 31
0.0
  0
LINE
  5
8B18
  8
0
 10
49.87752435525474
 20
208.5667501700029
 30
0.0
 11
49.20992610525474
 21
208.5667501700029
 31
0.0
  0
LINE
  5
8B19
  8
0
 10
49.20992610525474
 20
208.5667501700029
 30
0.0
 11
49.20992610525474
 21
208.2327662700029
 31
0.0
  0
LINE
  5
8B1A
  8
0
 10
50.21151110525474
 20
208.2327662700029
 30
0.0
 11
50.54586645525474
 21
208.2327662700029
 31
0.0
  0
LINE
  5
8B1B
  8
0
 10
50.54586645525474
 20
208.2327662700029
 30
0.0
 11
50.54586645525474
 21
208.5667501700029
 31
0.0
  0
LINE
  5
8B1C
  8
0
 10
50.54586645525474
 20
208.5667501700029
 30
0.0
 11
50.21151110525474
 21
208.5667501700029
 31
0.0
  0
LINE
  5
8B1D
  8
0
 10
50.21151110525474
 20
208.5667501700029
 30
0.0
 11
50.21151110525474
 21
208.2327662700029
 31
0.0
  0
LINE
  5
8B1E
  8
0
 10
51.21309610525475
 20
208.2327662700029
 30
0.0
 11
51.54708000525474
 21
208.2327662700029
 31
0.0
  0
LINE
  5
8B1F
  8
0
 10
51.54708000525474
 20
208.2327662700029
 30
0.0
 11
51.54708000525474
 21
208.5667501700029
 31
0.0
  0
LINE
  5
8B20
  8
0
 10
51.54708000525474
 20
208.5667501700029
 30
0.0
 11
51.21309610525475
 21
208.5667501700029
 31
0.0
  0
LINE
  5
8B21
  8
0
 10
51.21309610525475
 20
208.5667501700029
 30
0.0
 11
51.21309610525475
 21
208.2327662700029
 31
0.0
  0
LINE
  5
8B22
  8
0
 10
52.21392110525474
 20
208.2327662700029
 30
0.0
 11
53.54911760525474
 21
208.2327662700029
 31
0.0
  0
LINE
  5
8B23
  8
0
 10
53.54911760525474
 20
208.2327662700029
 30
0.0
 11
53.54911760525474
 21
208.5667501700029
 31
0.0
  0
LINE
  5
8B24
  8
0
 10
53.54911760525474
 20
208.5667501700029
 30
0.0
 11
52.21392110525474
 21
208.5667501700029
 31
0.0
  0
LINE
  5
8B25
  8
0
 10
52.21392110525474
 20
208.5667501700029
 30
0.0
 11
52.21392110525474
 21
208.2327662700029
 31
0.0
  0
LINE
  5
8B26
  8
0
 10
42.86867610525474
 20
207.8991262700029
 30
0.0
 11
46.20666260525473
 21
207.8991262700029
 31
0.0
  0
LINE
  5
8B27
  8
0
 10
46.20666260525473
 20
207.8991262700029
 30
0.0
 11
46.20666260525473
 21
208.2331111200029
 31
0.0
  0
LINE
  5
8B28
  8
0
 10
46.20666260525473
 20
208.2331111200029
 30
0.0
 11
42.86867610525474
 21
208.2331111200029
 31
0.0
  0
LINE
  5
8B29
  8
0
 10
42.86867610525474
 20
208.2331111200029
 30
0.0
 11
42.86867610525474
 21
207.8991262700029
 31
0.0
  0
LINE
  5
8B2A
  8
0
 10
46.87349610525473
 20
207.8991262700029
 30
0.0
 11
47.20748095525474
 21
207.8991262700029
 31
0.0
  0
LINE
  5
8B2B
  8
0
 10
47.20748095525474
 20
207.8991262700029
 30
0.0
 11
47.20748095525474
 21
208.2331111200029
 31
0.0
  0
LINE
  5
8B2C
  8
0
 10
47.20748095525474
 20
208.2331111200029
 30
0.0
 11
46.87349610525473
 21
208.2331111200029
 31
0.0
  0
LINE
  5
8B2D
  8
0
 10
46.87349610525473
 20
208.2331111200029
 30
0.0
 11
46.87349610525473
 21
207.8991262700029
 31
0.0
  0
LINE
  5
8B2E
  8
0
 10
48.20910110525475
 20
207.8991262700029
 30
0.0
 11
48.54308500525474
 21
207.8991262700029
 31
0.0
  0
LINE
  5
8B2F
  8
0
 10
48.54308500525474
 20
207.8991262700029
 30
0.0
 11
48.54308500525474
 21
208.2331111200029
 31
0.0
  0
LINE
  5
8B30
  8
0
 10
48.54308500525474
 20
208.2331111200029
 30
0.0
 11
48.20910110525475
 21
208.2331111200029
 31
0.0
  0
LINE
  5
8B31
  8
0
 10
48.20910110525475
 20
208.2331111200029
 30
0.0
 11
48.20910110525475
 21
207.8991262700029
 31
0.0
  0
LINE
  5
8B32
  8
0
 10
48.87666610525474
 20
207.8991262700029
 30
0.0
 11
49.21065000525473
 21
207.8991262700029
 31
0.0
  0
LINE
  5
8B33
  8
0
 10
49.21065000525473
 20
207.8991262700029
 30
0.0
 11
49.21065000525473
 21
208.2331111200029
 31
0.0
  0
LINE
  5
8B34
  8
0
 10
49.21065000525473
 20
208.2331111200029
 30
0.0
 11
48.87666610525474
 21
208.2331111200029
 31
0.0
  0
LINE
  5
8B35
  8
0
 10
48.87666610525474
 20
208.2331111200029
 30
0.0
 11
48.87666610525474
 21
207.8991262700029
 31
0.0
  0
LINE
  5
8B36
  8
0
 10
50.87907610525474
 20
207.8991262700029
 30
0.0
 11
51.54667435525474
 21
207.8991262700029
 31
0.0
  0
LINE
  5
8B37
  8
0
 10
51.54667435525474
 20
207.8991262700029
 30
0.0
 11
51.54667435525474
 21
208.2331111200029
 31
0.0
  0
LINE
  5
8B38
  8
0
 10
51.54667435525474
 20
208.2331111200029
 30
0.0
 11
50.87907610525474
 21
208.2331111200029
 31
0.0
  0
LINE
  5
8B39
  8
0
 10
50.87907610525474
 20
208.2331111200029
 30
0.0
 11
50.87907610525474
 21
207.8991262700029
 31
0.0
  0
LINE
  5
8B3A
  8
0
 10
51.88066110525473
 20
207.8991262700029
 30
0.0
 11
52.21464595525474
 21
207.8991262700029
 31
0.0
  0
LINE
  5
8B3B
  8
0
 10
52.21464595525474
 20
207.8991262700029
 30
0.0
 11
52.21464595525474
 21
208.2331111200029
 31
0.0
  0
LINE
  5
8B3C
  8
0
 10
52.21464595525474
 20
208.2331111200029
 30
0.0
 11
51.88066110525473
 21
208.2331111200029
 31
0.0
  0
LINE
  5
8B3D
  8
0
 10
51.88066110525473
 20
208.2331111200029
 30
0.0
 11
51.88066110525473
 21
207.8991262700029
 31
0.0
  0
LINE
  5
8B3E
  8
0
 10
52.54832110525473
 20
207.8991262700029
 30
0.0
 11
53.21554695525475
 21
207.8991262700029
 31
0.0
  0
LINE
  5
8B3F
  8
0
 10
53.21554695525475
 20
207.8991262700029
 30
0.0
 11
53.21554695525475
 21
208.2331111200029
 31
0.0
  0
LINE
  5
8B40
  8
0
 10
53.21554695525475
 20
208.2331111200029
 30
0.0
 11
52.54832110525473
 21
208.2331111200029
 31
0.0
  0
LINE
  5
8B41
  8
0
 10
52.54832110525473
 20
208.2331111200029
 30
0.0
 11
52.54832110525473
 21
207.8991262700029
 31
0.0
  0
LINE
  5
8B42
  8
0
 10
42.53437110525473
 20
207.5651062700029
 30
0.0
 11
43.20196840525472
 21
207.5651062700029
 31
0.0
  0
LINE
  5
8B43
  8
0
 10
43.20196840525472
 20
207.5651062700029
 30
0.0
 11
43.20196840525472
 21
207.8991262700029
 31
0.0
  0
LINE
  5
8B44
  8
0
 10
43.20196840525472
 20
207.8991262700029
 30
0.0
 11
42.53437110525473
 21
207.8991262700029
 31
0.0
  0
LINE
  5
8B45
  8
0
 10
42.53437110525473
 20
207.8991262700029
 30
0.0
 11
42.53437110525473
 21
207.5651062700029
 31
0.0
  0
LINE
  5
8B46
  8
0
 10
43.53586110525475
 20
207.5651062700029
 30
0.0
 11
44.20345840525474
 21
207.5651062700029
 31
0.0
  0
LINE
  5
8B47
  8
0
 10
44.20345840525474
 20
207.5651062700029
 30
0.0
 11
44.20345840525474
 21
207.8991262700029
 31
0.0
  0
LINE
  5
8B48
  8
0
 10
44.20345840525474
 20
207.8991262700029
 30
0.0
 11
43.53586110525475
 21
207.8991262700029
 31
0.0
  0
LINE
  5
8B49
  8
0
 10
43.53586110525475
 20
207.8991262700029
 30
0.0
 11
43.53586110525475
 21
207.5651062700029
 31
0.0
  0
LINE
  5
8B4A
  8
0
 10
45.53874610525475
 20
207.5651062700029
 30
0.0
 11
45.87273095525472
 21
207.5651062700029
 31
0.0
  0
LINE
  5
8B4B
  8
0
 10
45.87273095525472
 20
207.5651062700029
 30
0.0
 11
45.87273095525472
 21
207.8991262700029
 31
0.0
  0
LINE
  5
8B4C
  8
0
 10
45.87273095525472
 20
207.8991262700029
 30
0.0
 11
45.53874610525475
 21
207.8991262700029
 31
0.0
  0
LINE
  5
8B4D
  8
0
 10
45.53874610525475
 20
207.8991262700029
 30
0.0
 11
45.53874610525475
 21
207.5651062700029
 31
0.0
  0
LINE
  5
8B4E
  8
0
 10
46.54033110525475
 20
207.5651062700029
 30
0.0
 11
46.87431500525474
 21
207.5651062700029
 31
0.0
  0
LINE
  5
8B4F
  8
0
 10
46.87431500525474
 20
207.5651062700029
 30
0.0
 11
46.87431500525474
 21
207.8991262700029
 31
0.0
  0
LINE
  5
8B50
  8
0
 10
46.87431500525474
 20
207.8991262700029
 30
0.0
 11
46.54033110525475
 21
207.8991262700029
 31
0.0
  0
LINE
  5
8B51
  8
0
 10
46.54033110525475
 20
207.8991262700029
 30
0.0
 11
46.54033110525475
 21
207.5651062700029
 31
0.0
  0
LINE
  5
8B52
  8
0
 10
47.20751610525474
 20
207.5651062700029
 30
0.0
 11
47.87511340525475
 21
207.5651062700029
 31
0.0
  0
LINE
  5
8B53
  8
0
 10
47.87511340525475
 20
207.5651062700029
 30
0.0
 11
47.87511340525475
 21
207.8991262700029
 31
0.0
  0
LINE
  5
8B54
  8
0
 10
47.87511340525475
 20
207.8991262700029
 30
0.0
 11
47.20751610525474
 21
207.8991262700029
 31
0.0
  0
LINE
  5
8B55
  8
0
 10
47.20751610525474
 20
207.8991262700029
 30
0.0
 11
47.20751610525474
 21
207.5651062700029
 31
0.0
  0
LINE
  5
8B56
  8
0
 10
48.54274110525472
 20
207.5651062700029
 30
0.0
 11
49.20996790525476
 21
207.5651062700029
 31
0.0
  0
LINE
  5
8B57
  8
0
 10
49.20996790525476
 20
207.5651062700029
 30
0.0
 11
49.20996790525476
 21
207.8991262700029
 31
0.0
  0
LINE
  5
8B58
  8
0
 10
49.20996790525476
 20
207.8991262700029
 30
0.0
 11
48.54274110525472
 21
207.8991262700029
 31
0.0
  0
LINE
  5
8B59
  8
0
 10
48.54274110525472
 20
207.8991262700029
 30
0.0
 11
48.54274110525472
 21
207.5651062700029
 31
0.0
  0
LINE
  5
8B5A
  8
0
 10
50.87907610525474
 20
207.5651062700029
 30
0.0
 11
51.21309610525475
 21
207.5651062700029
 31
0.0
  0
LINE
  5
8B5B
  8
0
 10
51.21309610525475
 20
207.5651062700029
 30
0.0
 11
51.21309610525475
 21
207.8991262700029
 31
0.0
  0
LINE
  5
8B5C
  8
0
 10
51.21309610525475
 20
207.8991262700029
 30
0.0
 11
50.87911125525474
 21
207.8991262700029
 31
0.0
  0
LINE
  5
8B5D
  8
0
 10
50.87911125525474
 20
207.8991262700029
 30
0.0
 11
50.87907610525474
 21
207.5651062700029
 31
0.0
  0
LINE
  5
8B5E
  8
0
 10
51.88066110525473
 20
207.5651062700029
 30
0.0
 11
52.88224610525474
 21
207.5651062700029
 31
0.0
  0
LINE
  5
8B5F
  8
0
 10
52.88224610525474
 20
207.5651062700029
 30
0.0
 11
52.88224610525474
 21
207.8991262700029
 31
0.0
  0
LINE
  5
8B60
  8
0
 10
52.88224610525474
 20
207.8991262700029
 30
0.0
 11
51.88066110525473
 21
207.8991262700029
 31
0.0
  0
LINE
  5
8B61
  8
0
 10
51.88066110525473
 20
207.8991262700029
 30
0.0
 11
51.88066110525473
 21
207.5651062700029
 31
0.0
  0
LINE
  5
8B62
  8
0
 10
53.21550610525475
 20
207.5651062700029
 30
0.0
 11
53.54986240525474
 21
207.5651062700029
 31
0.0
  0
LINE
  5
8B63
  8
0
 10
53.54986240525474
 20
207.5651062700029
 30
0.0
 11
53.54986240525474
 21
207.8991262700029
 31
0.0
  0
LINE
  5
8B64
  8
0
 10
53.54986240525474
 20
207.8991262700029
 30
0.0
 11
53.21550610525475
 21
207.8991262700029
 31
0.0
  0
LINE
  5
8B65
  8
0
 10
53.21550610525475
 20
207.8991262700029
 30
0.0
 11
53.21550610525475
 21
207.5651062700029
 31
0.0
  0
LINE
  5
8B66
  8
0
 10
42.86867610525474
 20
207.2315612700029
 30
0.0
 11
43.20266095525474
 21
207.2315612700029
 31
0.0
  0
LINE
  5
8B67
  8
0
 10
43.20266095525474
 20
207.2315612700029
 30
0.0
 11
43.20266095525474
 21
207.5659166200029
 31
0.0
  0
LINE
  5
8B68
  8
0
 10
43.20266095525474
 20
207.5659166200029
 30
0.0
 11
42.86867610525474
 21
207.5659166200029
 31
0.0
  0
LINE
  5
8B69
  8
0
 10
42.86867610525474
 20
207.5659166200029
 30
0.0
 11
42.86867610525474
 21
207.2315612700029
 31
0.0
  0
LINE
  5
8B6A
  8
0
 10
44.53744610525473
 20
207.2315612700029
 30
0.0
 11
44.87143000525472
 21
207.2315612700029
 31
0.0
  0
LINE
  5
8B6B
  8
0
 10
44.87143000525472
 20
207.2315612700029
 30
0.0
 11
44.87143000525472
 21
207.5659166200029
 31
0.0
  0
LINE
  5
8B6C
  8
0
 10
44.87143000525472
 20
207.5659166200029
 30
0.0
 11
44.53744610525473
 21
207.5659166200029
 31
0.0
  0
LINE
  5
8B6D
  8
0
 10
44.53744610525473
 20
207.5659166200029
 30
0.0
 11
44.53744610525473
 21
207.2315612700029
 31
0.0
  0
LINE
  5
8B6E
  8
0
 10
45.53874610525475
 20
207.2315612700029
 30
0.0
 11
46.20597290525473
 21
207.2315612700029
 31
0.0
  0
LINE
  5
8B6F
  8
0
 10
46.20597290525473
 20
207.2315612700029
 30
0.0
 11
46.20597290525473
 21
207.5659166200029
 31
0.0
  0
LINE
  5
8B70
  8
0
 10
46.20597290525473
 20
207.5659166200029
 30
0.0
 11
45.53874610525475
 21
207.5659166200029
 31
0.0
  0
LINE
  5
8B71
  8
0
 10
45.53874610525475
 20
207.5659166200029
 30
0.0
 11
45.53874610525475
 21
207.2315612700029
 31
0.0
  0
LINE
  5
8B72
  8
0
 10
46.54033110525475
 20
207.2315612700029
 30
0.0
 11
47.20755790525473
 21
207.2315612700029
 31
0.0
  0
LINE
  5
8B73
  8
0
 10
47.20755790525473
 20
207.2315612700029
 30
0.0
 11
47.20755790525473
 21
207.5659166200029
 31
0.0
  0
LINE
  5
8B74
  8
0
 10
47.20755790525473
 20
207.5659166200029
 30
0.0
 11
46.54033110525475
 21
207.5659166200029
 31
0.0
  0
LINE
  5
8B75
  8
0
 10
46.54033110525475
 20
207.5659166200029
 30
0.0
 11
46.54033110525475
 21
207.2315612700029
 31
0.0
  0
LINE
  5
8B76
  8
0
 10
48.20910110525475
 20
207.2315612700029
 30
0.0
 11
49.21068610525475
 21
207.2315612700029
 31
0.0
  0
LINE
  5
8B77
  8
0
 10
49.21068610525475
 20
207.2315612700029
 30
0.0
 11
49.21068610525475
 21
207.5659166200029
 31
0.0
  0
LINE
  5
8B78
  8
0
 10
49.21068610525475
 20
207.5659166200029
 30
0.0
 11
48.20910110525475
 21
207.5659166200029
 31
0.0
  0
LINE
  5
8B79
  8
0
 10
48.20910110525475
 20
207.5659166200029
 30
0.0
 11
48.20910110525475
 21
207.2315612700029
 31
0.0
  0
LINE
  5
8B7A
  8
0
 10
49.87749110525473
 20
207.2315612700029
 30
0.0
 11
50.21147500525474
 21
207.2315612700029
 31
0.0
  0
LINE
  5
8B7B
  8
0
 10
50.21147500525474
 20
207.2315612700029
 30
0.0
 11
50.21147500525474
 21
207.5659166200029
 31
0.0
  0
LINE
  5
8B7C
  8
0
 10
50.21147500525474
 20
207.5659166200029
 30
0.0
 11
49.87749110525473
 21
207.5659166200029
 31
0.0
  0
LINE
  5
8B7D
  8
0
 10
49.87749110525473
 20
207.5659166200029
 30
0.0
 11
49.87749110525473
 21
207.2315612700029
 31
0.0
  0
LINE
  5
8B7E
  8
0
 10
50.54591110525473
 20
207.2315612700029
 30
0.0
 11
51.21313790525474
 21
207.2315612700029
 31
0.0
  0
LINE
  5
8B7F
  8
0
 10
51.21313790525474
 20
207.2315612700029
 30
0.0
 11
51.21313790525474
 21
207.5659166200029
 31
0.0
  0
LINE
  5
8B80
  8
0
 10
51.21313790525474
 20
207.5659166200029
 30
0.0
 11
50.54591110525473
 21
207.5659166200029
 31
0.0
  0
LINE
  5
8B81
  8
0
 10
50.54591110525473
 20
207.5659166200029
 30
0.0
 11
50.54591110525473
 21
207.2315612700029
 31
0.0
  0
LINE
  5
8B82
  8
0
 10
51.54673610525474
 20
207.2315612700029
 30
0.0
 11
52.54832110525473
 21
207.2315612700029
 31
0.0
  0
LINE
  5
8B83
  8
0
 10
52.54832110525473
 20
207.2315612700029
 30
0.0
 11
52.54832110525473
 21
207.5659166200029
 31
0.0
  0
LINE
  5
8B84
  8
0
 10
52.54832110525473
 20
207.5659166200029
 30
0.0
 11
51.54673610525474
 21
207.5659166200029
 31
0.0
  0
LINE
  5
8B85
  8
0
 10
51.54673610525474
 20
207.5659166200029
 30
0.0
 11
51.54673610525474
 21
207.2315612700029
 31
0.0
  0
LINE
  5
8B86
  8
0
 10
53.21550610525475
 20
207.2315612700029
 30
0.0
 11
53.54986240525474
 21
207.2315612700029
 31
0.0
  0
LINE
  5
8B87
  8
0
 10
53.54986240525474
 20
207.2315612700029
 30
0.0
 11
53.54986240525474
 21
207.5659166200029
 31
0.0
  0
LINE
  5
8B88
  8
0
 10
53.54986240525474
 20
207.5659166200029
 30
0.0
 11
53.21550610525475
 21
207.5659166200029
 31
0.0
  0
LINE
  5
8B89
  8
0
 10
53.21550610525475
 20
207.5659166200029
 30
0.0
 11
53.21550610525475
 21
207.2315612700029
 31
0.0
  0
LINE
  5
8B8A
  8
0
 10
42.86867610525474
 20
206.8975412700029
 30
0.0
 11
43.53590290525474
 21
206.8975412700029
 31
0.0
  0
LINE
  5
8B8B
  8
0
 10
43.53590290525474
 20
206.8975412700029
 30
0.0
 11
43.53590290525474
 21
207.2315261200029
 31
0.0
  0
LINE
  5
8B8C
  8
0
 10
43.53590290525474
 20
207.2315261200029
 30
0.0
 11
42.86867610525474
 21
207.2315261200029
 31
0.0
  0
LINE
  5
8B8D
  8
0
 10
42.86867610525474
 20
207.2315261200029
 30
0.0
 11
42.86867610525474
 21
206.8975412700029
 31
0.0
  0
LINE
  5
8B8E
  8
0
 10
43.86950110525476
 20
206.8975412700029
 30
0.0
 11
44.20348500525475
 21
206.8975412700029
 31
0.0
  0
LINE
  5
8B8F
  8
0
 10
44.20348500525475
 20
206.8975412700029
 30
0.0
 11
44.20348500525475
 21
207.2315261200029
 31
0.0
  0
LINE
  5
8B90
  8
0
 10
44.20348500525475
 20
207.2315261200029
 30
0.0
 11
43.86950110525476
 21
207.2315261200029
 31
0.0
  0
LINE
  5
8B91
  8
0
 10
43.86950110525476
 20
207.2315261200029
 30
0.0
 11
43.86950110525476
 21
206.8975412700029
 31
0.0
  0
LINE
  5
8B92
  8
0
 10
46.20593110525473
 20
206.8975412700029
 30
0.0
 11
46.53991500525473
 21
206.8975412700029
 31
0.0
  0
LINE
  5
8B93
  8
0
 10
46.53991500525473
 20
206.8975412700029
 30
0.0
 11
46.53991500525473
 21
207.2315261200029
 31
0.0
  0
LINE
  5
8B94
  8
0
 10
46.53991500525473
 20
207.2315261200029
 30
0.0
 11
46.20593110525473
 21
207.2315261200029
 31
0.0
  0
LINE
  5
8B95
  8
0
 10
46.20593110525473
 20
207.2315261200029
 30
0.0
 11
46.20593110525473
 21
206.8975412700029
 31
0.0
  0
LINE
  5
8B96
  8
0
 10
46.87349610525473
 20
206.8975412700029
 30
0.0
 11
49.87750060525474
 21
206.8975412700029
 31
0.0
  0
LINE
  5
8B97
  8
0
 10
49.87750060525474
 20
206.8975412700029
 30
0.0
 11
49.87750060525474
 21
207.2315261200029
 31
0.0
  0
LINE
  5
8B98
  8
0
 10
49.87750060525474
 20
207.2315261200029
 30
0.0
 11
46.87349610525473
 21
207.2315261200029
 31
0.0
  0
LINE
  5
8B99
  8
0
 10
46.87349610525473
 20
207.2315261200029
 30
0.0
 11
46.87349610525473
 21
206.8975412700029
 31
0.0
  0
LINE
  5
8B9A
  8
0
 10
50.21151110525474
 20
206.8975412700029
 30
0.0
 11
51.54670760525474
 21
206.8975412700029
 31
0.0
  0
LINE
  5
8B9B
  8
0
 10
51.54670760525474
 20
206.8975412700029
 30
0.0
 11
51.54670760525474
 21
207.2315261200029
 31
0.0
  0
LINE
  5
8B9C
  8
0
 10
51.54670760525474
 20
207.2315261200029
 30
0.0
 11
50.21151110525474
 21
207.2315261200029
 31
0.0
  0
LINE
  5
8B9D
  8
0
 10
50.21151110525474
 20
207.2315261200029
 30
0.0
 11
50.21151110525474
 21
206.8975412700029
 31
0.0
  0
LINE
  5
8B9E
  8
0
 10
52.21392110525474
 20
206.8975412700029
 30
0.0
 11
52.88151840525474
 21
206.8975412700029
 31
0.0
  0
LINE
  5
8B9F
  8
0
 10
52.88151840525474
 20
206.8975412700029
 30
0.0
 11
52.88151840525474
 21
207.2315261200029
 31
0.0
  0
LINE
  5
8BA0
  8
0
 10
52.88151840525474
 20
207.2315261200029
 30
0.0
 11
52.21392110525474
 21
207.2315261200029
 31
0.0
  0
LINE
  5
8BA1
  8
0
 10
52.21392110525474
 20
207.2315261200029
 30
0.0
 11
52.21392110525474
 21
206.8975412700029
 31
0.0
  0
LINE
  5
8BA2
  8
0
 10
53.21550610525475
 20
206.8975412700029
 30
0.0
 11
53.54986240525474
 21
206.8975412700029
 31
0.0
  0
LINE
  5
8BA3
  8
0
 10
53.54986240525474
 20
206.8975412700029
 30
0.0
 11
53.54986240525474
 21
207.2315261200029
 31
0.0
  0
LINE
  5
8BA4
  8
0
 10
53.54986240525474
 20
207.2315261200029
 30
0.0
 11
53.21550610525475
 21
207.2315261200029
 31
0.0
  0
LINE
  5
8BA5
  8
0
 10
53.21550610525475
 20
207.2315261200029
 30
0.0
 11
53.21550610525475
 21
206.8975412700029
 31
0.0
  0
LINE
  5
8BA6
  8
0
 10
43.20193610525473
 20
206.5642812700029
 30
0.0
 11
43.53629240525473
 21
206.5642812700029
 31
0.0
  0
LINE
  5
8BA7
  8
0
 10
43.53629240525473
 20
206.5642812700029
 30
0.0
 11
43.53629240525473
 21
206.8982651700029
 31
0.0
  0
LINE
  5
8BA8
  8
0
 10
43.53629240525473
 20
206.8982651700029
 30
0.0
 11
43.20193610525473
 21
206.8982651700029
 31
0.0
  0
LINE
  5
8BA9
  8
0
 10
43.20193610525473
 20
206.8982651700029
 30
0.0
 11
43.20193610525473
 21
206.5642812700029
 31
0.0
  0
LINE
  5
8BAA
  8
0
 10
43.86950110525476
 20
206.5642812700029
 30
0.0
 11
44.20348500525475
 21
206.5642812700029
 31
0.0
  0
LINE
  5
8BAB
  8
0
 10
44.20348500525475
 20
206.5642812700029
 30
0.0
 11
44.20348500525475
 21
206.8982651700029
 31
0.0
  0
LINE
  5
8BAC
  8
0
 10
44.20348500525475
 20
206.8982651700029
 30
0.0
 11
43.86950110525476
 21
206.8982651700029
 31
0.0
  0
LINE
  5
8BAD
  8
0
 10
43.86950110525476
 20
206.8982651700029
 30
0.0
 11
43.86950110525476
 21
206.5642812700029
 31
0.0
  0
LINE
  5
8BAE
  8
0
 10
44.53744610525473
 20
206.5642812700029
 30
0.0
 11
46.54023610525473
 21
206.5642812700029
 31
0.0
  0
LINE
  5
8BAF
  8
0
 10
46.54023610525473
 20
206.5642812700029
 30
0.0
 11
46.54023610525473
 21
206.8982651700029
 31
0.0
  0
LINE
  5
8BB0
  8
0
 10
46.54023610525473
 20
206.8982651700029
 30
0.0
 11
44.53744610525473
 21
206.8982651700029
 31
0.0
  0
LINE
  5
8BB1
  8
0
 10
44.53744610525473
 20
206.8982651700029
 30
0.0
 11
44.53744610525473
 21
206.5642812700029
 31
0.0
  0
LINE
  5
8BB2
  8
0
 10
46.87349610525473
 20
206.5642812700029
 30
0.0
 11
47.20748095525474
 21
206.5642812700029
 31
0.0
  0
LINE
  5
8BB3
  8
0
 10
47.20748095525474
 20
206.5642812700029
 30
0.0
 11
47.20748095525474
 21
206.8982651700029
 31
0.0
  0
LINE
  5
8BB4
  8
0
 10
47.20748095525474
 20
206.8982651700029
 30
0.0
 11
46.87349610525473
 21
206.8982651700029
 31
0.0
  0
LINE
  5
8BB5
  8
0
 10
46.87349610525473
 20
206.8982651700029
 30
0.0
 11
46.87349610525473
 21
206.5642812700029
 31
0.0
  0
LINE
  5
8BB6
  8
0
 10
47.54153610525475
 20
206.5642812700029
 30
0.0
 11
48.20913435525472
 21
206.5642812700029
 31
0.0
  0
LINE
  5
8BB7
  8
0
 10
48.20913435525472
 20
206.5642812700029
 30
0.0
 11
48.20913435525472
 21
206.8982651700029
 31
0.0
  0
LINE
  5
8BB8
  8
0
 10
48.20913435525472
 20
206.8982651700029
 30
0.0
 11
47.54153610525475
 21
206.8982651700029
 31
0.0
  0
LINE
  5
8BB9
  8
0
 10
47.54153610525475
 20
206.8982651700029
 30
0.0
 11
47.54153610525475
 21
206.5642812700029
 31
0.0
  0
LINE
  5
8BBA
  8
0
 10
48.87666610525474
 20
206.5642812700029
 30
0.0
 11
49.21065000525473
 21
206.5642812700029
 31
0.0
  0
LINE
  5
8BBB
  8
0
 10
49.21065000525473
 20
206.5642812700029
 30
0.0
 11
49.21065000525473
 21
206.8982651700029
 31
0.0
  0
LINE
  5
8BBC
  8
0
 10
49.21065000525473
 20
206.8982651700029
 30
0.0
 11
48.87666610525474
 21
206.8982651700029
 31
0.0
  0
LINE
  5
8BBD
  8
0
 10
48.87666610525474
 20
206.8982651700029
 30
0.0
 11
48.87666610525474
 21
206.5642812700029
 31
0.0
  0
LINE
  5
8BBE
  8
0
 10
50.21151110525474
 20
206.5642812700029
 30
0.0
 11
50.54586645525474
 21
206.5642812700029
 31
0.0
  0
LINE
  5
8BBF
  8
0
 10
50.54586645525474
 20
206.5642812700029
 30
0.0
 11
50.54586645525474
 21
206.8982651700029
 31
0.0
  0
LINE
  5
8BC0
  8
0
 10
50.54586645525474
 20
206.8982651700029
 30
0.0
 11
50.21151110525474
 21
206.8982651700029
 31
0.0
  0
LINE
  5
8BC1
  8
0
 10
50.21151110525474
 20
206.8982651700029
 30
0.0
 11
50.21151110525474
 21
206.5642812700029
 31
0.0
  0
LINE
  5
8BC2
  8
0
 10
51.54673610525474
 20
206.5642812700029
 30
0.0
 11
51.88072000525474
 21
206.5642812700029
 31
0.0
  0
LINE
  5
8BC3
  8
0
 10
51.88072000525474
 20
206.5642812700029
 30
0.0
 11
51.88072000525474
 21
206.8982651700029
 31
0.0
  0
LINE
  5
8BC4
  8
0
 10
51.88072000525474
 20
206.8982651700029
 30
0.0
 11
51.54673610525474
 21
206.8982651700029
 31
0.0
  0
LINE
  5
8BC5
  8
0
 10
51.54673610525474
 20
206.8982651700029
 30
0.0
 11
51.54673610525474
 21
206.5642812700029
 31
0.0
  0
LINE
  5
8BC6
  8
0
 10
52.21392110525474
 20
206.5642812700029
 30
0.0
 11
52.88151840525474
 21
206.5642812700029
 31
0.0
  0
LINE
  5
8BC7
  8
0
 10
52.88151840525474
 20
206.5642812700029
 30
0.0
 11
52.88151840525474
 21
206.8982651700029
 31
0.0
  0
LINE
  5
8BC8
  8
0
 10
52.88151840525474
 20
206.8982651700029
 30
0.0
 11
52.21392110525474
 21
206.8982651700029
 31
0.0
  0
LINE
  5
8BC9
  8
0
 10
52.21392110525474
 20
206.8982651700029
 30
0.0
 11
52.21392110525474
 21
206.5642812700029
 31
0.0
  0
LINE
  5
8BCA
  8
0
 10
53.21550610525475
 20
206.5642812700029
 30
0.0
 11
53.54986240525474
 21
206.5642812700029
 31
0.0
  0
LINE
  5
8BCB
  8
0
 10
53.54986240525474
 20
206.5642812700029
 30
0.0
 11
53.54986240525474
 21
206.8982651700029
 31
0.0
  0
LINE
  5
8BCC
  8
0
 10
53.54986240525474
 20
206.8982651700029
 30
0.0
 11
53.21550610525475
 21
206.8982651700029
 31
0.0
  0
LINE
  5
8BCD
  8
0
 10
53.21550610525475
 20
206.8982651700029
 30
0.0
 11
53.21550610525475
 21
206.5642812700029
 31
0.0
  0
LINE
  5
8BCE
  8
0
 10
42.86867610525474
 20
206.2303562700029
 30
0.0
 11
43.20266095525474
 21
206.2303562700029
 31
0.0
  0
LINE
  5
8BCF
  8
0
 10
43.20266095525474
 20
206.2303562700029
 30
0.0
 11
43.20266095525474
 21
206.5643411200029
 31
0.0
  0
LINE
  5
8BD0
  8
0
 10
43.20266095525474
 20
206.5643411200029
 30
0.0
 11
42.86867610525474
 21
206.5643411200029
 31
0.0
  0
LINE
  5
8BD1
  8
0
 10
42.86867610525474
 20
206.5643411200029
 30
0.0
 11
42.86867610525474
 21
206.2303562700029
 31
0.0
  0
LINE
  5
8BD2
  8
0
 10
43.53586110525475
 20
206.2303562700029
 30
0.0
 11
44.53744610525473
 21
206.2303562700029
 31
0.0
  0
LINE
  5
8BD3
  8
0
 10
44.53744610525473
 20
206.2303562700029
 30
0.0
 11
44.53744610525473
 21
206.5643411200029
 31
0.0
  0
LINE
  5
8BD4
  8
0
 10
44.53744610525473
 20
206.5643411200029
 30
0.0
 11
43.53586110525475
 21
206.5643411200029
 31
0.0
  0
LINE
  5
8BD5
  8
0
 10
43.53586110525475
 20
206.5643411200029
 30
0.0
 11
43.53586110525475
 21
206.2303562700029
 31
0.0
  0
LINE
  5
8BD6
  8
0
 10
44.87108610525473
 20
206.2303562700029
 30
0.0
 11
45.53868340525474
 21
206.2303562700029
 31
0.0
  0
LINE
  5
8BD7
  8
0
 10
45.53868340525474
 20
206.2303562700029
 30
0.0
 11
45.53868340525474
 21
206.5643411200029
 31
0.0
  0
LINE
  5
8BD8
  8
0
 10
45.53868340525474
 20
206.5643411200029
 30
0.0
 11
44.87108610525473
 21
206.5643411200029
 31
0.0
  0
LINE
  5
8BD9
  8
0
 10
44.87108610525473
 20
206.5643411200029
 30
0.0
 11
44.87108610525473
 21
206.2303562700029
 31
0.0
  0
LINE
  5
8BDA
  8
0
 10
45.87267110525474
 20
206.2303562700029
 30
0.0
 11
46.20665500525473
 21
206.2303562700029
 31
0.0
  0
LINE
  5
8BDB
  8
0
 10
46.20665500525473
 20
206.2303562700029
 30
0.0
 11
46.20665500525473
 21
206.5643411200029
 31
0.0
  0
LINE
  5
8BDC
  8
0
 10
46.20665500525473
 20
206.5643411200029
 30
0.0
 11
45.87267110525474
 21
206.5643411200029
 31
0.0
  0
LINE
  5
8BDD
  8
0
 10
45.87267110525474
 20
206.5643411200029
 30
0.0
 11
45.87267110525474
 21
206.2303562700029
 31
0.0
  0
LINE
  5
8BDE
  8
0
 10
47.54153610525475
 20
206.2303562700029
 30
0.0
 11
49.87831760525475
 21
206.2303562700029
 31
0.0
  0
LINE
  5
8BDF
  8
0
 10
49.87831760525475
 20
206.2303562700029
 30
0.0
 11
49.87831760525475
 21
206.5643411200029
 31
0.0
  0
LINE
  5
8BE0
  8
0
 10
49.87831760525475
 20
206.5643411200029
 30
0.0
 11
47.54153610525475
 21
206.5643411200029
 31
0.0
  0
LINE
  5
8BE1
  8
0
 10
47.54153610525475
 20
206.5643411200029
 30
0.0
 11
47.54153610525475
 21
206.2303562700029
 31
0.0
  0
LINE
  5
8BE2
  8
0
 10
50.21151110525474
 20
206.2303562700029
 30
0.0
 11
50.54586645525474
 21
206.2303562700029
 31
0.0
  0
LINE
  5
8BE3
  8
0
 10
50.54586645525474
 20
206.2303562700029
 30
0.0
 11
50.54586645525474
 21
206.5643411200029
 31
0.0
  0
LINE
  5
8BE4
  8
0
 10
50.54586645525474
 20
206.5643411200029
 30
0.0
 11
50.21151110525474
 21
206.5643411200029
 31
0.0
  0
LINE
  5
8BE5
  8
0
 10
50.21151110525474
 20
206.5643411200029
 30
0.0
 11
50.21151110525474
 21
206.2303562700029
 31
0.0
  0
LINE
  5
8BE6
  8
0
 10
50.87907610525474
 20
206.2303562700029
 30
0.0
 11
51.21306095525475
 21
206.2303562700029
 31
0.0
  0
LINE
  5
8BE7
  8
0
 10
51.21306095525475
 20
206.2303562700029
 30
0.0
 11
51.21306095525475
 21
206.5643411200029
 31
0.0
  0
LINE
  5
8BE8
  8
0
 10
51.21306095525475
 20
206.5643411200029
 30
0.0
 11
50.87907610525474
 21
206.5643411200029
 31
0.0
  0
LINE
  5
8BE9
  8
0
 10
50.87907610525474
 20
206.5643411200029
 30
0.0
 11
50.87907610525474
 21
206.2303562700029
 31
0.0
  0
LINE
  5
8BEA
  8
0
 10
51.88066110525473
 20
206.2303562700029
 30
0.0
 11
52.88224610525474
 21
206.2303562700029
 31
0.0
  0
LINE
  5
8BEB
  8
0
 10
52.88224610525474
 20
206.2303562700029
 30
0.0
 11
52.88224610525474
 21
206.5643411200029
 31
0.0
  0
LINE
  5
8BEC
  8
0
 10
52.88224610525474
 20
206.5643411200029
 30
0.0
 11
51.88066110525473
 21
206.5643411200029
 31
0.0
  0
LINE
  5
8BED
  8
0
 10
51.88066110525473
 20
206.5643411200029
 30
0.0
 11
51.88066110525473
 21
206.2303562700029
 31
0.0
  0
LINE
  5
8BEE
  8
0
 10
53.21550610525475
 20
206.2303562700029
 30
0.0
 11
53.54986240525474
 21
206.2303562700029
 31
0.0
  0
LINE
  5
8BEF
  8
0
 10
53.54986240525474
 20
206.2303562700029
 30
0.0
 11
53.54986240525474
 21
206.5643411200029
 31
0.0
  0
LINE
  5
8BF0
  8
0
 10
53.54986240525474
 20
206.5643411200029
 30
0.0
 11
53.21550610525475
 21
206.5643411200029
 31
0.0
  0
LINE
  5
8BF1
  8
0
 10
53.21550610525475
 20
206.5643411200029
 30
0.0
 11
53.21550610525475
 21
206.2303562700029
 31
0.0
  0
LINE
  5
8BF2
  8
0
 10
42.53437110525473
 20
205.8959562700029
 30
0.0
 11
43.86956760525476
 21
205.8959562700029
 31
0.0
  0
LINE
  5
8BF3
  8
0
 10
43.86956760525476
 20
205.8959562700029
 30
0.0
 11
43.86956760525476
 21
206.2303116200029
 31
0.0
  0
LINE
  5
8BF4
  8
0
 10
43.86956760525476
 20
206.2303116200029
 30
0.0
 11
42.53437110525473
 21
206.2303116200029
 31
0.0
  0
LINE
  5
8BF5
  8
0
 10
42.53437110525473
 20
206.2303116200029
 30
0.0
 11
42.53437110525473
 21
205.8959562700029
 31
0.0
  0
LINE
  5
8BF6
  8
0
 10
44.53744610525473
 20
205.8959562700029
 30
0.0
 11
44.87143000525472
 21
205.8959562700029
 31
0.0
  0
LINE
  5
8BF7
  8
0
 10
44.87143000525472
 20
205.8959562700029
 30
0.0
 11
44.87143000525472
 21
206.2303116200029
 31
0.0
  0
LINE
  5
8BF8
  8
0
 10
44.87143000525472
 20
206.2303116200029
 30
0.0
 11
44.53744610525473
 21
206.2303116200029
 31
0.0
  0
LINE
  5
8BF9
  8
0
 10
44.53744610525473
 20
206.2303116200029
 30
0.0
 11
44.53744610525473
 21
205.8959562700029
 31
0.0
  0
LINE
  5
8BFA
  8
0
 10
45.20510610525474
 20
205.8959562700029
 30
0.0
 11
45.53909095525475
 21
205.8959562700029
 31
0.0
  0
LINE
  5
8BFB
  8
0
 10
45.53909095525475
 20
205.8959562700029
 30
0.0
 11
45.53909095525475
 21
206.2303116200029
 31
0.0
  0
LINE
  5
8BFC
  8
0
 10
45.53909095525475
 20
206.2303116200029
 30
0.0
 11
45.20510610525474
 21
206.2303116200029
 31
0.0
  0
LINE
  5
8BFD
  8
0
 10
45.20510610525474
 20
206.2303116200029
 30
0.0
 11
45.20510610525474
 21
205.8959562700029
 31
0.0
  0
LINE
  5
8BFE
  8
0
 10
45.87267110525474
 20
205.8959562700029
 30
0.0
 11
46.20665500525473
 21
205.8959562700029
 31
0.0
  0
LINE
  5
8BFF
  8
0
 10
46.20665500525473
 20
205.8959562700029
 30
0.0
 11
46.20665500525473
 21
206.2303116200029
 31
0.0
  0
LINE
  5
8C00
  8
0
 10
46.20665500525473
 20
206.2303116200029
 30
0.0
 11
45.87267110525474
 21
206.2303116200029
 31
0.0
  0
LINE
  5
8C01
  8
0
 10
45.87267110525474
 20
206.2303116200029
 30
0.0
 11
45.87267110525474
 21
205.8959562700029
 31
0.0
  0
LINE
  5
8C02
  8
0
 10
46.54033110525475
 20
205.8959562700029
 30
0.0
 11
47.54154560525473
 21
205.8959562700029
 31
0.0
  0
LINE
  5
8C03
  8
0
 10
47.54154560525473
 20
205.8959562700029
 30
0.0
 11
47.54154560525473
 21
206.2303116200029
 31
0.0
  0
LINE
  5
8C04
  8
0
 10
47.54154560525473
 20
206.2303116200029
 30
0.0
 11
46.54033110525475
 21
206.2303116200029
 31
0.0
  0
LINE
  5
8C05
  8
0
 10
46.54033110525475
 20
206.2303116200029
 30
0.0
 11
46.54033110525475
 21
205.8959562700029
 31
0.0
  0
LINE
  5
8C06
  8
0
 10
47.87508110525474
 20
205.8959562700029
 30
0.0
 11
48.20906595525474
 21
205.8959562700029
 31
0.0
  0
LINE
  5
8C07
  8
0
 10
48.20906595525474
 20
205.8959562700029
 30
0.0
 11
48.20906595525474
 21
206.2303116200029
 31
0.0
  0
LINE
  5
8C08
  8
0
 10
48.20906595525474
 20
206.2303116200029
 30
0.0
 11
47.87508110525474
 21
206.2303116200029
 31
0.0
  0
LINE
  5
8C09
  8
0
 10
47.87508110525474
 20
206.2303116200029
 30
0.0
 11
47.87508110525474
 21
205.8959562700029
 31
0.0
  0
LINE
  5
8C0A
  8
0
 10
49.20992610525474
 20
205.8959562700029
 30
0.0
 11
50.21151110525474
 21
205.8959562700029
 31
0.0
  0
LINE
  5
8C0B
  8
0
 10
50.21151110525474
 20
205.8959562700029
 30
0.0
 11
50.21151110525474
 21
206.2303116200029
 31
0.0
  0
LINE
  5
8C0C
  8
0
 10
50.21151110525474
 20
206.2303116200029
 30
0.0
 11
49.20992610525474
 21
206.2303116200029
 31
0.0
  0
LINE
  5
8C0D
  8
0
 10
49.20992610525474
 20
206.2303116200029
 30
0.0
 11
49.20992610525474
 21
205.8959562700029
 31
0.0
  0
LINE
  5
8C0E
  8
0
 10
50.87907610525474
 20
205.8959562700029
 30
0.0
 11
51.21306095525475
 21
205.8959562700029
 31
0.0
  0
LINE
  5
8C0F
  8
0
 10
51.21306095525475
 20
205.8959562700029
 30
0.0
 11
51.21306095525475
 21
206.2303116200029
 31
0.0
  0
LINE
  5
8C10
  8
0
 10
51.21306095525475
 20
206.2303116200029
 30
0.0
 11
50.87907610525474
 21
206.2303116200029
 31
0.0
  0
LINE
  5
8C11
  8
0
 10
50.87907610525474
 20
206.2303116200029
 30
0.0
 11
50.87907610525474
 21
205.8959562700029
 31
0.0
  0
LINE
  5
8C12
  8
0
 10
51.88066110525473
 20
205.8959562700029
 30
0.0
 11
52.54788790525475
 21
205.8959562700029
 31
0.0
  0
LINE
  5
8C13
  8
0
 10
52.54788790525475
 20
205.8959562700029
 30
0.0
 11
52.54788790525475
 21
206.2303116200029
 31
0.0
  0
LINE
  5
8C14
  8
0
 10
52.54788790525475
 20
206.2303116200029
 30
0.0
 11
51.88066110525473
 21
206.2303116200029
 31
0.0
  0
LINE
  5
8C15
  8
0
 10
51.88066110525473
 20
206.2303116200029
 30
0.0
 11
51.88066110525473
 21
205.8959562700029
 31
0.0
  0
LINE
  5
8C16
  8
0
 10
42.53437110525473
 20
205.5626962700029
 30
0.0
 11
43.20196840525472
 21
205.5626962700029
 31
0.0
  0
LINE
  5
8C17
  8
0
 10
43.20196840525472
 20
205.5626962700029
 30
0.0
 11
43.20196840525472
 21
205.8966811200029
 31
0.0
  0
LINE
  5
8C18
  8
0
 10
43.20196840525472
 20
205.8966811200029
 30
0.0
 11
42.53437110525473
 21
205.8966811200029
 31
0.0
  0
LINE
  5
8C19
  8
0
 10
42.53437110525473
 20
205.8966811200029
 30
0.0
 11
42.53437110525473
 21
205.5626962700029
 31
0.0
  0
LINE
  5
8C1A
  8
0
 10
43.53586110525475
 20
205.5626962700029
 30
0.0
 11
43.86984500525475
 21
205.5626962700029
 31
0.0
  0
LINE
  5
8C1B
  8
0
 10
43.86984500525475
 20
205.5626962700029
 30
0.0
 11
43.86984500525475
 21
205.8966811200029
 31
0.0
  0
LINE
  5
8C1C
  8
0
 10
43.86984500525475
 20
205.8966811200029
 30
0.0
 11
43.53586110525475
 21
205.8966811200029
 31
0.0
  0
LINE
  5
8C1D
  8
0
 10
43.53586110525475
 20
205.8966811200029
 30
0.0
 11
43.53586110525475
 21
205.5626962700029
 31
0.0
  0
LINE
  5
8C1E
  8
0
 10
44.20352110525474
 20
205.5626962700029
 30
0.0
 11
44.53750595525474
 21
205.5626962700029
 31
0.0
  0
LINE
  5
8C1F
  8
0
 10
44.53750595525474
 20
205.5626962700029
 30
0.0
 11
44.53750595525474
 21
205.8966811200029
 31
0.0
  0
LINE
  5
8C20
  8
0
 10
44.53750595525474
 20
205.8966811200029
 30
0.0
 11
44.20352110525474
 21
205.8966811200029
 31
0.0
  0
LINE
  5
8C21
  8
0
 10
44.20352110525474
 20
205.8966811200029
 30
0.0
 11
44.20352110525474
 21
205.5626962700029
 31
0.0
  0
LINE
  5
8C22
  8
0
 10
45.20510610525474
 20
205.5626962700029
 30
0.0
 11
45.53909095525475
 21
205.5626962700029
 31
0.0
  0
LINE
  5
8C23
  8
0
 10
45.53909095525475
 20
205.5626962700029
 30
0.0
 11
45.53909095525475
 21
205.8966811200029
 31
0.0
  0
LINE
  5
8C24
  8
0
 10
45.53909095525475
 20
205.8966811200029
 30
0.0
 11
45.20510610525474
 21
205.8966811200029
 31
0.0
  0
LINE
  5
8C25
  8
0
 10
45.20510610525474
 20
205.8966811200029
 30
0.0
 11
45.20510610525474
 21
205.5626962700029
 31
0.0
  0
LINE
  5
8C26
  8
0
 10
45.87267110525474
 20
205.5626962700029
 30
0.0
 11
46.87388560525474
 21
205.5626962700029
 31
0.0
  0
LINE
  5
8C27
  8
0
 10
46.87388560525474
 20
205.5626962700029
 30
0.0
 11
46.87388560525474
 21
205.8966811200029
 31
0.0
  0
LINE
  5
8C28
  8
0
 10
46.87388560525474
 20
205.8966811200029
 30
0.0
 11
45.87267110525474
 21
205.8966811200029
 31
0.0
  0
LINE
  5
8C29
  8
0
 10
45.87267110525474
 20
205.8966811200029
 30
0.0
 11
45.87267110525474
 21
205.5626962700029
 31
0.0
  0
LINE
  5
8C2A
  8
0
 10
47.20751610525474
 20
205.5626962700029
 30
0.0
 11
47.54150000525476
 21
205.5626962700029
 31
0.0
  0
LINE
  5
8C2B
  8
0
 10
47.54150000525476
 20
205.5626962700029
 30
0.0
 11
47.54150000525476
 21
205.8966811200029
 31
0.0
  0
LINE
  5
8C2C
  8
0
 10
47.54150000525476
 20
205.8966811200029
 30
0.0
 11
47.20751610525474
 21
205.8966811200029
 31
0.0
  0
LINE
  5
8C2D
  8
0
 10
47.20751610525474
 20
205.8966811200029
 30
0.0
 11
47.20751610525474
 21
205.5626962700029
 31
0.0
  0
LINE
  5
8C2E
  8
0
 10
47.87508110525474
 20
205.5626962700029
 30
0.0
 11
48.87666610525474
 21
205.5626962700029
 31
0.0
  0
LINE
  5
8C2F
  8
0
 10
48.87666610525474
 20
205.5626962700029
 30
0.0
 11
48.87666610525474
 21
205.8966811200029
 31
0.0
  0
LINE
  5
8C30
  8
0
 10
48.87666610525474
 20
205.8966811200029
 30
0.0
 11
47.87508110525474
 21
205.8966811200029
 31
0.0
  0
LINE
  5
8C31
  8
0
 10
47.87508110525474
 20
205.8966811200029
 30
0.0
 11
47.87508110525474
 21
205.5626962700029
 31
0.0
  0
LINE
  5
8C32
  8
0
 10
49.20992610525474
 20
205.5626962700029
 30
0.0
 11
49.54428145525475
 21
205.5626962700029
 31
0.0
  0
LINE
  5
8C33
  8
0
 10
49.54428145525475
 20
205.5626962700029
 30
0.0
 11
49.54428145525475
 21
205.8966811200029
 31
0.0
  0
LINE
  5
8C34
  8
0
 10
49.54428145525475
 20
205.8966811200029
 30
0.0
 11
49.20992610525474
 21
205.8966811200029
 31
0.0
  0
LINE
  5
8C35
  8
0
 10
49.20992610525474
 20
205.8966811200029
 30
0.0
 11
49.20992610525474
 21
205.5626962700029
 31
0.0
  0
LINE
  5
8C36
  8
0
 10
49.87749110525473
 20
205.5626962700029
 30
0.0
 11
50.54508840525475
 21
205.5626962700029
 31
0.0
  0
LINE
  5
8C37
  8
0
 10
50.54508840525475
 20
205.5626962700029
 30
0.0
 11
50.54508840525475
 21
205.8966811200029
 31
0.0
  0
LINE
  5
8C38
  8
0
 10
50.54508840525475
 20
205.8966811200029
 30
0.0
 11
49.87749110525473
 21
205.8966811200029
 31
0.0
  0
LINE
  5
8C39
  8
0
 10
49.87749110525473
 20
205.8966811200029
 30
0.0
 11
49.87749110525473
 21
205.5626962700029
 31
0.0
  0
LINE
  5
8C3A
  8
0
 10
51.54673610525474
 20
205.5626962700029
 30
0.0
 11
52.88156210525473
 21
205.5626962700029
 31
0.0
  0
LINE
  5
8C3B
  8
0
 10
52.88156210525473
 20
205.5626962700029
 30
0.0
 11
52.88156210525473
 21
205.8966811200029
 31
0.0
  0
LINE
  5
8C3C
  8
0
 10
52.88156210525473
 20
205.8966811200029
 30
0.0
 11
51.54673610525474
 21
205.8966811200029
 31
0.0
  0
LINE
  5
8C3D
  8
0
 10
51.54673610525474
 20
205.8966811200029
 30
0.0
 11
51.54673610525474
 21
205.5626962700029
 31
0.0
  0
LINE
  5
8C3E
  8
0
 10
42.53437110525473
 20
205.2287712700029
 30
0.0
 11
42.86872645525474
 21
205.2287712700029
 31
0.0
  0
LINE
  5
8C3F
  8
0
 10
42.86872645525474
 20
205.2287712700029
 30
0.0
 11
42.86872645525474
 21
205.5627551700029
 31
0.0
  0
LINE
  5
8C40
  8
0
 10
42.86872645525474
 20
205.5627551700029
 30
0.0
 11
42.53437110525473
 21
205.5627551700029
 31
0.0
  0
LINE
  5
8C41
  8
0
 10
42.53437110525473
 20
205.5627551700029
 30
0.0
 11
42.53437110525473
 21
205.2287712700029
 31
0.0
  0
LINE
  5
8C42
  8
0
 10
43.20193610525473
 20
205.2287712700029
 30
0.0
 11
43.53629240525473
 21
205.2287712700029
 31
0.0
  0
LINE
  5
8C43
  8
0
 10
43.53629240525473
 20
205.2287712700029
 30
0.0
 11
43.53629240525473
 21
205.5627551700029
 31
0.0
  0
LINE
  5
8C44
  8
0
 10
43.53629240525473
 20
205.5627551700029
 30
0.0
 11
43.20193610525473
 21
205.5627551700029
 31
0.0
  0
LINE
  5
8C45
  8
0
 10
43.20193610525473
 20
205.5627551700029
 30
0.0
 11
43.20193610525473
 21
205.2287712700029
 31
0.0
  0
LINE
  5
8C46
  8
0
 10
43.86950110525476
 20
205.2287712700029
 30
0.0
 11
44.87108610525473
 21
205.2287712700029
 31
0.0
  0
LINE
  5
8C47
  8
0
 10
44.87108610525473
 20
205.2287712700029
 30
0.0
 11
44.87108610525473
 21
205.5627551700029
 31
0.0
  0
LINE
  5
8C48
  8
0
 10
44.87108610525473
 20
205.5627551700029
 30
0.0
 11
43.86950110525476
 21
205.5627551700029
 31
0.0
  0
LINE
  5
8C49
  8
0
 10
43.86950110525476
 20
205.5627551700029
 30
0.0
 11
43.86950110525476
 21
205.2287712700029
 31
0.0
  0
LINE
  5
8C4A
  8
0
 10
45.53874610525475
 20
205.2287712700029
 30
0.0
 11
45.87273095525472
 21
205.2287712700029
 31
0.0
  0
LINE
  5
8C4B
  8
0
 10
45.87273095525472
 20
205.2287712700029
 30
0.0
 11
45.87273095525472
 21
205.5627551700029
 31
0.0
  0
LINE
  5
8C4C
  8
0
 10
45.87273095525472
 20
205.5627551700029
 30
0.0
 11
45.53874610525475
 21
205.5627551700029
 31
0.0
  0
LINE
  5
8C4D
  8
0
 10
45.53874610525475
 20
205.5627551700029
 30
0.0
 11
45.53874610525475
 21
205.2287712700029
 31
0.0
  0
LINE
  5
8C4E
  8
0
 10
46.20593110525473
 20
205.2287712700029
 30
0.0
 11
46.53991500525473
 21
205.2287712700029
 31
0.0
  0
LINE
  5
8C4F
  8
0
 10
46.53991500525473
 20
205.2287712700029
 30
0.0
 11
46.53991500525473
 21
205.5627551700029
 31
0.0
  0
LINE
  5
8C50
  8
0
 10
46.53991500525473
 20
205.5627551700029
 30
0.0
 11
46.20593110525473
 21
205.5627551700029
 31
0.0
  0
LINE
  5
8C51
  8
0
 10
46.20593110525473
 20
205.5627551700029
 30
0.0
 11
46.20593110525473
 21
205.2287712700029
 31
0.0
  0
LINE
  5
8C52
  8
0
 10
47.54153610525475
 20
205.2287712700029
 30
0.0
 11
48.54312110525473
 21
205.2287712700029
 31
0.0
  0
LINE
  5
8C53
  8
0
 10
48.54312110525473
 20
205.2287712700029
 30
0.0
 11
48.54312110525473
 21
205.5627551700029
 31
0.0
  0
LINE
  5
8C54
  8
0
 10
48.54312110525473
 20
205.5627551700029
 30
0.0
 11
47.54153610525475
 21
205.5627551700029
 31
0.0
  0
LINE
  5
8C55
  8
0
 10
47.54153610525475
 20
205.5627551700029
 30
0.0
 11
47.54153610525475
 21
205.2287712700029
 31
0.0
  0
LINE
  5
8C56
  8
0
 10
49.20992610525474
 20
205.2287712700029
 30
0.0
 11
49.87752435525474
 21
205.2287712700029
 31
0.0
  0
LINE
  5
8C57
  8
0
 10
49.87752435525474
 20
205.2287712700029
 30
0.0
 11
49.87752435525474
 21
205.5627551700029
 31
0.0
  0
LINE
  5
8C58
  8
0
 10
49.87752435525474
 20
205.5627551700029
 30
0.0
 11
49.20992610525474
 21
205.5627551700029
 31
0.0
  0
LINE
  5
8C59
  8
0
 10
49.20992610525474
 20
205.5627551700029
 30
0.0
 11
49.20992610525474
 21
205.2287712700029
 31
0.0
  0
LINE
  5
8C5A
  8
0
 10
50.54591110525473
 20
205.2287712700029
 30
0.0
 11
51.21313790525474
 21
205.2287712700029
 31
0.0
  0
LINE
  5
8C5B
  8
0
 10
51.21313790525474
 20
205.2287712700029
 30
0.0
 11
51.21313790525474
 21
205.5627551700029
 31
0.0
  0
LINE
  5
8C5C
  8
0
 10
51.21313790525474
 20
205.5627551700029
 30
0.0
 11
50.54591110525473
 21
205.5627551700029
 31
0.0
  0
LINE
  5
8C5D
  8
0
 10
50.54591110525473
 20
205.5627551700029
 30
0.0
 11
50.54591110525473
 21
205.2287712700029
 31
0.0
  0
LINE
  5
8C5E
  8
0
 10
51.54673610525474
 20
205.2287712700029
 30
0.0
 11
51.88072000525474
 21
205.2287712700029
 31
0.0
  0
LINE
  5
8C5F
  8
0
 10
51.88072000525474
 20
205.2287712700029
 30
0.0
 11
51.88072000525474
 21
205.5627551700029
 31
0.0
  0
LINE
  5
8C60
  8
0
 10
51.88072000525474
 20
205.5627551700029
 30
0.0
 11
51.54673610525474
 21
205.5627551700029
 31
0.0
  0
LINE
  5
8C61
  8
0
 10
51.54673610525474
 20
205.5627551700029
 30
0.0
 11
51.54673610525474
 21
205.2287712700029
 31
0.0
  0
LINE
  5
8C62
  8
0
 10
52.21392110525474
 20
205.2287712700029
 30
0.0
 11
53.21550610525475
 21
205.2287712700029
 31
0.0
  0
LINE
  5
8C63
  8
0
 10
53.21550610525475
 20
205.2287712700029
 30
0.0
 11
53.21550610525475
 21
205.5627551700029
 31
0.0
  0
LINE
  5
8C64
  8
0
 10
53.21550610525475
 20
205.5627551700029
 30
0.0
 11
52.21392110525474
 21
205.5627551700029
 31
0.0
  0
LINE
  5
8C65
  8
0
 10
52.21392110525474
 20
205.5627551700029
 30
0.0
 11
52.21392110525474
 21
205.2287712700029
 31
0.0
  0
LINE
  5
8C66
  8
0
 10
42.53437110525473
 20
204.8951312700029
 30
0.0
 11
42.86872645525474
 21
204.8951312700029
 31
0.0
  0
LINE
  5
8C67
  8
0
 10
42.86872645525474
 20
204.8951312700029
 30
0.0
 11
42.86872645525474
 21
205.2291151700029
 31
0.0
  0
LINE
  5
8C68
  8
0
 10
42.86872645525474
 20
205.2291151700029
 30
0.0
 11
42.53437110525473
 21
205.2291151700029
 31
0.0
  0
LINE
  5
8C69
  8
0
 10
42.53437110525473
 20
205.2291151700029
 30
0.0
 11
42.53437110525473
 21
204.8951312700029
 31
0.0
  0
LINE
  5
8C6A
  8
0
 10
43.86950110525476
 20
204.8951312700029
 30
0.0
 11
44.53709840525474
 21
204.8951312700029
 31
0.0
  0
LINE
  5
8C6B
  8
0
 10
44.53709840525474
 20
204.8951312700029
 30
0.0
 11
44.53709840525474
 21
205.2291151700029
 31
0.0
  0
LINE
  5
8C6C
  8
0
 10
44.53709840525474
 20
205.2291151700029
 30
0.0
 11
43.86950110525476
 21
205.2291151700029
 31
0.0
  0
LINE
  5
8C6D
  8
0
 10
43.86950110525476
 20
205.2291151700029
 30
0.0
 11
43.86950110525476
 21
204.8951312700029
 31
0.0
  0
LINE
  5
8C6E
  8
0
 10
44.87108610525473
 20
204.8951312700029
 30
0.0
 11
46.87350560525476
 21
204.8951312700029
 31
0.0
  0
LINE
  5
8C6F
  8
0
 10
46.87350560525476
 20
204.8951312700029
 30
0.0
 11
46.87350560525476
 21
205.2291151700029
 31
0.0
  0
LINE
  5
8C70
  8
0
 10
46.87350560525476
 20
205.2291151700029
 30
0.0
 11
44.87108610525473
 21
205.2291151700029
 31
0.0
  0
LINE
  5
8C71
  8
0
 10
44.87108610525473
 20
205.2291151700029
 30
0.0
 11
44.87108610525473
 21
204.8951312700029
 31
0.0
  0
LINE
  5
8C72
  8
0
 10
48.54274110525472
 20
204.8951312700029
 30
0.0
 11
48.87672595525476
 21
204.8951312700029
 31
0.0
  0
LINE
  5
8C73
  8
0
 10
48.87672595525476
 20
204.8951312700029
 30
0.0
 11
48.87672595525476
 21
205.2291151700029
 31
0.0
  0
LINE
  5
8C74
  8
0
 10
48.87672595525476
 20
205.2291151700029
 30
0.0
 11
48.54274110525472
 21
205.2291151700029
 31
0.0
  0
LINE
  5
8C75
  8
0
 10
48.54274110525472
 20
205.2291151700029
 30
0.0
 11
48.54274110525472
 21
204.8951312700029
 31
0.0
  0
LINE
  5
8C76
  8
0
 10
49.87749110525473
 20
204.8951312700029
 30
0.0
 11
50.54508840525475
 21
204.8951312700029
 31
0.0
  0
LINE
  5
8C77
  8
0
 10
50.54508840525475
 20
204.8951312700029
 30
0.0
 11
50.54508840525475
 21
205.2291151700029
 31
0.0
  0
LINE
  5
8C78
  8
0
 10
50.54508840525475
 20
205.2291151700029
 30
0.0
 11
49.87749110525473
 21
205.2291151700029
 31
0.0
  0
LINE
  5
8C79
  8
0
 10
49.87749110525473
 20
205.2291151700029
 30
0.0
 11
49.87749110525473
 21
204.8951312700029
 31
0.0
  0
LINE
  5
8C7A
  8
0
 10
50.87907610525474
 20
204.8951312700029
 30
0.0
 11
51.88066110525473
 21
204.8951312700029
 31
0.0
  0
LINE
  5
8C7B
  8
0
 10
51.88066110525473
 20
204.8951312700029
 30
0.0
 11
51.88066110525473
 21
205.2291151700029
 31
0.0
  0
LINE
  5
8C7C
  8
0
 10
51.88066110525473
 20
205.2291151700029
 30
0.0
 11
50.87907610525474
 21
205.2291151700029
 31
0.0
  0
LINE
  5
8C7D
  8
0
 10
50.87907610525474
 20
205.2291151700029
 30
0.0
 11
50.87907610525474
 21
204.8951312700029
 31
0.0
  0
LINE
  5
8C7E
  8
0
 10
52.21392110525474
 20
204.8951312700029
 30
0.0
 11
52.88151840525474
 21
204.8951312700029
 31
0.0
  0
LINE
  5
8C7F
  8
0
 10
52.88151840525474
 20
204.8951312700029
 30
0.0
 11
52.88151840525474
 21
205.2291151700029
 31
0.0
  0
LINE
  5
8C80
  8
0
 10
52.88151840525474
 20
205.2291151700029
 30
0.0
 11
52.21392110525474
 21
205.2291151700029
 31
0.0
  0
LINE
  5
8C81
  8
0
 10
52.21392110525474
 20
205.2291151700029
 30
0.0
 11
52.21392110525474
 21
204.8951312700029
 31
0.0
  0
LINE
  5
8C82
  8
0
 10
53.21550610525475
 20
204.8951312700029
 30
0.0
 11
53.54986240525474
 21
204.8951312700029
 31
0.0
  0
LINE
  5
8C83
  8
0
 10
53.54986240525474
 20
204.8951312700029
 30
0.0
 11
53.54986240525474
 21
205.2291151700029
 31
0.0
  0
LINE
  5
8C84
  8
0
 10
53.54986240525474
 20
205.2291151700029
 30
0.0
 11
53.21550610525475
 21
205.2291151700029
 31
0.0
  0
LINE
  5
8C85
  8
0
 10
53.21550610525475
 20
205.2291151700029
 30
0.0
 11
53.21550610525475
 21
204.8951312700029
 31
0.0
  0
LINE
  5
8C86
  8
0
 10
42.53437110525473
 20
204.5611112700029
 30
0.0
 11
43.20196840525472
 21
204.5611112700029
 31
0.0
  0
LINE
  5
8C87
  8
0
 10
43.20196840525472
 20
204.5611112700029
 30
0.0
 11
43.20196840525472
 21
204.8950961200029
 31
0.0
  0
LINE
  5
8C88
  8
0
 10
43.20196840525472
 20
204.8950961200029
 30
0.0
 11
42.53437110525473
 21
204.8950961200029
 31
0.0
  0
LINE
  5
8C89
  8
0
 10
42.53437110525473
 20
204.8950961200029
 30
0.0
 11
42.53437110525473
 21
204.5611112700029
 31
0.0
  0
LINE
  5
8C8A
  8
0
 10
43.53586110525475
 20
204.5611112700029
 30
0.0
 11
43.86984500525475
 21
204.5611112700029
 31
0.0
  0
LINE
  5
8C8B
  8
0
 10
43.86984500525475
 20
204.5611112700029
 30
0.0
 11
43.86984500525475
 21
204.8950961200029
 31
0.0
  0
LINE
  5
8C8C
  8
0
 10
43.86984500525475
 20
204.8950961200029
 30
0.0
 11
43.53586110525475
 21
204.8950961200029
 31
0.0
  0
LINE
  5
8C8D
  8
0
 10
43.53586110525475
 20
204.8950961200029
 30
0.0
 11
43.53586110525475
 21
204.5611112700029
 31
0.0
  0
LINE
  5
8C8E
  8
0
 10
44.20352110525474
 20
204.5611112700029
 30
0.0
 11
46.20594060525474
 21
204.5611112700029
 31
0.0
  0
LINE
  5
8C8F
  8
0
 10
46.20594060525474
 20
204.5611112700029
 30
0.0
 11
46.20594060525474
 21
204.8950961200029
 31
0.0
  0
LINE
  5
8C90
  8
0
 10
46.20594060525474
 20
204.8950961200029
 30
0.0
 11
44.20352110525474
 21
204.8950961200029
 31
0.0
  0
LINE
  5
8C91
  8
0
 10
44.20352110525474
 20
204.8950961200029
 30
0.0
 11
44.20352110525474
 21
204.5611112700029
 31
0.0
  0
LINE
  5
8C92
  8
0
 10
47.54153610525475
 20
204.5611112700029
 30
0.0
 11
48.20913435525472
 21
204.5611112700029
 31
0.0
  0
LINE
  5
8C93
  8
0
 10
48.20913435525472
 20
204.5611112700029
 30
0.0
 11
48.20913435525472
 21
204.8950961200029
 31
0.0
  0
LINE
  5
8C94
  8
0
 10
48.20913435525472
 20
204.8950961200029
 30
0.0
 11
47.54153610525475
 21
204.8950961200029
 31
0.0
  0
LINE
  5
8C95
  8
0
 10
47.54153610525475
 20
204.8950961200029
 30
0.0
 11
47.54153610525475
 21
204.5611112700029
 31
0.0
  0
LINE
  5
8C96
  8
0
 10
48.87666610525474
 20
204.5611112700029
 30
0.0
 11
49.54426340525472
 21
204.5611112700029
 31
0.0
  0
LINE
  5
8C97
  8
0
 10
49.54426340525472
 20
204.5611112700029
 30
0.0
 11
49.54426340525472
 21
204.8950961200029
 31
0.0
  0
LINE
  5
8C98
  8
0
 10
49.54426340525472
 20
204.8950961200029
 30
0.0
 11
48.87666610525474
 21
204.8950961200029
 31
0.0
  0
LINE
  5
8C99
  8
0
 10
48.87666610525474
 20
204.8950961200029
 30
0.0
 11
48.87666610525474
 21
204.5611112700029
 31
0.0
  0
LINE
  5
8C9A
  8
0
 10
50.54591110525473
 20
204.5611112700029
 30
0.0
 11
52.54833060525473
 21
204.5611112700029
 31
0.0
  0
LINE
  5
8C9B
  8
0
 10
52.54833060525473
 20
204.5611112700029
 30
0.0
 11
52.54833060525473
 21
204.8950961200029
 31
0.0
  0
LINE
  5
8C9C
  8
0
 10
52.54833060525473
 20
204.8950961200029
 30
0.0
 11
50.54591110525473
 21
204.8950961200029
 31
0.0
  0
LINE
  5
8C9D
  8
0
 10
50.54591110525473
 20
204.8950961200029
 30
0.0
 11
50.54591110525473
 21
204.5611112700029
 31
0.0
  0
LINE
  5
8C9E
  8
0
 10
45.20510610525474
 20
204.2275662700029
 30
0.0
 11
45.53909095525475
 21
204.2275662700029
 31
0.0
  0
LINE
  5
8C9F
  8
0
 10
45.53909095525475
 20
204.2275662700029
 30
0.0
 11
45.53909095525475
 21
204.5615511200029
 31
0.0
  0
LINE
  5
8CA0
  8
0
 10
45.53909095525475
 20
204.5615511200029
 30
0.0
 11
45.20510610525474
 21
204.5615511200029
 31
0.0
  0
LINE
  5
8CA1
  8
0
 10
45.20510610525474
 20
204.5615511200029
 30
0.0
 11
45.20510610525474
 21
204.2275662700029
 31
0.0
  0
LINE
  5
8CA2
  8
0
 10
46.20593110525473
 20
204.2275662700029
 30
0.0
 11
46.53991500525473
 21
204.2275662700029
 31
0.0
  0
LINE
  5
8CA3
  8
0
 10
46.53991500525473
 20
204.2275662700029
 30
0.0
 11
46.53991500525473
 21
204.5615511200029
 31
0.0
  0
LINE
  5
8CA4
  8
0
 10
46.53991500525473
 20
204.5615511200029
 30
0.0
 11
46.20593110525473
 21
204.5615511200029
 31
0.0
  0
LINE
  5
8CA5
  8
0
 10
46.20593110525473
 20
204.5615511200029
 30
0.0
 11
46.20593110525473
 21
204.2275662700029
 31
0.0
  0
LINE
  5
8CA6
  8
0
 10
46.87349610525473
 20
204.2275662700029
 30
0.0
 11
47.20748095525474
 21
204.2275662700029
 31
0.0
  0
LINE
  5
8CA7
  8
0
 10
47.20748095525474
 20
204.2275662700029
 30
0.0
 11
47.20748095525474
 21
204.5615511200029
 31
0.0
  0
LINE
  5
8CA8
  8
0
 10
47.20748095525474
 20
204.5615511200029
 30
0.0
 11
46.87349610525473
 21
204.5615511200029
 31
0.0
  0
LINE
  5
8CA9
  8
0
 10
46.87349610525473
 20
204.5615511200029
 30
0.0
 11
46.87349610525473
 21
204.2275662700029
 31
0.0
  0
LINE
  5
8CAA
  8
0
 10
47.54153610525475
 20
204.2275662700029
 30
0.0
 11
47.87589145525476
 21
204.2275662700029
 31
0.0
  0
LINE
  5
8CAB
  8
0
 10
47.87589145525476
 20
204.2275662700029
 30
0.0
 11
47.87589145525476
 21
204.5615511200029
 31
0.0
  0
LINE
  5
8CAC
  8
0
 10
47.87589145525476
 20
204.5615511200029
 30
0.0
 11
47.54153610525475
 21
204.5615511200029
 31
0.0
  0
LINE
  5
8CAD
  8
0
 10
47.54153610525475
 20
204.5615511200029
 30
0.0
 11
47.54153610525475
 21
204.2275662700029
 31
0.0
  0
LINE
  5
8CAE
  8
0
 10
48.54274110525472
 20
204.2275662700029
 30
0.0
 11
49.54395560525472
 21
204.2275662700029
 31
0.0
  0
LINE
  5
8CAF
  8
0
 10
49.54395560525472
 20
204.2275662700029
 30
0.0
 11
49.54395560525472
 21
204.5615511200029
 31
0.0
  0
LINE
  5
8CB0
  8
0
 10
49.54395560525472
 20
204.5615511200029
 30
0.0
 11
48.54274110525472
 21
204.5615511200029
 31
0.0
  0
LINE
  5
8CB1
  8
0
 10
48.54274110525472
 20
204.5615511200029
 30
0.0
 11
48.54274110525472
 21
204.2275662700029
 31
0.0
  0
LINE
  5
8CB2
  8
0
 10
49.87749110525473
 20
204.2275662700029
 30
0.0
 11
50.87907610525474
 21
204.2275662700029
 31
0.0
  0
LINE
  5
8CB3
  8
0
 10
50.87907610525474
 20
204.2275662700029
 30
0.0
 11
50.87907610525474
 21
204.5615511200029
 31
0.0
  0
LINE
  5
8CB4
  8
0
 10
50.87907610525474
 20
204.5615511200029
 30
0.0
 11
49.87749110525473
 21
204.5615511200029
 31
0.0
  0
LINE
  5
8CB5
  8
0
 10
49.87749110525473
 20
204.5615511200029
 30
0.0
 11
49.87749110525473
 21
204.2275662700029
 31
0.0
  0
LINE
  5
8CB6
  8
0
 10
51.88066110525473
 20
204.2275662700029
 30
0.0
 11
52.21464595525474
 21
204.2275662700029
 31
0.0
  0
LINE
  5
8CB7
  8
0
 10
52.21464595525474
 20
204.2275662700029
 30
0.0
 11
52.21464595525474
 21
204.5615511200029
 31
0.0
  0
LINE
  5
8CB8
  8
0
 10
52.21464595525474
 20
204.5615511200029
 30
0.0
 11
51.88066110525473
 21
204.5615511200029
 31
0.0
  0
LINE
  5
8CB9
  8
0
 10
51.88066110525473
 20
204.5615511200029
 30
0.0
 11
51.88066110525473
 21
204.2275662700029
 31
0.0
  0
LINE
  5
8CBA
  8
0
 10
52.54832110525473
 20
204.2275662700029
 30
0.0
 11
53.54990610525475
 21
204.2275662700029
 31
0.0
  0
LINE
  5
8CBB
  8
0
 10
53.54990610525475
 20
204.2275662700029
 30
0.0
 11
53.54990610525475
 21
204.5615511200029
 31
0.0
  0
LINE
  5
8CBC
  8
0
 10
53.54990610525475
 20
204.5615511200029
 30
0.0
 11
52.54832110525473
 21
204.5615511200029
 31
0.0
  0
LINE
  5
8CBD
  8
0
 10
52.54832110525473
 20
204.5615511200029
 30
0.0
 11
52.54832110525473
 21
204.2275662700029
 31
0.0
  0
LINE
  5
8CBE
  8
0
 10
42.53437110525473
 20
203.8935462700029
 30
0.0
 11
44.87115260525476
 21
203.8935462700029
 31
0.0
  0
LINE
  5
8CBF
  8
0
 10
44.87115260525476
 20
203.8935462700029
 30
0.0
 11
44.87115260525476
 21
204.2275301700029
 31
0.0
  0
LINE
  5
8CC0
  8
0
 10
44.87115260525476
 20
204.2275301700029
 30
0.0
 11
42.53437110525473
 21
204.2275301700029
 31
0.0
  0
LINE
  5
8CC1
  8
0
 10
42.53437110525473
 20
204.2275301700029
 30
0.0
 11
42.53437110525473
 21
203.8935462700029
 31
0.0
  0
LINE
  5
8CC2
  8
0
 10
46.20593110525473
 20
203.8935462700029
 30
0.0
 11
47.20751610525474
 21
203.8935462700029
 31
0.0
  0
LINE
  5
8CC3
  8
0
 10
47.20751610525474
 20
203.8935462700029
 30
0.0
 11
47.20751610525474
 21
204.2275301700029
 31
0.0
  0
LINE
  5
8CC4
  8
0
 10
47.20751610525474
 20
204.2275301700029
 30
0.0
 11
46.20593110525473
 21
204.2275301700029
 31
0.0
  0
LINE
  5
8CC5
  8
0
 10
46.20593110525473
 20
204.2275301700029
 30
0.0
 11
46.20593110525473
 21
203.8935462700029
 31
0.0
  0
LINE
  5
8CC6
  8
0
 10
47.54153610525475
 20
203.8935462700029
 30
0.0
 11
48.20913435525472
 21
203.8935462700029
 31
0.0
  0
LINE
  5
8CC7
  8
0
 10
48.20913435525472
 20
203.8935462700029
 30
0.0
 11
48.20913435525472
 21
204.2275301700029
 31
0.0
  0
LINE
  5
8CC8
  8
0
 10
48.20913435525472
 20
204.2275301700029
 30
0.0
 11
47.54153610525475
 21
204.2275301700029
 31
0.0
  0
LINE
  5
8CC9
  8
0
 10
47.54153610525475
 20
204.2275301700029
 30
0.0
 11
47.54153610525475
 21
203.8935462700029
 31
0.0
  0
LINE
  5
8CCA
  8
0
 10
48.54274110525472
 20
203.8935462700029
 30
0.0
 11
48.87672595525476
 21
203.8935462700029
 31
0.0
  0
LINE
  5
8CCB
  8
0
 10
48.87672595525476
 20
203.8935462700029
 30
0.0
 11
48.87672595525476
 21
204.2275301700029
 31
0.0
  0
LINE
  5
8CCC
  8
0
 10
48.87672595525476
 20
204.2275301700029
 30
0.0
 11
48.54274110525472
 21
204.2275301700029
 31
0.0
  0
LINE
  5
8CCD
  8
0
 10
48.54274110525472
 20
204.2275301700029
 30
0.0
 11
48.54274110525472
 21
203.8935462700029
 31
0.0
  0
LINE
  5
8CCE
  8
0
 10
49.20992610525474
 20
203.8935462700029
 30
0.0
 11
49.87752435525474
 21
203.8935462700029
 31
0.0
  0
LINE
  5
8CCF
  8
0
 10
49.87752435525474
 20
203.8935462700029
 30
0.0
 11
49.87752435525474
 21
204.2275301700029
 31
0.0
  0
LINE
  5
8CD0
  8
0
 10
49.87752435525474
 20
204.2275301700029
 30
0.0
 11
49.20992610525474
 21
204.2275301700029
 31
0.0
  0
LINE
  5
8CD1
  8
0
 10
49.20992610525474
 20
204.2275301700029
 30
0.0
 11
49.20992610525474
 21
203.8935462700029
 31
0.0
  0
LINE
  5
8CD2
  8
0
 10
50.21151110525474
 20
203.8935462700029
 30
0.0
 11
50.87910840525474
 21
203.8935462700029
 31
0.0
  0
LINE
  5
8CD3
  8
0
 10
50.87910840525474
 20
203.8935462700029
 30
0.0
 11
50.87910840525474
 21
204.2275301700029
 31
0.0
  0
LINE
  5
8CD4
  8
0
 10
50.87910840525474
 20
204.2275301700029
 30
0.0
 11
50.21151110525474
 21
204.2275301700029
 31
0.0
  0
LINE
  5
8CD5
  8
0
 10
50.21151110525474
 20
204.2275301700029
 30
0.0
 11
50.21151110525474
 21
203.8935462700029
 31
0.0
  0
LINE
  5
8CD6
  8
0
 10
51.21309610525475
 20
203.8935462700029
 30
0.0
 11
51.54708000525474
 21
203.8935462700029
 31
0.0
  0
LINE
  5
8CD7
  8
0
 10
51.54708000525474
 20
203.8935462700029
 30
0.0
 11
51.54708000525474
 21
204.2275301700029
 31
0.0
  0
LINE
  5
8CD8
  8
0
 10
51.54708000525474
 20
204.2275301700029
 30
0.0
 11
51.21309610525475
 21
204.2275301700029
 31
0.0
  0
LINE
  5
8CD9
  8
0
 10
51.21309610525475
 20
204.2275301700029
 30
0.0
 11
51.21309610525475
 21
203.8935462700029
 31
0.0
  0
LINE
  5
8CDA
  8
0
 10
51.88066110525473
 20
203.8935462700029
 30
0.0
 11
52.21464595525474
 21
203.8935462700029
 31
0.0
  0
LINE
  5
8CDB
  8
0
 10
52.21464595525474
 20
203.8935462700029
 30
0.0
 11
52.21464595525474
 21
204.2275301700029
 31
0.0
  0
LINE
  5
8CDC
  8
0
 10
52.21464595525474
 20
204.2275301700029
 30
0.0
 11
51.88066110525473
 21
204.2275301700029
 31
0.0
  0
LINE
  5
8CDD
  8
0
 10
51.88066110525473
 20
204.2275301700029
 30
0.0
 11
51.88066110525473
 21
203.8935462700029
 31
0.0
  0
LINE
  5
8CDE
  8
0
 10
52.54832110525473
 20
203.8935462700029
 30
0.0
 11
53.21554695525475
 21
203.8935462700029
 31
0.0
  0
LINE
  5
8CDF
  8
0
 10
53.21554695525475
 20
203.8935462700029
 30
0.0
 11
53.21554695525475
 21
204.2275301700029
 31
0.0
  0
LINE
  5
8CE0
  8
0
 10
53.21554695525475
 20
204.2275301700029
 30
0.0
 11
52.54832110525473
 21
204.2275301700029
 31
0.0
  0
LINE
  5
8CE1
  8
0
 10
52.54832110525473
 20
204.2275301700029
 30
0.0
 11
52.54832110525473
 21
203.8935462700029
 31
0.0
  0
LINE
  5
8CE2
  8
0
 10
42.53437110525473
 20
203.5602862700029
 30
0.0
 11
42.86872645525474
 21
203.5602862700029
 31
0.0
  0
LINE
  5
8CE3
  8
0
 10
42.86872645525474
 20
203.5602862700029
 30
0.0
 11
42.86872645525474
 21
203.8942701700029
 31
0.0
  0
LINE
  5
8CE4
  8
0
 10
42.86872645525474
 20
203.8942701700029
 30
0.0
 11
42.53437110525473
 21
203.8942701700029
 31
0.0
  0
LINE
  5
8CE5
  8
0
 10
42.53437110525473
 20
203.8942701700029
 30
0.0
 11
42.53437110525473
 21
203.5602862700029
 31
0.0
  0
LINE
  5
8CE6
  8
0
 10
44.53744610525473
 20
203.5602862700029
 30
0.0
 11
44.87143000525472
 21
203.5602862700029
 31
0.0
  0
LINE
  5
8CE7
  8
0
 10
44.87143000525472
 20
203.5602862700029
 30
0.0
 11
44.87143000525472
 21
203.8942701700029
 31
0.0
  0
LINE
  5
8CE8
  8
0
 10
44.87143000525472
 20
203.8942701700029
 30
0.0
 11
44.53744610525473
 21
203.8942701700029
 31
0.0
  0
LINE
  5
8CE9
  8
0
 10
44.53744610525473
 20
203.8942701700029
 30
0.0
 11
44.53744610525473
 21
203.5602862700029
 31
0.0
  0
LINE
  5
8CEA
  8
0
 10
45.53874610525475
 20
203.5602862700029
 30
0.0
 11
46.53996060525475
 21
203.5602862700029
 31
0.0
  0
LINE
  5
8CEB
  8
0
 10
46.53996060525475
 20
203.5602862700029
 30
0.0
 11
46.53996060525475
 21
203.8942701700029
 31
0.0
  0
LINE
  5
8CEC
  8
0
 10
46.53996060525475
 20
203.8942701700029
 30
0.0
 11
45.53874610525475
 21
203.8942701700029
 31
0.0
  0
LINE
  5
8CED
  8
0
 10
45.53874610525475
 20
203.8942701700029
 30
0.0
 11
45.53874610525475
 21
203.5602862700029
 31
0.0
  0
LINE
  5
8CEE
  8
0
 10
47.54153610525475
 20
203.5602862700029
 30
0.0
 11
47.87589145525476
 21
203.5602862700029
 31
0.0
  0
LINE
  5
8CEF
  8
0
 10
47.87589145525476
 20
203.5602862700029
 30
0.0
 11
47.87589145525476
 21
203.8942701700029
 31
0.0
  0
LINE
  5
8CF0
  8
0
 10
47.87589145525476
 20
203.8942701700029
 30
0.0
 11
47.54153610525475
 21
203.8942701700029
 31
0.0
  0
LINE
  5
8CF1
  8
0
 10
47.54153610525475
 20
203.8942701700029
 30
0.0
 11
47.54153610525475
 21
203.5602862700029
 31
0.0
  0
LINE
  5
8CF2
  8
0
 10
49.20992610525474
 20
203.5602862700029
 30
0.0
 11
49.54428145525475
 21
203.5602862700029
 31
0.0
  0
LINE
  5
8CF3
  8
0
 10
49.54428145525475
 20
203.5602862700029
 30
0.0
 11
49.54428145525475
 21
203.8942701700029
 31
0.0
  0
LINE
  5
8CF4
  8
0
 10
49.54428145525475
 20
203.8942701700029
 30
0.0
 11
49.20992610525474
 21
203.8942701700029
 31
0.0
  0
LINE
  5
8CF5
  8
0
 10
49.20992610525474
 20
203.8942701700029
 30
0.0
 11
49.20992610525474
 21
203.5602862700029
 31
0.0
  0
LINE
  5
8CF6
  8
0
 10
50.21151110525474
 20
203.5602862700029
 30
0.0
 11
50.87910840525474
 21
203.5602862700029
 31
0.0
  0
LINE
  5
8CF7
  8
0
 10
50.87910840525474
 20
203.5602862700029
 30
0.0
 11
50.87910840525474
 21
203.8942701700029
 31
0.0
  0
LINE
  5
8CF8
  8
0
 10
50.87910840525474
 20
203.8942701700029
 30
0.0
 11
50.21151110525474
 21
203.8942701700029
 31
0.0
  0
LINE
  5
8CF9
  8
0
 10
50.21151110525474
 20
203.8942701700029
 30
0.0
 11
50.21151110525474
 21
203.5602862700029
 31
0.0
  0
LINE
  5
8CFA
  8
0
 10
51.88066110525473
 20
203.5602862700029
 30
0.0
 11
52.88224610525474
 21
203.5602862700029
 31
0.0
  0
LINE
  5
8CFB
  8
0
 10
52.88224610525474
 20
203.5602862700029
 30
0.0
 11
52.88224610525474
 21
203.8942701700029
 31
0.0
  0
LINE
  5
8CFC
  8
0
 10
52.88224610525474
 20
203.8942701700029
 30
0.0
 11
51.88066110525473
 21
203.8942701700029
 31
0.0
  0
LINE
  5
8CFD
  8
0
 10
51.88066110525473
 20
203.8942701700029
 30
0.0
 11
51.88066110525473
 21
203.5602862700029
 31
0.0
  0
LINE
  5
8CFE
  8
0
 10
53.21550610525475
 20
203.5602862700029
 30
0.0
 11
53.54986240525474
 21
203.5602862700029
 31
0.0
  0
LINE
  5
8CFF
  8
0
 10
53.54986240525474
 20
203.5602862700029
 30
0.0
 11
53.54986240525474
 21
203.8942701700029
 31
0.0
  0
LINE
  5
8D00
  8
0
 10
53.54986240525474
 20
203.8942701700029
 30
0.0
 11
53.21550610525475
 21
203.8942701700029
 31
0.0
  0
LINE
  5
8D01
  8
0
 10
53.21550610525475
 20
203.8942701700029
 30
0.0
 11
53.21550610525475
 21
203.5602862700029
 31
0.0
  0
LINE
  5
8D02
  8
0
 10
42.53437110525473
 20
203.2262662700029
 30
0.0
 11
42.86872645525474
 21
203.2262662700029
 31
0.0
  0
LINE
  5
8D03
  8
0
 10
42.86872645525474
 20
203.2262662700029
 30
0.0
 11
42.86872645525474
 21
203.5602511200029
 31
0.0
  0
LINE
  5
8D04
  8
0
 10
42.86872645525474
 20
203.5602511200029
 30
0.0
 11
42.53437110525473
 21
203.5602511200029
 31
0.0
  0
LINE
  5
8D05
  8
0
 10
42.53437110525473
 20
203.5602511200029
 30
0.0
 11
42.53437110525473
 21
203.2262662700029
 31
0.0
  0
LINE
  5
8D06
  8
0
 10
43.20193610525473
 20
203.2262662700029
 30
0.0
 11
44.20352110525474
 21
203.2262662700029
 31
0.0
  0
LINE
  5
8D07
  8
0
 10
44.20352110525474
 20
203.2262662700029
 30
0.0
 11
44.20352110525474
 21
203.5602511200029
 31
0.0
  0
LINE
  5
8D08
  8
0
 10
44.20352110525474
 20
203.5602511200029
 30
0.0
 11
43.20193610525473
 21
203.5602511200029
 31
0.0
  0
LINE
  5
8D09
  8
0
 10
43.20193610525473
 20
203.5602511200029
 30
0.0
 11
43.20193610525473
 21
203.2262662700029
 31
0.0
  0
LINE
  5
8D0A
  8
0
 10
44.53744610525473
 20
203.2262662700029
 30
0.0
 11
44.87143000525472
 21
203.2262662700029
 31
0.0
  0
LINE
  5
8D0B
  8
0
 10
44.87143000525472
 20
203.2262662700029
 30
0.0
 11
44.87143000525472
 21
203.5602511200029
 31
0.0
  0
LINE
  5
8D0C
  8
0
 10
44.87143000525472
 20
203.5602511200029
 30
0.0
 11
44.53744610525473
 21
203.5602511200029
 31
0.0
  0
LINE
  5
8D0D
  8
0
 10
44.53744610525473
 20
203.5602511200029
 30
0.0
 11
44.53744610525473
 21
203.2262662700029
 31
0.0
  0
LINE
  5
8D0E
  8
0
 10
45.87267110525474
 20
203.2262662700029
 30
0.0
 11
46.53989695525473
 21
203.2262662700029
 31
0.0
  0
LINE
  5
8D0F
  8
0
 10
46.53989695525473
 20
203.2262662700029
 30
0.0
 11
46.53989695525473
 21
203.5602511200029
 31
0.0
  0
LINE
  5
8D10
  8
0
 10
46.53989695525473
 20
203.5602511200029
 30
0.0
 11
45.87267110525474
 21
203.5602511200029
 31
0.0
  0
LINE
  5
8D11
  8
0
 10
45.87267110525474
 20
203.5602511200029
 30
0.0
 11
45.87267110525474
 21
203.2262662700029
 31
0.0
  0
LINE
  5
8D12
  8
0
 10
46.87349610525473
 20
203.2262662700029
 30
0.0
 11
47.54109435525476
 21
203.2262662700029
 31
0.0
  0
LINE
  5
8D13
  8
0
 10
47.54109435525476
 20
203.2262662700029
 30
0.0
 11
47.54109435525476
 21
203.5602511200029
 31
0.0
  0
LINE
  5
8D14
  8
0
 10
47.54109435525476
 20
203.5602511200029
 30
0.0
 11
46.87349610525473
 21
203.5602511200029
 31
0.0
  0
LINE
  5
8D15
  8
0
 10
46.87349610525473
 20
203.5602511200029
 30
0.0
 11
46.87349610525473
 21
203.2262662700029
 31
0.0
  0
LINE
  5
8D16
  8
0
 10
48.54274110525472
 20
203.2262662700029
 30
0.0
 11
49.20996790525476
 21
203.2262662700029
 31
0.0
  0
LINE
  5
8D17
  8
0
 10
49.20996790525476
 20
203.2262662700029
 30
0.0
 11
49.20996790525476
 21
203.5602511200029
 31
0.0
  0
LINE
  5
8D18
  8
0
 10
49.20996790525476
 20
203.5602511200029
 30
0.0
 11
48.54274110525472
 21
203.5602511200029
 31
0.0
  0
LINE
  5
8D19
  8
0
 10
48.54274110525472
 20
203.5602511200029
 30
0.0
 11
48.54274110525472
 21
203.2262662700029
 31
0.0
  0
LINE
  5
8D1A
  8
0
 10
49.54432610525475
 20
203.2262662700029
 30
0.0
 11
49.87831095525473
 21
203.2262662700029
 31
0.0
  0
LINE
  5
8D1B
  8
0
 10
49.87831095525473
 20
203.2262662700029
 30
0.0
 11
49.87831095525473
 21
203.5602511200029
 31
0.0
  0
LINE
  5
8D1C
  8
0
 10
49.87831095525473
 20
203.5602511200029
 30
0.0
 11
49.54432610525475
 21
203.5602511200029
 31
0.0
  0
LINE
  5
8D1D
  8
0
 10
49.54432610525475
 20
203.5602511200029
 30
0.0
 11
49.54432610525475
 21
203.2262662700029
 31
0.0
  0
LINE
  5
8D1E
  8
0
 10
50.54591110525473
 20
203.2262662700029
 30
0.0
 11
52.54833060525473
 21
203.2262662700029
 31
0.0
  0
LINE
  5
8D1F
  8
0
 10
52.54833060525473
 20
203.2262662700029
 30
0.0
 11
52.54833060525473
 21
203.5602511200029
 31
0.0
  0
LINE
  5
8D20
  8
0
 10
52.54833060525473
 20
203.5602511200029
 30
0.0
 11
50.54591110525473
 21
203.5602511200029
 31
0.0
  0
LINE
  5
8D21
  8
0
 10
50.54591110525473
 20
203.5602511200029
 30
0.0
 11
50.54591110525473
 21
203.2262662700029
 31
0.0
  0
LINE
  5
8D22
  8
0
 10
42.53437110525473
 20
202.8919612700029
 30
0.0
 11
42.86872645525474
 21
202.8919612700029
 31
0.0
  0
LINE
  5
8D23
  8
0
 10
42.86872645525474
 20
202.8919612700029
 30
0.0
 11
42.86872645525474
 21
203.2263166200029
 31
0.0
  0
LINE
  5
8D24
  8
0
 10
42.86872645525474
 20
203.2263166200029
 30
0.0
 11
42.53437110525473
 21
203.2263166200029
 31
0.0
  0
LINE
  5
8D25
  8
0
 10
42.53437110525473
 20
203.2263166200029
 30
0.0
 11
42.53437110525473
 21
202.8919612700029
 31
0.0
  0
LINE
  5
8D26
  8
0
 10
43.20193610525473
 20
202.8919612700029
 30
0.0
 11
44.20352110525474
 21
202.8919612700029
 31
0.0
  0
LINE
  5
8D27
  8
0
 10
44.20352110525474
 20
202.8919612700029
 30
0.0
 11
44.20352110525474
 21
203.2263166200029
 31
0.0
  0
LINE
  5
8D28
  8
0
 10
44.20352110525474
 20
203.2263166200029
 30
0.0
 11
43.20193610525473
 21
203.2263166200029
 31
0.0
  0
LINE
  5
8D29
  8
0
 10
43.20193610525473
 20
203.2263166200029
 30
0.0
 11
43.20193610525473
 21
202.8919612700029
 31
0.0
  0
LINE
  5
8D2A
  8
0
 10
44.53744610525473
 20
202.8919612700029
 30
0.0
 11
44.87143000525472
 21
202.8919612700029
 31
0.0
  0
LINE
  5
8D2B
  8
0
 10
44.87143000525472
 20
202.8919612700029
 30
0.0
 11
44.87143000525472
 21
203.2263166200029
 31
0.0
  0
LINE
  5
8D2C
  8
0
 10
44.87143000525472
 20
203.2263166200029
 30
0.0
 11
44.53744610525473
 21
203.2263166200029
 31
0.0
  0
LINE
  5
8D2D
  8
0
 10
44.53744610525473
 20
203.2263166200029
 30
0.0
 11
44.53744610525473
 21
202.8919612700029
 31
0.0
  0
LINE
  5
8D2E
  8
0
 10
45.53874610525475
 20
202.8919612700029
 30
0.0
 11
46.87357210525474
 21
202.8919612700029
 31
0.0
  0
LINE
  5
8D2F
  8
0
 10
46.87357210525474
 20
202.8919612700029
 30
0.0
 11
46.87357210525474
 21
203.2263166200029
 31
0.0
  0
LINE
  5
8D30
  8
0
 10
46.87357210525474
 20
203.2263166200029
 30
0.0
 11
45.53874610525475
 21
203.2263166200029
 31
0.0
  0
LINE
  5
8D31
  8
0
 10
45.53874610525475
 20
203.2263166200029
 30
0.0
 11
45.53874610525475
 21
202.8919612700029
 31
0.0
  0
LINE
  5
8D32
  8
0
 10
47.20751610525474
 20
202.8919612700029
 30
0.0
 11
47.54150000525476
 21
202.8919612700029
 31
0.0
  0
LINE
  5
8D33
  8
0
 10
47.54150000525476
 20
202.8919612700029
 30
0.0
 11
47.54150000525476
 21
203.2263166200029
 31
0.0
  0
LINE
  5
8D34
  8
0
 10
47.54150000525476
 20
203.2263166200029
 30
0.0
 11
47.20751610525474
 21
203.2263166200029
 31
0.0
  0
LINE
  5
8D35
  8
0
 10
47.20751610525474
 20
203.2263166200029
 30
0.0
 11
47.20751610525474
 21
202.8919612700029
 31
0.0
  0
LINE
  5
8D36
  8
0
 10
47.87508110525474
 20
202.8919612700029
 30
0.0
 11
48.20906595525474
 21
202.8919612700029
 31
0.0
  0
LINE
  5
8D37
  8
0
 10
48.20906595525474
 20
202.8919612700029
 30
0.0
 11
48.20906595525474
 21
203.2263166200029
 31
0.0
  0
LINE
  5
8D38
  8
0
 10
48.20906595525474
 20
203.2263166200029
 30
0.0
 11
47.87508110525474
 21
203.2263166200029
 31
0.0
  0
LINE
  5
8D39
  8
0
 10
47.87508110525474
 20
203.2263166200029
 30
0.0
 11
47.87508110525474
 21
202.8919612700029
 31
0.0
  0
LINE
  5
8D3A
  8
0
 10
49.20992610525474
 20
202.8919612700029
 30
0.0
 11
49.54428145525475
 21
202.8919612700029
 31
0.0
  0
LINE
  5
8D3B
  8
0
 10
49.54428145525475
 20
202.8919612700029
 30
0.0
 11
49.54428145525475
 21
203.2263166200029
 31
0.0
  0
LINE
  5
8D3C
  8
0
 10
49.54428145525475
 20
203.2263166200029
 30
0.0
 11
49.20992610525474
 21
203.2263166200029
 31
0.0
  0
LINE
  5
8D3D
  8
0
 10
49.20992610525474
 20
203.2263166200029
 30
0.0
 11
49.20992610525474
 21
202.8919612700029
 31
0.0
  0
LINE
  5
8D3E
  8
0
 10
49.87749110525473
 20
202.8919612700029
 30
0.0
 11
50.54508840525475
 21
202.8919612700029
 31
0.0
  0
LINE
  5
8D3F
  8
0
 10
50.54508840525475
 20
202.8919612700029
 30
0.0
 11
50.54508840525475
 21
203.2263166200029
 31
0.0
  0
LINE
  5
8D40
  8
0
 10
50.54508840525475
 20
203.2263166200029
 30
0.0
 11
49.87749110525473
 21
203.2263166200029
 31
0.0
  0
LINE
  5
8D41
  8
0
 10
49.87749110525473
 20
203.2263166200029
 30
0.0
 11
49.87749110525473
 21
202.8919612700029
 31
0.0
  0
LINE
  5
8D42
  8
0
 10
50.87907610525474
 20
202.8919612700029
 30
0.0
 11
51.21306095525475
 21
202.8919612700029
 31
0.0
  0
LINE
  5
8D43
  8
0
 10
51.21306095525475
 20
202.8919612700029
 30
0.0
 11
51.21306095525475
 21
203.2263166200029
 31
0.0
  0
LINE
  5
8D44
  8
0
 10
51.21306095525475
 20
203.2263166200029
 30
0.0
 11
50.87907610525474
 21
203.2263166200029
 31
0.0
  0
LINE
  5
8D45
  8
0
 10
50.87907610525474
 20
203.2263166200029
 30
0.0
 11
50.87907610525474
 21
202.8919612700029
 31
0.0
  0
LINE
  5
8D46
  8
0
 10
51.54673610525474
 20
202.8919612700029
 30
0.0
 11
52.21396290525475
 21
202.8919612700029
 31
0.0
  0
LINE
  5
8D47
  8
0
 10
52.21396290525475
 20
202.8919612700029
 30
0.0
 11
52.21396290525475
 21
203.2263166200029
 31
0.0
  0
LINE
  5
8D48
  8
0
 10
52.21396290525475
 20
203.2263166200029
 30
0.0
 11
51.54673610525474
 21
203.2263166200029
 31
0.0
  0
LINE
  5
8D49
  8
0
 10
51.54673610525474
 20
203.2263166200029
 30
0.0
 11
51.54673610525474
 21
202.8919612700029
 31
0.0
  0
LINE
  5
8D4A
  8
0
 10
52.54832110525473
 20
202.8919612700029
 30
0.0
 11
52.88230500525474
 21
202.8919612700029
 31
0.0
  0
LINE
  5
8D4B
  8
0
 10
52.88230500525474
 20
202.8919612700029
 30
0.0
 11
52.88230500525474
 21
203.2263166200029
 31
0.0
  0
LINE
  5
8D4C
  8
0
 10
52.88230500525474
 20
203.2263166200029
 30
0.0
 11
52.54832110525473
 21
203.2263166200029
 31
0.0
  0
LINE
  5
8D4D
  8
0
 10
52.54832110525473
 20
203.2263166200029
 30
0.0
 11
52.54832110525473
 21
202.8919612700029
 31
0.0
  0
LINE
  5
8D4E
  8
0
 10
53.21550610525475
 20
202.8919612700029
 30
0.0
 11
53.54986240525474
 21
202.8919612700029
 31
0.0
  0
LINE
  5
8D4F
  8
0
 10
53.54986240525474
 20
202.8919612700029
 30
0.0
 11
53.54986240525474
 21
203.2263166200029
 31
0.0
  0
LINE
  5
8D50
  8
0
 10
53.54986240525474
 20
203.2263166200029
 30
0.0
 11
53.21550610525475
 21
203.2263166200029
 31
0.0
  0
LINE
  5
8D51
  8
0
 10
53.21550610525475
 20
203.2263166200029
 30
0.0
 11
53.21550610525475
 21
202.8919612700029
 31
0.0
  0
LINE
  5
8D52
  8
0
 10
42.53437110525473
 20
202.5587012700029
 30
0.0
 11
42.86872645525474
 21
202.5587012700029
 31
0.0
  0
LINE
  5
8D53
  8
0
 10
42.86872645525474
 20
202.5587012700029
 30
0.0
 11
42.86872645525474
 21
202.8926851700029
 31
0.0
  0
LINE
  5
8D54
  8
0
 10
42.86872645525474
 20
202.8926851700029
 30
0.0
 11
42.53437110525473
 21
202.8926851700029
 31
0.0
  0
LINE
  5
8D55
  8
0
 10
42.53437110525473
 20
202.8926851700029
 30
0.0
 11
42.53437110525473
 21
202.5587012700029
 31
0.0
  0
LINE
  5
8D56
  8
0
 10
43.20193610525473
 20
202.5587012700029
 30
0.0
 11
44.20352110525474
 21
202.5587012700029
 31
0.0
  0
LINE
  5
8D57
  8
0
 10
44.20352110525474
 20
202.5587012700029
 30
0.0
 11
44.20352110525474
 21
202.8926851700029
 31
0.0
  0
LINE
  5
8D58
  8
0
 10
44.20352110525474
 20
202.8926851700029
 30
0.0
 11
43.20193610525473
 21
202.8926851700029
 31
0.0
  0
LINE
  5
8D59
  8
0
 10
43.20193610525473
 20
202.8926851700029
 30
0.0
 11
43.20193610525473
 21
202.5587012700029
 31
0.0
  0
LINE
  5
8D5A
  8
0
 10
44.53744610525473
 20
202.5587012700029
 30
0.0
 11
44.87143000525472
 21
202.5587012700029
 31
0.0
  0
LINE
  5
8D5B
  8
0
 10
44.87143000525472
 20
202.5587012700029
 30
0.0
 11
44.87143000525472
 21
202.8926851700029
 31
0.0
  0
LINE
  5
8D5C
  8
0
 10
44.87143000525472
 20
202.8926851700029
 30
0.0
 11
44.53744610525473
 21
202.8926851700029
 31
0.0
  0
LINE
  5
8D5D
  8
0
 10
44.53744610525473
 20
202.8926851700029
 30
0.0
 11
44.53744610525473
 21
202.5587012700029
 31
0.0
  0
LINE
  5
8D5E
  8
0
 10
45.87267110525474
 20
202.5587012700029
 30
0.0
 11
47.20749710525473
 21
202.5587012700029
 31
0.0
  0
LINE
  5
8D5F
  8
0
 10
47.20749710525473
 20
202.5587012700029
 30
0.0
 11
47.20749710525473
 21
202.8926851700029
 31
0.0
  0
LINE
  5
8D60
  8
0
 10
47.20749710525473
 20
202.8926851700029
 30
0.0
 11
45.87267110525474
 21
202.8926851700029
 31
0.0
  0
LINE
  5
8D61
  8
0
 10
45.87267110525474
 20
202.8926851700029
 30
0.0
 11
45.87267110525474
 21
202.5587012700029
 31
0.0
  0
LINE
  5
8D62
  8
0
 10
47.87508110525474
 20
202.5587012700029
 30
0.0
 11
48.20906595525474
 21
202.5587012700029
 31
0.0
  0
LINE
  5
8D63
  8
0
 10
48.20906595525474
 20
202.5587012700029
 30
0.0
 11
48.20906595525474
 21
202.8926851700029
 31
0.0
  0
LINE
  5
8D64
  8
0
 10
48.20906595525474
 20
202.8926851700029
 30
0.0
 11
47.87508110525474
 21
202.8926851700029
 31
0.0
  0
LINE
  5
8D65
  8
0
 10
47.87508110525474
 20
202.8926851700029
 30
0.0
 11
47.87508110525474
 21
202.5587012700029
 31
0.0
  0
LINE
  5
8D66
  8
0
 10
48.54274110525472
 20
202.5587012700029
 30
0.0
 11
48.87672595525476
 21
202.5587012700029
 31
0.0
  0
LINE
  5
8D67
  8
0
 10
48.87672595525476
 20
202.5587012700029
 30
0.0
 11
48.87672595525476
 21
202.8926851700029
 31
0.0
  0
LINE
  5
8D68
  8
0
 10
48.87672595525476
 20
202.8926851700029
 30
0.0
 11
48.54274110525472
 21
202.8926851700029
 31
0.0
  0
LINE
  5
8D69
  8
0
 10
48.54274110525472
 20
202.8926851700029
 30
0.0
 11
48.54274110525472
 21
202.5587012700029
 31
0.0
  0
LINE
  5
8D6A
  8
0
 10
49.20992610525474
 20
202.5587012700029
 30
0.0
 11
49.54428145525475
 21
202.5587012700029
 31
0.0
  0
LINE
  5
8D6B
  8
0
 10
49.54428145525475
 20
202.5587012700029
 30
0.0
 11
49.54428145525475
 21
202.8926851700029
 31
0.0
  0
LINE
  5
8D6C
  8
0
 10
49.54428145525475
 20
202.8926851700029
 30
0.0
 11
49.20992610525474
 21
202.8926851700029
 31
0.0
  0
LINE
  5
8D6D
  8
0
 10
49.20992610525474
 20
202.8926851700029
 30
0.0
 11
49.20992610525474
 21
202.5587012700029
 31
0.0
  0
LINE
  5
8D6E
  8
0
 10
49.87749110525473
 20
202.5587012700029
 30
0.0
 11
50.21147500525474
 21
202.5587012700029
 31
0.0
  0
LINE
  5
8D6F
  8
0
 10
50.21147500525474
 20
202.5587012700029
 30
0.0
 11
50.21147500525474
 21
202.8926851700029
 31
0.0
  0
LINE
  5
8D70
  8
0
 10
50.21147500525474
 20
202.8926851700029
 30
0.0
 11
49.87749110525473
 21
202.8926851700029
 31
0.0
  0
LINE
  5
8D71
  8
0
 10
49.87749110525473
 20
202.8926851700029
 30
0.0
 11
49.87749110525473
 21
202.5587012700029
 31
0.0
  0
LINE
  5
8D72
  8
0
 10
50.54591110525473
 20
202.5587012700029
 30
0.0
 11
50.87989595525474
 21
202.5587012700029
 31
0.0
  0
LINE
  5
8D73
  8
0
 10
50.87989595525474
 20
202.5587012700029
 30
0.0
 11
50.87989595525474
 21
202.8926851700029
 31
0.0
  0
LINE
  5
8D74
  8
0
 10
50.87989595525474
 20
202.8926851700029
 30
0.0
 11
50.54591110525473
 21
202.8926851700029
 31
0.0
  0
LINE
  5
8D75
  8
0
 10
50.54591110525473
 20
202.8926851700029
 30
0.0
 11
50.54591110525473
 21
202.5587012700029
 31
0.0
  0
LINE
  5
8D76
  8
0
 10
51.54673610525474
 20
202.5587012700029
 30
0.0
 11
52.21396290525475
 21
202.5587012700029
 31
0.0
  0
LINE
  5
8D77
  8
0
 10
52.21396290525475
 20
202.5587012700029
 30
0.0
 11
52.21396290525475
 21
202.8926851700029
 31
0.0
  0
LINE
  5
8D78
  8
0
 10
52.21396290525475
 20
202.8926851700029
 30
0.0
 11
51.54673610525474
 21
202.8926851700029
 31
0.0
  0
LINE
  5
8D79
  8
0
 10
51.54673610525474
 20
202.8926851700029
 30
0.0
 11
51.54673610525474
 21
202.5587012700029
 31
0.0
  0
LINE
  5
8D7A
  8
0
 10
52.88158110525474
 20
202.5587012700029
 30
0.0
 11
53.54917840525475
 21
202.5587012700029
 31
0.0
  0
LINE
  5
8D7B
  8
0
 10
53.54917840525475
 20
202.5587012700029
 30
0.0
 11
53.54917840525475
 21
202.8926851700029
 31
0.0
  0
LINE
  5
8D7C
  8
0
 10
53.54917840525475
 20
202.8926851700029
 30
0.0
 11
52.88158110525474
 21
202.8926851700029
 31
0.0
  0
LINE
  5
8D7D
  8
0
 10
52.88158110525474
 20
202.8926851700029
 30
0.0
 11
52.88158110525474
 21
202.5587012700029
 31
0.0
  0
LINE
  5
8D7E
  8
0
 10
42.53437110525473
 20
202.2247762700029
 30
0.0
 11
42.86872645525474
 21
202.2247762700029
 31
0.0
  0
LINE
  5
8D7F
  8
0
 10
42.86872645525474
 20
202.2247762700029
 30
0.0
 11
42.86872645525474
 21
202.5587611200029
 31
0.0
  0
LINE
  5
8D80
  8
0
 10
42.86872645525474
 20
202.5587611200029
 30
0.0
 11
42.53437110525473
 21
202.5587611200029
 31
0.0
  0
LINE
  5
8D81
  8
0
 10
42.53437110525473
 20
202.5587611200029
 30
0.0
 11
42.53437110525473
 21
202.2247762700029
 31
0.0
  0
LINE
  5
8D82
  8
0
 10
44.53744610525473
 20
202.2247762700029
 30
0.0
 11
44.87143000525472
 21
202.2247762700029
 31
0.0
  0
LINE
  5
8D83
  8
0
 10
44.87143000525472
 20
202.2247762700029
 30
0.0
 11
44.87143000525472
 21
202.5587611200029
 31
0.0
  0
LINE
  5
8D84
  8
0
 10
44.87143000525472
 20
202.5587611200029
 30
0.0
 11
44.53744610525473
 21
202.5587611200029
 31
0.0
  0
LINE
  5
8D85
  8
0
 10
44.53744610525473
 20
202.5587611200029
 30
0.0
 11
44.53744610525473
 21
202.2247762700029
 31
0.0
  0
LINE
  5
8D86
  8
0
 10
45.87267110525474
 20
202.2247762700029
 30
0.0
 11
46.53989695525473
 21
202.2247762700029
 31
0.0
  0
LINE
  5
8D87
  8
0
 10
46.53989695525473
 20
202.2247762700029
 30
0.0
 11
46.53989695525473
 21
202.5587611200029
 31
0.0
  0
LINE
  5
8D88
  8
0
 10
46.53989695525473
 20
202.5587611200029
 30
0.0
 11
45.87267110525474
 21
202.5587611200029
 31
0.0
  0
LINE
  5
8D89
  8
0
 10
45.87267110525474
 20
202.5587611200029
 30
0.0
 11
45.87267110525474
 21
202.2247762700029
 31
0.0
  0
LINE
  5
8D8A
  8
0
 10
47.20751610525474
 20
202.2247762700029
 30
0.0
 11
48.20910110525475
 21
202.2247762700029
 31
0.0
  0
LINE
  5
8D8B
  8
0
 10
48.20910110525475
 20
202.2247762700029
 30
0.0
 11
48.20910110525475
 21
202.5587611200029
 31
0.0
  0
LINE
  5
8D8C
  8
0
 10
48.20910110525475
 20
202.5587611200029
 30
0.0
 11
47.20751610525474
 21
202.5587611200029
 31
0.0
  0
LINE
  5
8D8D
  8
0
 10
47.20751610525474
 20
202.5587611200029
 30
0.0
 11
47.20751610525474
 21
202.2247762700029
 31
0.0
  0
LINE
  5
8D8E
  8
0
 10
48.87666610525474
 20
202.2247762700029
 30
0.0
 11
49.54426340525472
 21
202.2247762700029
 31
0.0
  0
LINE
  5
8D8F
  8
0
 10
49.54426340525472
 20
202.2247762700029
 30
0.0
 11
49.54426340525472
 21
202.5587611200029
 31
0.0
  0
LINE
  5
8D90
  8
0
 10
49.54426340525472
 20
202.5587611200029
 30
0.0
 11
48.87666610525474
 21
202.5587611200029
 31
0.0
  0
LINE
  5
8D91
  8
0
 10
48.87666610525474
 20
202.5587611200029
 30
0.0
 11
48.87666610525474
 21
202.2247762700029
 31
0.0
  0
LINE
  5
8D92
  8
0
 10
51.54673610525474
 20
202.2247762700029
 30
0.0
 11
52.88156210525473
 21
202.2247762700029
 31
0.0
  0
LINE
  5
8D93
  8
0
 10
52.88156210525473
 20
202.2247762700029
 30
0.0
 11
52.88156210525473
 21
202.5587611200029
 31
0.0
  0
LINE
  5
8D94
  8
0
 10
52.88156210525473
 20
202.5587611200029
 30
0.0
 11
51.54673610525474
 21
202.5587611200029
 31
0.0
  0
LINE
  5
8D95
  8
0
 10
51.54673610525474
 20
202.5587611200029
 30
0.0
 11
51.54673610525474
 21
202.2247762700029
 31
0.0
  0
LINE
  5
8D96
  8
0
 10
42.53437110525473
 20
201.8911362700029
 30
0.0
 11
44.87115260525476
 21
201.8911362700029
 31
0.0
  0
LINE
  5
8D97
  8
0
 10
44.87115260525476
 20
201.8911362700029
 30
0.0
 11
44.87115260525476
 21
202.2251211200029
 31
0.0
  0
LINE
  5
8D98
  8
0
 10
44.87115260525476
 20
202.2251211200029
 30
0.0
 11
42.53437110525473
 21
202.2251211200029
 31
0.0
  0
LINE
  5
8D99
  8
0
 10
42.53437110525473
 20
202.2251211200029
 30
0.0
 11
42.53437110525473
 21
201.8911362700029
 31
0.0
  0
LINE
  5
8D9A
  8
0
 10
45.20510610525474
 20
201.8911362700029
 30
0.0
 11
45.53909095525475
 21
201.8911362700029
 31
0.0
  0
LINE
  5
8D9B
  8
0
 10
45.53909095525475
 20
201.8911362700029
 30
0.0
 11
45.53909095525475
 21
202.2251211200029
 31
0.0
  0
LINE
  5
8D9C
  8
0
 10
45.53909095525475
 20
202.2251211200029
 30
0.0
 11
45.20510610525474
 21
202.2251211200029
 31
0.0
  0
LINE
  5
8D9D
  8
0
 10
45.20510610525474
 20
202.2251211200029
 30
0.0
 11
45.20510610525474
 21
201.8911362700029
 31
0.0
  0
LINE
  5
8D9E
  8
0
 10
46.20593110525473
 20
201.8911362700029
 30
0.0
 11
46.53991500525473
 21
201.8911362700029
 31
0.0
  0
LINE
  5
8D9F
  8
0
 10
46.53991500525473
 20
201.8911362700029
 30
0.0
 11
46.53991500525473
 21
202.2251211200029
 31
0.0
  0
LINE
  5
8DA0
  8
0
 10
46.53991500525473
 20
202.2251211200029
 30
0.0
 11
46.20593110525473
 21
202.2251211200029
 31
0.0
  0
LINE
  5
8DA1
  8
0
 10
46.20593110525473
 20
202.2251211200029
 30
0.0
 11
46.20593110525473
 21
201.8911362700029
 31
0.0
  0
LINE
  5
8DA2
  8
0
 10
47.20751610525474
 20
201.8911362700029
 30
0.0
 11
47.54150000525476
 21
201.8911362700029
 31
0.0
  0
LINE
  5
8DA3
  8
0
 10
47.54150000525476
 20
201.8911362700029
 30
0.0
 11
47.54150000525476
 21
202.2251211200029
 31
0.0
  0
LINE
  5
8DA4
  8
0
 10
47.54150000525476
 20
202.2251211200029
 30
0.0
 11
47.20751610525474
 21
202.2251211200029
 31
0.0
  0
LINE
  5
8DA5
  8
0
 10
47.20751610525474
 20
202.2251211200029
 30
0.0
 11
47.20751610525474
 21
201.8911362700029
 31
0.0
  0
LINE
  5
8DA6
  8
0
 10
48.20910110525475
 20
201.8911362700029
 30
0.0
 11
48.54308500525474
 21
201.8911362700029
 31
0.0
  0
LINE
  5
8DA7
  8
0
 10
48.54308500525474
 20
201.8911362700029
 30
0.0
 11
48.54308500525474
 21
202.2251211200029
 31
0.0
  0
LINE
  5
8DA8
  8
0
 10
48.54308500525474
 20
202.2251211200029
 30
0.0
 11
48.20910110525475
 21
202.2251211200029
 31
0.0
  0
LINE
  5
8DA9
  8
0
 10
48.20910110525475
 20
202.2251211200029
 30
0.0
 11
48.20910110525475
 21
201.8911362700029
 31
0.0
  0
LINE
  5
8DAA
  8
0
 10
48.87666610525474
 20
201.8911362700029
 30
0.0
 11
49.21065000525473
 21
201.8911362700029
 31
0.0
  0
LINE
  5
8DAB
  8
0
 10
49.21065000525473
 20
201.8911362700029
 30
0.0
 11
49.21065000525473
 21
202.2251211200029
 31
0.0
  0
LINE
  5
8DAC
  8
0
 10
49.21065000525473
 20
202.2251211200029
 30
0.0
 11
48.87666610525474
 21
202.2251211200029
 31
0.0
  0
LINE
  5
8DAD
  8
0
 10
48.87666610525474
 20
202.2251211200029
 30
0.0
 11
48.87666610525474
 21
201.8911362700029
 31
0.0
  0
LINE
  5
8DAE
  8
0
 10
49.87749110525473
 20
201.8911362700029
 30
0.0
 11
51.21231710525474
 21
201.8911362700029
 31
0.0
  0
LINE
  5
8DAF
  8
0
 10
51.21231710525474
 20
201.8911362700029
 30
0.0
 11
51.21231710525474
 21
202.2251211200029
 31
0.0
  0
LINE
  5
8DB0
  8
0
 10
51.21231710525474
 20
202.2251211200029
 30
0.0
 11
49.87749110525473
 21
202.2251211200029
 31
0.0
  0
LINE
  5
8DB1
  8
0
 10
49.87749110525473
 20
202.2251211200029
 30
0.0
 11
49.87749110525473
 21
201.8911362700029
 31
0.0
  0
LINE
  5
8DB2
  8
0
 10
51.54673610525474
 20
201.8911362700029
 30
0.0
 11
51.88072000525474
 21
201.8911362700029
 31
0.0
  0
LINE
  5
8DB3
  8
0
 10
51.88072000525474
 20
201.8911362700029
 30
0.0
 11
51.88072000525474
 21
202.2251211200029
 31
0.0
  0
LINE
  5
8DB4
  8
0
 10
51.88072000525474
 20
202.2251211200029
 30
0.0
 11
51.54673610525474
 21
202.2251211200029
 31
0.0
  0
LINE
  5
8DB5
  8
0
 10
51.54673610525474
 20
202.2251211200029
 30
0.0
 11
51.54673610525474
 21
201.8911362700029
 31
0.0
  0
LINE
  5
8DB6
  8
0
 10
52.21392110525474
 20
201.8911362700029
 30
0.0
 11
52.54827645525474
 21
201.8911362700029
 31
0.0
  0
LINE
  5
8DB7
  8
0
 10
52.54827645525474
 20
201.8911362700029
 30
0.0
 11
52.54827645525474
 21
202.2251211200029
 31
0.0
  0
LINE
  5
8DB8
  8
0
 10
52.54827645525474
 20
202.2251211200029
 30
0.0
 11
52.21392110525474
 21
202.2251211200029
 31
0.0
  0
LINE
  5
8DB9
  8
0
 10
52.21392110525474
 20
202.2251211200029
 30
0.0
 11
52.21392110525474
 21
201.8911362700029
 31
0.0
  0
LINE
  5
8DBA
  8
0
 10
52.88158110525474
 20
201.8911362700029
 30
0.0
 11
53.21556500525475
 21
201.8911362700029
 31
0.0
  0
LINE
  5
8DBB
  8
0
 10
53.21556500525475
 20
201.8911362700029
 30
0.0
 11
53.21556500525475
 21
202.2251211200029
 31
0.0
  0
LINE
  5
8DBC
  8
0
 10
53.21556500525475
 20
202.2251211200029
 30
0.0
 11
52.88158110525474
 21
202.2251211200029
 31
0.0
  0
LINE
  5
8DBD
  8
0
 10
52.88158110525474
 20
202.2251211200029
 30
0.0
 11
52.88158110525474
 21
201.8911362700029
 31
0.0
  0
CIRCLE
  5
8F93
  8
0
 10
63.52186071078958
 20
209.8911362700031
 30
0.0
 40
1.5
  0
ARC
  5
8F94
  8
0
 10
53.62970639697362
 20
238.7350848939367
 30
0.0
 40
5.33214218313847
 50
74.31449942225863
 51
104.1724498576072
  0
ARC
  5
8F95
  8
0
 10
53.63719310871348
 20
238.7456142235752
 30
0.0
 40
5.323775476131433
 50
104.2783165563116
 51
166.1870765708273
  0
ARC
  5
8F96
  8
0
 10
53.6413319137059
 20
238.7525398869675
 30
0.0
 40
5.326146654840227
 50
166.2700545076261
 51
215.0482339935349
  0
ARC
  5
8F97
  8
0
 10
53.62940012956003
 20
238.7439086252603
 30
0.0
 40
5.311421839969246
 50
215.0459241187441
 51
273.2408824576857
  0
ARC
  5
8F98
  8
0
 10
53.63143619020703
 20
238.7515076461241
 30
0.0
 40
5.318894171081752
 50
273.2143571100679
 51
346.1779060677008
  0
ARC
  5
8F99
  8
0
 10
53.64154207740789
 20
238.7440264506568
 30
0.0
 40
5.307295827239366
 50
346.2302669880835
 51
43.7848887185154
  0
ARC
  5
8F9A
  8
0
 10
55.70429788432021
 20
238.3225619000506
 30
0.0
 40
4.459640505811445
 50
66.63259795322796
 51
109.9058716850351
  0
ARC
  5
8F9B
  8
0
 10
55.48614554150345
 20
238.842793745149
 30
0.0
 40
3.896315762598357
 50
109.4942419685548
 51
167.6530237580676
  0
ARC
  5
8F9C
  8
0
 10
54.74744579647212
 20
237.3224448470789
 30
0.0
 40
3.866330758866939
 50
121.49327701854
 51
142.503166897339
  0
ARC
  5
8F9D
  8
0
 10
54.69575980310061
 20
237.3858960712945
 30
0.0
 40
3.78524088928143
 50
91.77940320266809
 51
121.3278955587065
  0
ARC
  5
8F9E
  8
0
 10
54.68348645526385
 20
237.2682308314999
 30
0.0
 40
3.90250076108918
 50
65.20023754136552
 51
91.54565188015115
  0
ARC
  5
8F9F
  8
0
 10
54.50975541463981
 20
236.9088421619266
 30
0.0
 40
4.301623157105358
 50
30.14973546883459
 51
65.10747394303495
  0
ARC
  5
8FA0
  8
0
 10
54.29351862566177
 20
236.7694634305015
 30
0.0
 40
4.558626665475829
 50
8.976992652723078
 51
30.2994981683211
  0
ARC
  5
8FA1
  8
0
 10
55.4071709237601
 20
240.2893006882697
 30
0.0
 40
4.401593171265135
 50
288.3388974970106
 51
320.3520397443187
  0
ARC
  5
8FA2
  8
0
 10
55.3562963325059
 20
240.3478100476892
 30
0.0
 40
4.473237795108389
 50
252.8403059470312
 51
288.721640544611
  0
ARC
  5
8FA3
  8
0
 10
55.2080589115255
 20
239.9192648725294
 30
0.0
 40
4.020062191481092
 50
209.1938724537274
 51
253.0569803949627
  0
ARC
  5
8FA4
  8
0
 10
55.02000816794096
 20
239.7659953378289
 30
0.0
 40
3.781373116886767
 50
175.5970978715928
 51
208.5563260925433
  0
ARC
  5
8FA5
  8
0
 10
55.24427287128485
 20
239.7234456850751
 30
0.0
 40
4.008321764107
 50
141.0080554268092
 51
175.2367758980931
  0
ARC
  5
8FA6
  8
0
 10
55.58905229317246
 20
239.4514726625823
 30
0.0
 40
4.447428119007347
 50
96.68547469604019
 51
141.0795845301958
  0
ARC
  5
8FA7
  8
0
 10
55.38954236543678
 20
238.9015744777802
 30
0.0
 40
3.790160167539093
 50
178.4707117364453
 51
186.1865889351899
  0
ARC
  5
8FA8
  8
0
 10
42.35595743418999
 20
231.6312899610298
 30
0.0
 40
2.102527922038834
 50
84.95619996680541
 51
90.22314612645808
  0
ARC
  5
8FA9
  8
0
 10
42.48802372906362
 20
232.8785642924757
 30
0.0
 40
0.848754935304436
 50
65.1933776318345
 51
86.43460068621052
  0
ARC
  5
8FAA
  8
0
 10
42.64724748005952
 20
233.2638841398046
 30
0.0
 40
0.432524910680116
 50
13.9863879207905
 51
62.92338893732329
  0
ARC
  5
8FAB
  8
0
 10
41.97679210851955
 20
233.0598774403767
 30
0.0
 40
1.132979464242894
 50
3.904131892889013
 51
15.8029594467185
  0
ARC
  5
8FAC
  8
0
 10
39.91717572266293
 20
232.8893711467008
 30
0.0
 40
3.199565044350259
 50
359.4532997353156
 51
4.439158366316501
  0
ARC
  5
8FAD
  8
0
 10
42.09848132486895
 20
228.3160074207784
 30
0.0
 40
1.961880406277173
 50
269.5826669607683
 51
281.2467372863051
  0
ARC
  5
8FAE
  8
0
 10
42.3256857985966
 20
227.2422159314706
 30
0.0
 40
0.8645009778283242
 50
280.3576091429011
 51
308.9726038906425
  0
ARC
  5
8FAF
  8
0
 10
42.39730952214266
 20
227.0954556395916
 30
0.0
 40
0.7063050293075379
 50
311.9446536813435
 51
353.5803040312002
  0
ARC
  5
8FB0
  8
0
 10
41.45875165978417
 20
227.2566838684473
 30
0.0
 40
1.657926458748007
 50
351.6696629683137
 51
0.5733241568770467
  0
ARC
  5
8FB1
  8
0
 10
46.74033401452631
 20
232.2628627592073
 30
0.0
 40
5.95119938757511
 50
257.5813101393113
 51
263.1368024967188
  0
ARC
  5
8FB2
  8
0
 10
45.75063144462843
 20
227.8189353527109
 30
0.0
 40
1.398452974297173
 50
235.2289453505777
 51
258.0263291625699
  0
ARC
  5
8FB3
  8
0
 10
45.40572338769646
 20
227.2440373227567
 30
0.0
 40
0.7308682337771808
 50
181.3642075179844
 51
231.7348554842799
  0
ARC
  5
8FB4
  8
0
 10
45.95041944077489
 20
227.3199804747561
 30
0.0
 40
1.278768468710234
 50
179.9604411616203
 51
184.1860155147163
  0
ARC
  5
8FB5
  8
0
 10
33.22875335713425
 20
228.4535444424593
 30
0.0
 40
11.44415409390602
 50
0.848935483153173
 51
1.690006264274031
  0
ARC
  5
8FB6
  8
0
 10
44.7034254774178
 20
228.7937764300504
 30
0.0
 40
0.0356002396173115
 50
132.0995794755863
 51
184.3854082312399
  0
ARC
  5
8FB7
  8
0
 10
44.71173765960572
 20
228.7534263512298
 30
0.0
 40
0.0741150757083008
 50
81.69918243476886
 51
115.73317298433
  0
ARC
  5
8FB8
  8
0
 10
44.91831029065849
 20
229.5834029103029
 30
0.0
 40
0.2727989215437704
 50
229.3422064805696
 51
273.4045849244136
  0
ARC
  5
8FB9
  8
0
 10
44.94464848448197
 20
229.5524855828703
 30
0.0
 40
0.2695085644996453
 50
184.8442539947765
 51
220.7801867736552
  0
ARC
  5
8FBA
  8
0
 10
45.23608322764126
 20
229.6005015776188
 30
0.0
 40
0.5644354903320787
 50
179.7970894737599
 51
187.2033550483903
  0
ARC
  5
8FBB
  8
0
 10
45.24423008002894
 20
234.4519826785331
 30
0.0
 40
5.625234236528772
 50
270.1389228840428
 51
282.574963880413
  0
ARC
  5
8FBC
  8
0
 10
45.70357304034968
 20
232.7862955506673
 30
0.0
 40
3.900438044695806
 50
281.3163156897701
 51
306.6736079669238
  0
ARC
  5
8FBD
  8
0
 10
46.067537116618
 20
232.0841885337474
 30
0.0
 40
3.122533740917625
 50
309.0122993056877
 51
333.1868714432046
  0
ARC
  5
8FBE
  8
0
 10
46.78214621315974
 20
231.6418402059549
 30
0.0
 40
2.286370135056757
 50
335.0025208531055
 51
3.132350940942461
  0
ARC
  5
8FBF
  8
0
 10
46.67398901651701
 20
231.5562991867482
 30
0.0
 40
2.400356917899017
 50
5.030415615660204
 51
45.88015556804298
  0
ARC
  5
8FC0
  8
0
 10
46.02389455579991
 20
230.6135374435609
 30
0.0
 40
3.534812041936091
 50
48.95520224166617
 51
77.68716474380064
  0
ARC
  5
8FC1
  8
0
 10
45.74608315557901
 20
229.4284120845902
 30
0.0
 40
4.751956788280896
 50
77.46176455392255
 51
90.50756358638256
  0
ARC
  5
8FC2
  8
0
 10
44.8691434581819
 20
233.5626296242963
 30
0.0
 40
0.1328574047888303
 50
89.08094236462098
 51
124.4007292599872
  0
ARC
  5
8FC3
  8
0
 10
44.92148369101271
 20
233.5016315281935
 30
0.0
 40
0.2129371461418388
 50
126.7487054586283
 51
162.0338218173688
  0
ARC
  5
8FC4
  8
0
 10
45.42921822193562
 20
233.3135112975951
 30
0.0
 40
0.7542713589800576
 50
160.3370642577245
 51
177.7002884087944
  0
ARC
  5
8FC5
  8
0
 10
46.36590144124074
 20
233.2287459003552
 30
0.0
 40
1.69425665145904
 50
176.1068976128698
 51
180.1585523306159
  0
ARC
  5
8FC6
  8
0
 10
45.37356275037315
 20
231.5295049167036
 30
0.0
 40
2.219308321722258
 50
271.6216628224752
 51
290.5180238120261
  0
ARC
  5
8FC7
  8
0
 10
45.55354670475747
 20
230.959659583261
 30
0.0
 40
1.622827402472289
 50
291.6184361004771
 51
329.2928533987837
  0
ARC
  5
8FC8
  8
0
 10
44.62443842257289
 20
231.4713035268958
 30
0.0
 40
2.683157532333741
 50
330.0305147082964
 51
359.7069691972528
  0
ARC
  5
8FC9
  8
0
 10
44.49651675808985
 20
231.5819283884702
 30
0.0
 40
2.813793035039953
 50
357.4671544818836
 51
18.0938910393694
  0
ARC
  5
8FCA
  8
0
 10
45.34875832821618
 20
231.8783577836431
 30
0.0
 40
1.911708557628758
 50
17.58181129013318
 51
44.10613559949759
  0
ARC
  5
8FCB
  8
0
 10
45.60837962687495
 20
232.0888241937693
 30
0.0
 40
1.579081423259486
 50
45.17904980442405
 51
71.36379322642712
  0
ARC
  5
8FCC
  8
0
 10
45.43169608899944
 20
231.5424097700177
 30
0.0
 40
2.153318191790253
 50
71.55515292962627
 51
90.88698916981531
  0
ARC
  5
8FCD
  8
0
 10
48.45918952960557
 20
228.6333881785937
 30
0.0
 40
0.9504697930117868
 50
45.647846390803
 51
90.95907175324459
  0
ARC
  5
8FCE
  8
0
 10
48.19057423128964
 20
228.4027637392794
 30
0.0
 40
1.303524477208397
 50
356.286618042267
 51
44.29157541670867
  0
ARC
  5
8FCF
  8
0
 10
47.74044742681954
 20
228.2344303708505
 30
0.0
 40
1.752924040513615
 50
332.828265351269
 51
2.74372027134486
  0
ARC
  5
8FD0
  8
0
 10
48.43247162729931
 20
227.9488180566552
 30
0.0
 40
1.008745565207887
 50
281.1029522262589
 51
329.3086861457625
  0
ARC
  5
8FD1
  8
0
 10
48.44503473972428
 20
228.021098754923
 30
0.0
 40
1.077573765673208
 50
254.3735857114834
 51
279.7072195183881
  0
ARC
  5
8FD2
  8
0
 10
48.45865623713573
 20
227.9612207880263
 30
0.0
 40
1.023995873514749
 50
198.0781983504639
 51
252.7369026576824
  0
ARC
  5
8FD3
  8
0
 10
49.50470998084255
 20
228.2675024232262
 30
0.0
 40
2.113718303506307
 50
164.694227618975
 51
197.1716014617762
  0
ARC
  5
8FD4
  8
0
 10
48.50065069068069
 20
228.5323229271201
 30
0.0
 40
1.07541041250608
 50
123.3084104466153
 51
164.1819940011188
  0
ARC
  5
8FD5
  8
0
 10
48.42975451827675
 20
228.6234824883749
 30
0.0
 40
0.9603375863241239
 50
89.19299068101529
 51
122.7601092117221
  0
ARC
  5
8FD6
  8
0
 10
48.74599718647398
 20
228.2713834184521
 30
0.0
 40
2.529168051565525
 50
164.9665044400625
 51
190.6145490228779
  0
ARC
  5
8FD7
  8
0
 10
48.37943253112851
 20
228.0951996003275
 30
0.0
 40
2.13903317801624
 50
187.7835408718214
 51
220.8538282758054
  0
ARC
  5
8FD8
  8
0
 10
48.36290865327182
 20
228.2577228443549
 30
0.0
 40
2.23684800464541
 50
224.2815132725701
 51
262.3352180838966
  0
ARC
  5
8FD9
  8
0
 10
48.44410295745784
 20
228.4258870562357
 30
0.0
 40
2.415036709056927
 50
260.9581187463501
 51
295.9617934482591
  0
ARC
  5
8FDA
  8
0
 10
48.46881443093596
 20
228.1923753066364
 30
0.0
 40
2.195729658493223
 50
298.0499757225372
 51
338.9010076102918
  0
ARC
  5
8FDB
  8
0
 10
48.07925792781018
 20
228.2778110653488
 30
0.0
 40
2.590632549888452
 50
340.2397223934028
 51
12.59603457387203
  0
ARC
  5
8FDC
  8
0
 10
48.55389651119863
 20
228.3963500884722
 30
0.0
 40
2.101602444292964
 50
12.2640014241871
 51
42.00204460106991
  0
ARC
  5
8FDD
  8
0
 10
48.5534054065557
 20
228.423835936863
 30
0.0
 40
2.083678402800012
 50
41.43135548057325
 51
84.31090183999093
  0
ARC
  5
8FDF
  8
0
 10
54.44238830636202
 20
228.9527725670663
 30
0.0
 40
0.7218683279506627
 50
130.1010359850338
 51
152.8765297157261
  0
ARC
  5
8FE0
  8
0
 10
54.38442435428126
 20
228.9390567321503
 30
0.0
 40
0.6970539232955045
 50
93.62160758699848
 51
125.7261982466873
  0
ARC
  5
8FE1
  8
0
 10
54.49550482082104
 20
227.9945807705272
 30
0.0
 40
1.647456117640462
 50
86.14425926686556
 51
95.40251107253543
  0
ARC
  5
8FE2
  8
0
 10
54.54423721877019
 20
228.166375504329
 30
0.0
 40
1.473239699002557
 50
75.78444603343868
 51
87.58609443775916
  0
ARC
  5
8FE3
  8
0
 10
54.80892063113755
 20
229.1636055042649
 30
0.0
 40
0.4417023764257507
 50
38.65642909797035
 51
77.30076056538076
  0
ARC
  5
8FE4
  8
0
 10
54.63722881674153
 20
229.0930976084561
 30
0.0
 40
0.622013293909289
 50
359.8735965182423
 51
33.84363804094149
  0
ARC
  5
8FE5
  8
0
 10
51.67911811270645
 20
228.9728314573288
 30
0.0
 40
3.582096140528945
 50
359.0859929973959
 51
1.90206220416728
  0
ARC
  5
8FEC
  8
0
 10
54.32177715937532
 20
231.2426141428668
 30
0.0
 40
2.509234634269819
 50
284.9657500733401
 51
291.9755098217202
  0
ARC
  5
8FED
  8
0
 10
52.64245385887477
 20
237.3904516565599
 30
0.0
 40
8.882278806531481
 50
280.2043110183696
 51
285.1898042810343
  0
ARC
  5
8FEE
  8
0
 10
55.10755945142208
 20
223.491055066708
 30
0.0
 40
5.234101951295329
 50
99.80708673503382
 51
108.9029002183752
  0
ARC
  5
8FEF
  8
0
 10
53.80234854898916
 20
227.2414515514254
 30
0.0
 40
1.263280702218469
 50
108.0038789458561
 51
139.5346921255565
  0
ARC
  5
8FF0
  8
0
 10
53.74244764032563
 20
227.3252883411066
 30
0.0
 40
1.163565746446632
 50
140.7612947780748
 51
168.9659435881561
  0
ARC
  5
8FF1
  8
0
 10
53.97681523829011
 20
227.2835874024578
 30
0.0
 40
1.401587473098195
 50
169.1264415873884
 51
196.8129880402176
  0
ARC
  5
8FF2
  8
0
 10
53.77683507748731
 20
227.2500683390098
 30
0.0
 40
1.200736629503124
 50
198.0421705376475
 51
235.7348582477589
  0
ARC
  5
8FF3
  8
0
 10
53.93369472243599
 20
227.5481145575433
 30
0.0
 40
1.535844315416191
 50
237.1590292494222
 51
270.7198132743667
  0
ARC
  5
8FF4
  8
0
 10
54.01363110535333
 20
227.8221268430794
 30
0.0
 40
1.810751131158588
 50
268.0808101764746
 51
292.8635926074779
  0
ARC
  5
8FF5
  8
0
 10
53.88282183575745
 20
228.0491329627265
 30
0.0
 40
2.070998767971581
 50
293.7580989581123
 51
314.7899657835182
  0
ARC
  5
8FF6
  8
0
 10
58.86200473000091
 20
227.2175759158164
 30
0.0
 40
2.499173832420186
 50
192.2727471956715
 51
206.3510707099188
  0
ARC
  5
8FF7
  8
0
 10
60.82763071078572
 20
227.3923950189459
 30
0.0
 40
4.463878389973498
 50
178.3054146575074
 51
189.1007693226515
  0
ARC
  5
8FF8
  8
0
 10
-122.3404779120986
 20
230.4452596713798
 30
0.0
 40
178.7300508439498
 50
359.0636135939208
 51
359.5331222948626
  0
ARC
  5
8FF9
  8
0
 10
53.30452549634906
 20
228.9884418275467
 30
0.0
 40
3.07911375910394
 50
0.0082366020445168
 51
13.70501902078777
  0
ARC
  5
8FFA
  8
0
 10
55.44388379996927
 20
229.4575729658941
 30
0.0
 40
0.8909843556742496
 50
16.99219239725977
 51
58.15468777164687
  0
ARC
  5
8FFB
  8
0
 10
54.97608523618609
 20
228.7980040280947
 30
0.0
 40
1.698813368729804
 50
56.48913080864569
 51
88.52476597508098
  0
ARC
  5
8FFC
  8
0
 10
54.61316639129561
 20
226.2210050950321
 30
0.0
 40
4.294545824498953
 50
84.56646884241277
 51
99.63736677787176
  0
ARC
  5
8FFD
  8
0
 10
54.13967752931246
 20
229.0003035836623
 30
0.0
 40
1.475204576717583
 50
99.57835770956007
 51
133.410812852349
  0
ARC
  5
8FFE
  8
0
 10
54.39336012037576
 20
228.8599348743268
 30
0.0
 40
1.753711970549818
 50
136.2812462218209
 51
166.078002621643
  0
ARC
  5
8FFF
  8
0
 10
53.27121216602624
 20
234.6295065997299
 30
0.0
 40
6.758384124597473
 50
280.6962555586757
 51
287.1203411217375
  0
ARC
  5
9001
  8
0
 10
55.23844411769088
 20
224.5367767024742
 30
0.0
 40
3.524614443440088
 50
101.6686696910118
 51
109.110139111778
  0
ARC
  5
9002
  8
0
 10
54.24780114577187
 20
227.3431177129735
 30
0.0
 40
0.5488788980844314
 50
107.3044315624897
 51
142.6785974978681
  0
ARC
  5
9003
  8
0
 10
54.16061746956549
 20
227.4055097714721
 30
0.0
 40
0.4417308257590526
 50
142.2581992011796
 51
180.7216068092585
  0
ARC
  5
9004
  8
0
 10
54.26475672049053
 20
227.3946907893871
 30
0.0
 40
0.5458603467606972
 50
179.4483220443283
 51
220.6412737198981
  0
ARC
  5
9005
  8
0
 10
54.31853279352937
 20
227.4229316523672
 30
0.0
 40
0.6052123636331186
 50
219.3540008203597
 51
262.0493699394873
  0
ARC
  5
9006
  8
0
 10
54.35795008110853
 20
227.7219520575335
 30
0.0
 40
0.9068136346841665
 50
262.1960849641753
 51
288.4736708280103
  0
ARC
  5
9007
  8
0
 10
54.31018420135027
 20
227.865281223592
 30
0.0
 40
1.057892482791887
 50
288.467600933972
 51
313.9760865401704
  0
ARC
  5
9008
  8
0
 10
54.56843688096318
 20
227.5823939640183
 30
0.0
 40
0.6750814753682137
 50
314.8739683616073
 51
353.3371743964237
  0
ARC
  5
9009
  8
0
 10
51.80432293624362
 20
227.8946776497835
 30
0.0
 40
3.456776160850171
 50
353.5117984853132
 51
0.8226475095750958
  0
ARC
  5
900A
  8
0
 10
62.41484515251647
 20
228.5731047350085
 30
0.0
 40
7.34861436909221
 50
195.7421928264704
 51
199.5977913180711
  0
ARC
  5
900B
  8
0
 10
75.18631218033333
 20
227.4760667368361
 30
0.0
 40
17.00768455573995
 50
177.5431527159521
 51
180.1224681839422
  0
ARC
  5
900C
  8
0
 10
62.17308935800017
 20
228.0814609680977
 30
0.0
 40
3.98074969577439
 50
168.3575610519279
 51
178.2196605600728
  0
ARC
  5
900D
  8
0
 10
59.26394801097683
 20
228.6605515997981
 30
0.0
 40
1.014793522696064
 50
138.3863021467754
 51
167.2340218536033
  0
ARC
  5
900E
  8
0
 10
58.90834637183783
 20
228.8937710022973
 30
0.0
 40
0.5972547683434593
 50
96.77586538956491
 51
132.4477735582985
  0
ARC
  5
900F
  8
0
 10
58.9391397153742
 20
228.7418712131837
 30
0.0
 40
0.7518332906437697
 50
71.7226791467794
 51
97.74042030460241
  0
ARC
  5
9010
  8
0
 10
58.76568800754001
 20
228.2300721440404
 30
0.0
 40
1.29221607752043
 50
56.46328333653635
 51
71.53679490684779
  0
ARC
  5
9011
  8
0
 10
60.69935289574344
 20
228.2080443656951
 30
0.0
 40
3.058724754046294
 50
139.5470247594359
 51
148.3665835328131
  0
ARC
  5
9012
  8
0
 10
59.04756343606115
 20
229.6400095464882
 30
0.0
 40
0.8729050829687197
 50
109.597951756468
 51
140.7231812093455
  0
ARC
  5
9013
  8
0
 10
59.07795105936687
 20
229.5124962286376
 30
0.0
 40
1.003323721815536
 50
86.3646904766054
 51
108.7902753767982
  0
ARC
  5
9014
  8
0
 10
59.07698552933515
 20
229.1373180438208
 30
0.0
 40
1.377997254265745
 50
78.84643697971599
 51
87.3137665652719
  0
ARC
  5
9015
  8
0
 10
59.0632671985824
 20
229.0675886718833
 30
0.0
 40
1.449063259500479
 50
73.30291166206523
 51
78.84759054026807
  0
ARC
  5
9016
  8
0
 10
63.66424728098914
 20
228.9259274007161
 30
0.0
 40
1.673766598535952
 50
15.45353000298207
 51
35.6592184323769
  0
ARC
  5
9017
  8
0
 10
63.94936654552881
 20
229.115635186166
 30
0.0
 40
1.331569712949468
 50
36.17886961743977
 51
65.1803213396574
  0
ARC
  5
9018
  8
0
 10
63.56608375979571
 20
228.0470273041457
 30
0.0
 40
2.464419661937123
 50
67.52176510600219
 51
89.9517651688381
  0
ARC
  5
9019
  8
0
 10
63.38651319318038
 20
226.785504728192
 30
0.0
 40
3.730366476747655
 50
87.208954205559
 51
101.0994306540249
  0
ARC
  5
901A
  8
0
 10
62.94850651561227
 20
228.9845563147574
 30
0.0
 40
1.488141506149253
 50
100.8503522773502
 51
133.112073360134
  0
ARC
  5
901B
  8
0
 10
62.76145707744761
 20
229.1943306723544
 30
0.0
 40
1.207186880999289
 50
133.4355814373261
 51
160.5403057677101
  0
ARC
  5
901C
  8
0
 10
62.85913337287171
 20
229.1871527588574
 30
0.0
 40
1.30192991328094
 50
161.6745785399147
 51
192.4880693726293
  0
ARC
  5
901D
  8
0
 10
62.62543913118889
 20
229.1332170776282
 30
0.0
 40
1.06210390647494
 50
192.3733574320922
 51
226.4953370670952
  0
ARC
  5
901E
  8
0
 10
62.786768302547
 20
229.2884836291263
 30
0.0
 40
1.285822665205259
 50
226.0440591685035
 51
249.5155775654864
  0
ARC
  5
901F
  8
0
 10
64.73357905773729
 20
234.18923976032
 30
0.0
 40
6.558883186265355
 50
248.5661847695235
 51
256.3648823317471
  0
ARC
  5
9020
  8
0
 10
73.4859980123208
 20
269.2980454940126
 30
0.0
 40
42.74209767946007
 50
256.0575388595495
 51
257.0500330678841
  0
ARC
  5
9021
  8
0
 10
63.76554476188178
 20
226.9182261413976
 30
0.0
 40
0.738586693301286
 50
53.9449498754353
 51
78.91973275289718
  0
ARC
  5
9022
  8
0
 10
63.97533764177847
 20
227.3050359988913
 30
0.0
 40
0.3079156393342173
 50
351.7054337157876
 51
43.07738885190752
  0
ARC
  5
9023
  8
0
 10
63.92301508296151
 20
227.2876877473988
 30
0.0
 40
0.3580422081846633
 50
305.5545895016566
 51
355.6635972446031
  0
ARC
  5
9024
  8
0
 10
63.60152364599212
 20
227.808395152529
 30
0.0
 40
0.9694871848616392
 50
270.6346537603561
 51
303.1173831021151
  0
ARC
  5
9025
  8
0
 10
63.47389066174804
 20
228.3682974707993
 30
0.0
 40
1.535577099296554
 50
255.052838591124
 51
275.1699625266891
  0
ARC
  5
9026
  8
0
 10
63.2746553383427
 20
227.5786333745772
 30
0.0
 40
0.72133028502093
 50
220.3482025964625
 51
254.1645624218334
  0
ARC
  5
9027
  8
0
 10
63.35127921402275
 20
227.630662696387
 30
0.0
 40
0.8134735047535518
 50
201.7856653156537
 51
219.6469566048345
  0
ARC
  5
9028
  8
0
 10
63.02558367137097
 20
227.7411040232937
 30
0.0
 40
1.679722551042641
 50
194.2106226317231
 51
218.9435761559328
  0
ARC
  5
9029
  8
0
 10
63.0359120643952
 20
227.7783839335924
 30
0.0
 40
1.711336039747307
 50
219.6970036238811
 51
248.5406571485444
  0
ARC
  5
902A
  8
0
 10
63.33653074007503
 20
228.6338659455119
 30
0.0
 40
2.617702860846573
 50
249.2671616286075
 51
267.7470250640579
  0
ARC
  5
902B
  8
0
 10
63.46981174030471
 20
229.1618176892009
 30
0.0
 40
3.152491240768179
 50
265.7033250605309
 51
289.3905439589275
  0
ARC
  5
902C
  8
0
 10
63.94426730960427
 20
227.604327192669
 30
0.0
 40
1.527408099999837
 50
292.0004687572242
 51
331.7243378576277
  0
ARC
  5
902D
  8
0
 10
64.1336025560156
 20
227.4613655084706
 30
0.0
 40
1.293448633509429
 50
333.3286501185843
 51
10.01278361973787
  0
ARC
  5
902E
  8
0
 10
64.4304551139732
 20
227.5489731765698
 30
0.0
 40
0.9864943557164728
 50
7.999299177210398
 51
56.09544702440729
  0
ARC
  5
902F
  8
0
 10
63.41324836749415
 20
225.8490001016582
 30
0.0
 40
2.966650730685512
 50
58.10472620690843
 51
77.57165611660318
  0
ARC
  5
9030
  8
0
 10
69.64394504281992
 20
253.1738884356832
 30
0.0
 40
25.05969444260865
 50
254.9920383624129
 51
257.1055378385227
  0
ARC
  5
9031
  8
0
 10
63.57116716342517
 20
230.708279675848
 30
0.0
 40
1.788471967299355
 50
241.9968666432908
 51
256.532900849103
  0
ARC
  5
9032
  8
0
 10
62.87463969629837
 20
229.3424993244687
 30
0.0
 40
0.2569089219111538
 50
181.422929511426
 51
236.1252737546319
  0
ARC
  5
9033
  8
0
 10
62.88986033395861
 20
229.3369929384019
 30
0.0
 40
0.272051738584831
 50
114.9382961617164
 51
180.1839102890764
  0
ARC
  5
9034
  8
0
 10
63.29184761236082
 20
228.4278886539884
 30
0.0
 40
1.266027764923893
 50
87.40586972974764
 51
114.0870118917365
  0
ARC
  5
9035
  8
0
 10
63.39235586872039
 20
228.1086688846726
 30
0.0
 40
1.584539315298479
 50
81.26152734193079
 51
91.56252783870256
  0
ARC
  5
9036
  8
0
 10
63.52585264114885
 20
228.9144559269085
 30
0.0
 40
0.767883455285971
 50
58.6315013467035
 51
81.97250411125985
  0
ARC
  5
9037
  8
0
 10
63.58578561950706
 20
229.0491454059141
 30
0.0
 40
0.6219714409278794
 50
31.26144626097742
 51
56.88664282448882
  0
ARC
  5
9038
  8
0
 10
59.23256996357834
 20
225.2464552220883
 30
0.0
 40
0.1450093835969383
 50
152.3324835633369
 51
201.6883497501618
  0
ARC
  5
9039
  8
0
 10
59.28284993014143
 20
225.213470999783
 30
0.0
 40
0.2049400430791757
 50
94.26849177824151
 51
150.6923636878295
  0
ARC
  5
903A
  8
0
 10
59.29528997282735
 20
225.175861096011
 30
0.0
 40
0.2435610534233947
 50
65.67526895000451
 51
96.52886377924207
  0
ARC
  5
903B
  8
0
 10
59.32619666219076
 20
225.2323580792767
 30
0.0
 40
0.1794155440342952
 50
15.00501194484155
 51
67.2375225199463
  0
ARC
  5
903C
  8
0
 10
59.35879971028912
 20
225.2462032537973
 30
0.0
 40
0.1444238304842776
 50
334.547571826115
 51
13.04798857661175
  0
ARC
  5
903D
  8
0
 10
59.31704976757634
 20
225.2690745908979
 30
0.0
 40
0.1919699607925253
 50
283.3392084596478
 51
333.7390166514095
  0
ARC
  5
903E
  8
0
 10
59.29549833912466
 20
225.3182155562782
 30
0.0
 40
0.2449468824808138
 50
249.2475068279205
 51
285.5929160340207
  0
ARC
  5
903F
  8
0
 10
59.27216905525676
 20
225.2681426666467
 30
0.0
 40
0.1899001165681578
 50
203.3534454850988
 51
250.4765665943434
  0
ARC
  5
9054
  8
0
 10
59.23345617450275
 20
225.2463935409643
 30
0.0
 40
0.220563220518459
 50
149.5924277991487
 51
208.5026443066628
  0
ARC
  5
9055
  8
0
 10
59.28313473185254
 20
225.2113997497825
 30
0.0
 40
0.2811654578303905
 50
99.15226556107332
 51
148.566221960911
  0
ARC
  5
9056
  8
0
 10
59.29525052237451
 20
225.1742846505662
 30
0.0
 40
0.3197925578412533
 50
69.26435362098641
 51
100.2377265552884
  0
ARC
  5
9057
  8
0
 10
59.31447537002505
 20
225.2179471878174
 30
0.0
 40
0.2721632922277281
 50
34.33047436698183
 51
69.79498100629164
  0
ARC
  5
9058
  8
0
 10
59.35674565701993
 20
225.2465143819345
 30
0.0
 40
0.2211457863352724
 50
330.8904082426641
 51
34.39478799471743
  0
ARC
  5
9059
  8
0
 10
59.31254421196304
 20
225.2747306594016
 30
0.0
 40
0.2735090128067355
 50
281.5278040705512
 51
330.2307053142207
  0
ARC
  5
905A
  8
0
 10
59.29551632932058
 20
225.3182204739273
 30
0.0
 40
0.3196244185618837
 50
249.2057013607612
 51
282.9608191978165
  0
ARC
  5
905B
  8
0
 10
59.27496521886653
 20
225.2723110855099
 30
0.0
 40
0.2694253491506349
 50
209.1338557825235
 51
249.8253936421839
  0
LINE
  5
906E
  8
0
 10
42.7954951177006
 20
200.3153705977999
 30
0.0
 11
41.66966209211782
 21
198.365370597811
 31
0.0
  0
ARC
  5
906F
  8
0
 10
41.71296336230077
 20
198.3403705977996
 30
0.0
 40
0.0500000000002611
 50
149.9999999851142
 51
269.9999999998677
  0
LINE
  5
9070
  8
0
 10
41.71296336230066
 20
198.2903705977993
 30
0.0
 11
43.96462941214017
 21
198.2903705977993
 31
0.0
  0
ARC
  5
9071
  8
0
 10
43.96462941214011
 20
198.3403705977993
 30
0.0
 40
0.0500000000000013
 50
270.0000000000688
 51
29.99999998531542
  0
LINE
  5
9072
  8
0
 10
44.00793068233574
 20
198.3653705977882
 30
0.0
 11
42.882097658079
 21
200.3153705977999
 31
0.0
  0
ARC
  5
9073
  8
0
 10
42.8387963878898
 20
200.2903705977999
 30
0.0
 40
0.0499999999999793
 50
30.00000000000012
 51
149.9999999999999
  0
LINE
  5
9074
  8
0
 10
42.75219384681608
 20
200.4403705977999
 30
0.0
 11
41.53975828151792
 21
198.3403705977995
 31
0.0
  0
ARC
  5
9075
  8
0
 10
41.62636082189624
 20
198.2903705977997
 30
0.0
 40
0.0999999999998077
 50
150.0000000000498
 51
270.0000000000499
  0
LINE
  5
9076
  8
0
 10
41.62636082189633
 20
198.1903705977999
 30
0.0
 11
44.05123195249266
 21
198.1903705977999
 31
0.0
  0
ARC
  5
9077
  8
0
 10
44.05123195249274
 20
198.2903705977997
 30
0.0
 40
0.0999999999998075
 50
269.9999999999499
 51
29.9999999999503
  0
LINE
  5
9078
  8
0
 10
44.13783449287106
 20
198.3403705977995
 30
0.0
 11
42.9253989275729
 21
200.4403705977999
 31
0.0
  0
ARC
  5
9079
  8
0
 10
42.83879638719449
 20
200.3903705977999
 30
0.0
 40
0.0999999999999585
 50
29.99999999999998
 51
150.0
  0
LINE
  5
9082
  8
D002
 10
77.32347425020461
 20
202.7911362700033
 30
0.0
 11
77.32347425020461
 21
203.3375828794101
 31
0.0
1001
GENIUS_GENODEF_13
1002
{
1000
HIER
1070
     0
1002
}
1002
{
1000
MANEDIT
1070
     0
1002
}
1002
{
1000
NOSEL
1070
     0
1002
}
1002
{
1000
BEHIND
1070
     0
1002
}
1002
{
1000
OTHER
1070
     0
1002
}
1002
{
1000
REACTOR
1002
}
1001
GENIUS_GENOBJ-N-CEN_13
1002
{
1000
OWNER
1000
GEN
1002
}
1001
GENIUS_GENCEN_19
1002
{
1040
3.0
1002
}
  0
LINE
  5
9083
  8
D002
 10
77.6234742502048
 20
202.7911362700033
 30
0.0
 11
77.6234742502048
 21
203.3375828794101
 31
0.0
1001
GENIUS_GENODEF_13
1002
{
1000
HIER
1070
     0
1002
}
1002
{
1000
MANEDIT
1070
     0
1002
}
1002
{
1000
NOSEL
1070
     0
1002
}
1002
{
1000
BEHIND
1070
     0
1002
}
1002
{
1000
OTHER
1070
     0
1002
}
1002
{
1000
REACTOR
1002
}
1001
GENIUS_GENOBJ-N-CEN_13
1002
{
1000
OWNER
1000
GEN
1002
}
1001
GENIUS_GENCEN_19
1002
{
1040
3.0
1002
}
  0
LINE
  5
9084
  8
D002
 10
77.6234742502048
 20
206.8911362700035
 30
0.0
 11
78.26930105515166
 21
207.5369630749504
 31
0.0
  0
LINE
  5
9085
  8
D002
 10
77.6234742502048
 20
207.3911362700035
 30
0.0
 11
78.01930105515166
 21
207.7869630749504
 31
0.0
  0
ARC
  5
9086
  8
D002
 10
77.4734742502047
 20
208.9911362700034
 30
0.0
 40
0.1499999999999773
 50
0.0
 51
180.0
  0
ARC
  5
9087
  8
D002
 10
78.14430105515166
 20
207.6619630749504
 30
0.0
 40
0.1767766952966168
 50
315.0000000000228
 51
134.9999999999967
  0
LINE
  5
9088
  8
D002
 10
77.32347425020461
 20
206.8911362700035
 30
0.0
 11
76.67764744525775
 21
207.5369630749504
 31
0.0
  0
LINE
  5
9089
  8
D002
 10
77.32347425020461
 20
207.3911362700035
 30
0.0
 11
76.92764744525775
 21
207.7869630749504
 31
0.0
  0
ARC
  5
908A
  8
D002
 10
76.80264744525775
 20
207.6619630749504
 30
0.0
 40
0.1767766952966168
 50
45.00000000000327
 51
224.9999999999772
  0
LINE
  5
908B
  8
D002
 10
77.6234742502048
 20
208.0911362700034
 30
0.0
 11
78.02226014742618
 21
208.4899221672248
 31
0.0
  0
LINE
  5
908C
  8
D002
 10
77.6234742502048
 20
208.4446896605966
 30
0.0
 11
77.84548345212951
 21
208.6666988625213
 31
0.0
  0
ARC
  5
908D
  8
D002
 10
77.93387179977762
 20
208.5783105148732
 30
0.0
 40
0.1249999999999206
 50
314.9999999998848
 51
134.9999999999217
  0
LINE
  5
908E
  8
D002
 10
79.30373013853054
 20
204.6612324594358
 30
0.0
 11
79.44969590758441
 21
204.1164807931605
 31
0.0
  0
LINE
  5
908F
  8
D002
 10
79.60991635637842
 20
204.4844557641392
 30
0.0
 11
79.69117736415669
 21
204.1811855544362
 31
0.0
  0
ARC
  5
9090
  8
D002
 10
80.0308341854437
 20
204.9462651213389
 30
0.0
 40
0.1249999999999206
 50
285.0000000000046
 51
105.0000000000046
  0
LINE
  5
9091
  8
D002
 10
77.6234742502048
 20
204.8911362700035
 30
0.0
 11
77.6234742502048
 21
205.2836194346141
 31
0.0
1001
GENIUS_GENODEF_13
1002
{
1000
HIER
1070
     0
1002
}
1002
{
1000
MANEDIT
1070
     0
1002
}
1002
{
1000
NOSEL
1070
     0
1002
}
1002
{
1000
BEHIND
1070
     0
1002
}
1002
{
1000
OTHER
1070
     0
1002
}
1002
{
1000
REACTOR
1002
}
1001
GENIUS_GENOBJ-N-CEN_13
1002
{
1000
OWNER
1000
GEN
1002
}
1001
GENIUS_GENCEN_19
1002
{
1040
3.0
1002
}
  0
LINE
  5
9092
  8
D002
 10
79.75991635637828
 20
204.7442633852745
 30
0.0
 11
80.0631865660815
 21
204.8255243930529
 31
0.0
  0
ARC
  5
9093
  8
D002
 10
79.57043663587078
 20
204.1488331737983
 30
0.0
 40
0.1249999999999206
 50
194.9999999999509
 51
15.00000000000457
  0
LINE
  5
9094
  8
D002
 10
79.4537301385304
 20
204.9210400805712
 30
0.0
 11
79.99848180480589
 21
205.0670058496252
 31
0.0
  0
LINE
  5
9095
  8
D002
 10
77.6234742502048
 20
203.6911362700034
 30
0.0
 11
77.6234742502048
 21
204.3911362700035
 31
0.0
1001
GENIUS_GENODEF_13
1002
{
1000
HIER
1070
     0
1002
}
1002
{
1000
MANEDIT
1070
     0
1002
}
1002
{
1000
NOSEL
1070
     0
1002
}
1002
{
1000
BEHIND
1070
     0
1002
}
1002
{
1000
OTHER
1070
     0
1002
}
1002
{
1000
REACTOR
1002
}
1001
GENIUS_GENOBJ-N-CEN_13
1002
{
1000
OWNER
1000
GEN
1002
}
1001
GENIUS_GENCEN_19
1002
{
1040
3.0
1002
}
  0
LINE
  5
9096
  8
D002
 10
77.32347425020461
 20
203.6911362700034
 30
0.0
 11
77.32347425020461
 21
204.3911362700035
 31
0.0
1001
GENIUS_GENODEF_13
1002
{
1000
HIER
1070
     0
1002
}
1002
{
1000
MANEDIT
1070
     0
1002
}
1002
{
1000
NOSEL
1070
     0
1002
}
1002
{
1000
BEHIND
1070
     0
1002
}
1002
{
1000
OTHER
1070
     0
1002
}
1002
{
1000
REACTOR
1002
}
1001
GENIUS_GENOBJ-N-CEN_13
1002
{
1000
OWNER
1000
GEN
1002
}
1001
GENIUS_GENCEN_19
1002
{
1040
3.0
1002
}
  0
LINE
  5
9097
  8
D002
 10
77.32347425020461
 20
208.4446896605966
 30
0.0
 11
77.32347425020461
 21
208.9911362700034
 31
0.0
1001
GENIUS_GENODEF_13
1002
{
1000
HIER
1070
     0
1002
}
1002
{
1000
MANEDIT
1070
     0
1002
}
1002
{
1000
NOSEL
1070
     0
1002
}
1002
{
1000
BEHIND
1070
     0
1002
}
1002
{
1000
OTHER
1070
     0
1002
}
1002
{
1000
REACTOR
1002
}
1001
GENIUS_GENOBJ-N-CEN_13
1002
{
1000
OWNER
1000
GEN
1002
}
1001
GENIUS_GENCEN_19
1002
{
1040
3.0
1002
}
  0
LINE
  5
9098
  8
D002
 10
77.6234742502048
 20
208.4446896605966
 30
0.0
 11
77.6234742502048
 21
208.9911362700034
 31
0.0
1001
GENIUS_GENODEF_13
1002
{
1000
HIER
1070
     0
1002
}
1002
{
1000
MANEDIT
1070
     0
1002
}
1002
{
1000
NOSEL
1070
     0
1002
}
1002
{
1000
BEHIND
1070
     0
1002
}
1002
{
1000
OTHER
1070
     0
1002
}
1002
{
1000
REACTOR
1002
}
1001
GENIUS_GENOBJ-N-CEN_13
1002
{
1000
OWNER
1000
GEN
1002
}
1001
GENIUS_GENCEN_19
1002
{
1040
3.0
1002
}
  0
ARC
  5
9099
  8
D002
 10
77.01307670063179
 20
208.5783105148732
 30
0.0
 40
0.1249999999999206
 50
45.00000000007829
 51
224.9999999999677
  0
LINE
  5
909A
  8
D002
 10
77.32347425020461
 20
208.4446896605966
 30
0.0
 11
77.10146504827989
 21
208.6666988625213
 31
0.0
  0
LINE
  5
909B
  8
D002
 10
77.32347425020461
 20
208.0911362700034
 30
0.0
 11
76.92468835298322
 21
208.4899221672248
 31
0.0
  0
LINE
  5
909C
  8
D002
 10
77.6234742502048
 20
207.3911362700035
 30
0.0
 11
77.6234742502048
 21
208.0911362700034
 31
0.0
1001
GENIUS_GENODEF_13
1002
{
1000
HIER
1070
     0
1002
}
1002
{
1000
MANEDIT
1070
     0
1002
}
1002
{
1000
NOSEL
1070
     0
1002
}
1002
{
1000
BEHIND
1070
     0
1002
}
1002
{
1000
OTHER
1070
     0
1002
}
1002
{
1000
REACTOR
1002
}
1001
GENIUS_GENOBJ-N-CEN_13
1002
{
1000
OWNER
1000
GEN
1002
}
1001
GENIUS_GENCEN_19
1002
{
1040
3.0
1002
}
  0
LINE
  5
909D
  8
D002
 10
77.32347425020461
 20
207.3911362700035
 30
0.0
 11
77.32347425020461
 21
208.0911362700034
 31
0.0
1001
GENIUS_GENODEF_13
1002
{
1000
HIER
1070
     0
1002
}
1002
{
1000
MANEDIT
1070
     0
1002
}
1002
{
1000
NOSEL
1070
     0
1002
}
1002
{
1000
BEHIND
1070
     0
1002
}
1002
{
1000
OTHER
1070
     0
1002
}
1002
{
1000
REACTOR
1002
}
1001
GENIUS_GENOBJ-N-CEN_13
1002
{
1000
OWNER
1000
GEN
1002
}
1001
GENIUS_GENCEN_19
1002
{
1040
3.0
1002
}
  0
LINE
  5
909E
  8
D002
 10
77.6234742502048
 20
203.3375828794101
 30
0.0
 11
77.84548345212951
 21
203.1155736774854
 31
0.0
  0
LINE
  5
909F
  8
D002
 10
77.32347425020461
 20
204.3911362700035
 30
0.0
 11
76.92764744525775
 21
203.9953094650564
 31
0.0
  0
ARC
  5
90A0
  8
D002
 10
77.4734742502047
 20
202.7911362700033
 30
0.0
 40
0.1499999999999773
 50
180.0
 51
0.0
  0
ARC
  5
90A1
  8
D002
 10
78.14430105515166
 20
204.1203094650564
 30
0.0
 40
0.1767766952966168
 50
225.0000000000032
 51
45.00000000000327
  0
ARC
  5
90A2
  8
D002
 10
76.80264744525775
 20
204.1203094650564
 30
0.0
 40
0.1767766952966168
 50
134.9999999999967
 51
314.9999999999968
  0
LINE
  5
90A3
  8
D002
 10
77.6234742502048
 20
204.3911362700035
 30
0.0
 11
78.01930105515166
 21
203.9953094650564
 31
0.0
  0
LINE
  5
90A4
  8
D002
 10
77.32347425020461
 20
204.8911362700035
 30
0.0
 11
76.67764744525775
 21
204.2453094650564
 31
0.0
  0
ARC
  5
90A5
  8
D002
 10
77.93387179977762
 20
203.2039620251336
 30
0.0
 40
0.1249999999999206
 50
225.0000000000783
 51
44.99999999996776
  0
LINE
  5
90A6
  8
D002
 10
77.32347425020461
 20
203.6911362700034
 30
0.0
 11
76.92468835298322
 21
203.292350372782
 31
0.0
  0
LINE
  5
90A7
  8
D002
 10
77.6234742502048
 20
203.6911362700034
 30
0.0
 11
78.02226014742618
 21
203.292350372782
 31
0.0
  0
LINE
  5
90A8
  8
D002
 10
77.6234742502048
 20
204.8911362700035
 30
0.0
 11
78.26930105515166
 21
204.2453094650564
 31
0.0
  0
ARC
  5
90A9
  8
D002
 10
77.01307670063179
 20
203.2039620251336
 30
0.0
 40
0.1249999999999206
 50
134.9999999998849
 51
314.9999999998848
  0
LINE
  5
90AA
  8
D002
 10
77.32347425020461
 20
203.3375828794101
 30
0.0
 11
77.10146504827989
 21
203.1155736774854
 31
0.0
  0
LINE
  5
90AB
  8
D002
 10
78.69751235588146
 20
206.7710400805711
 30
0.0
 11
78.84239502199088
 21
207.3117495516275
 31
0.0
  0
ARC
  5
90AC
  8
D002
 10
78.67164184651787
 20
207.3575027271006
 30
0.0
 40
0.1767766952966168
 50
344.9999999999747
 51
164.9999999999747
  0
LINE
  5
90AD
  8
D002
 10
75.33703214403099
 20
204.4844557641392
 30
0.0
 11
74.86379549847297
 21
204.2112324594358
 31
0.0
1001
GENIUS_GENODEF_13
1002
{
1000
HIER
1070
     0
1002
}
1002
{
1000
MANEDIT
1070
     0
1002
}
1002
{
1000
NOSEL
1070
     0
1002
}
1002
{
1000
BEHIND
1070
     0
1002
}
1002
{
1000
OTHER
1070
     0
1002
}
1002
{
1000
REACTOR
1002
}
1001
GENIUS_GENOBJ-N-CEN_13
1002
{
1000
OWNER
1000
GEN
1002
}
1001
GENIUS_GENCEN_19
1002
{
1040
3.0
1002
}
  0
LINE
  5
90AE
  8
D002
 10
78.41449965398905
 20
206.2612324594357
 30
0.0
 11
79.29671547599182
 21
206.0248434423802
 31
0.0
  0
LINE
  5
90AF
  8
D002
 10
79.4537301385304
 20
206.8612324594358
 30
0.0
 11
79.99848180480589
 21
206.7152666903818
 31
0.0
  0
LINE
  5
90B0
  8
D002
 10
79.75991635637828
 20
207.0380091547324
 30
0.0
 11
80.0631865660815
 21
206.9567481469541
 31
0.0
  0
ARC
  5
90B1
  8
D002
 10
80.0308341854437
 20
206.836007418668
 30
0.0
 40
0.1249999999999206
 50
254.9999999999954
 51
74.99999999999544
  0
LINE
  5
90B2
  8
D002
 10
79.30373013853054
 20
207.1210400805711
 30
0.0
 11
79.44969590758441
 21
207.6657917468465
 31
0.0
  0
LINE
  5
90B3
  8
D002
 10
76.09943614452808
 20
205.2710400805711
 30
0.0
 11
75.493218361879
 21
204.9210400805711
 31
0.0
1001
GENIUS_GENODEF_13
1002
{
1000
HIER
1070
     0
1002
}
1002
{
1000
MANEDIT
1070
     0
1002
}
1002
{
1000
NOSEL
1070
     0
1002
}
1002
{
1000
BEHIND
1070
     0
1002
}
1002
{
1000
OTHER
1070
     0
1002
}
1002
{
1000
REACTOR
1002
}
1001
GENIUS_GENOBJ-N-CEN_13
1002
{
1000
OWNER
1000
GEN
1002
}
1001
GENIUS_GENCEN_19
1002
{
1040
3.0
1002
}
  0
ARC
  5
90B4
  8
D002
 10
76.27530665389153
 20
204.4247698129062
 30
0.0
 40
0.1767766952966168
 50
164.9999999999747
 51
345.0000000000139
  0
LINE
  5
90B5
  8
D002
 10
76.09943614452808
 20
205.2710400805711
 30
0.0
 11
75.55872667347157
 21
205.4159227466805
 31
0.0
  0
ARC
  5
90B6
  8
D002
 10
80.15815300193648
 20
207.4411362700034
 30
0.0
 40
0.1499999999999773
 50
300.0000000000254
 51
120.0000000000254
  0
LINE
  5
90B7
  8
D002
 10
78.41449965398905
 20
206.2612324594357
 30
0.0
 11
78.07459926287842
 21
206.0649908771303
 31
0.0
1001
GENIUS_GENODEF_13
1002
{
1000
HIER
1070
     0
1002
}
1002
{
1000
MANEDIT
1070
     0
1002
}
1002
{
1000
NOSEL
1070
     0
1002
}
1002
{
1000
BEHIND
1070
     0
1002
}
1002
{
1000
OTHER
1070
     0
1002
}
1002
{
1000
REACTOR
1002
}
1001
GENIUS_GENOBJ-N-CEN_13
1002
{
1000
OWNER
1000
GEN
1002
}
1001
GENIUS_GENCEN_19
1002
{
1040
3.0
1002
}
  0
LINE
  5
90B8
  8
D002
 10
78.26449965398919
 20
206.5210400805711
 30
0.0
 11
77.92459926287856
 21
206.3247984982656
 31
0.0
1001
GENIUS_GENODEF_13
1002
{
1000
HIER
1070
     0
1002
}
1002
{
1000
MANEDIT
1070
     0
1002
}
1002
{
1000
NOSEL
1070
     0
1002
}
1002
{
1000
BEHIND
1070
     0
1002
}
1002
{
1000
OTHER
1070
     0
1002
}
1002
{
1000
REACTOR
1002
}
1001
GENIUS_GENOBJ-N-CEN_13
1002
{
1000
OWNER
1000
GEN
1002
}
1001
GENIUS_GENCEN_19
1002
{
1040
3.0
1002
}
  0
LINE
  5
90B9
  8
D002
 10
76.24943614452795
 20
205.0112324594357
 30
0.0
 11
76.10455347841852
 21
204.4705229883793
 31
0.0
  0
LINE
  5
90BA
  8
D002
 10
76.68244884642021
 20
205.2612324594357
 30
0.0
 11
76.44605982936477
 21
204.3790166374332
 31
0.0
  0
LINE
  5
90BB
  8
D002
 10
80.23315300193653
 20
207.3112324594358
 30
0.0
 11
79.75991635637828
 21
207.0380091547324
 31
0.0
1001
GENIUS_GENODEF_13
1002
{
1000
HIER
1070
     0
1002
}
1002
{
1000
MANEDIT
1070
     0
1002
}
1002
{
1000
NOSEL
1070
     0
1002
}
1002
{
1000
BEHIND
1070
     0
1002
}
1002
{
1000
OTHER
1070
     0
1002
}
1002
{
1000
REACTOR
1002
}
1001
GENIUS_GENOBJ-N-CEN_13
1002
{
1000
OWNER
1000
GEN
1002
}
1001
GENIUS_GENCEN_19
1002
{
1040
3.0
1002
}
  0
ARC
  5
90BC
  8
D002
 10
74.78879549847292
 20
204.3411362700034
 30
0.0
 40
0.1499999999999773
 50
120.0000000000254
 51
300.0000000000254
  0
ARC
  5
90BD
  8
D002
 10
75.60447984894458
 20
205.5866759221535
 30
0.0
 40
0.1767766952966168
 50
75.0000000000127
 51
255.0000000000127
  0
LINE
  5
90BE
  8
D002
 10
80.08315300193644
 20
207.5710400805712
 30
0.0
 11
79.60991635637842
 21
207.2978167758678
 31
0.0
1001
GENIUS_GENODEF_13
1002
{
1000
HIER
1070
     0
1002
}
1002
{
1000
MANEDIT
1070
     0
1002
}
1002
{
1000
NOSEL
1070
     0
1002
}
1002
{
1000
BEHIND
1070
     0
1002
}
1002
{
1000
OTHER
1070
     0
1002
}
1002
{
1000
REACTOR
1002
}
1001
GENIUS_GENOBJ-N-CEN_13
1002
{
1000
OWNER
1000
GEN
1002
}
1001
GENIUS_GENCEN_19
1002
{
1040
3.0
1002
}
  0
LINE
  5
90BF
  8
D002
 10
79.30373013853054
 20
207.1210400805711
 30
0.0
 11
78.69751235588146
 21
206.7710400805711
 31
0.0
1001
GENIUS_GENODEF_13
1002
{
1000
HIER
1070
     0
1002
}
1002
{
1000
MANEDIT
1070
     0
1002
}
1002
{
1000
NOSEL
1070
     0
1002
}
1002
{
1000
BEHIND
1070
     0
1002
}
1002
{
1000
OTHER
1070
     0
1002
}
1002
{
1000
REACTOR
1002
}
1001
GENIUS_GENOBJ-N-CEN_13
1002
{
1000
OWNER
1000
GEN
1002
}
1001
GENIUS_GENCEN_19
1002
{
1040
3.0
1002
}
  0
LINE
  5
90C0
  8
D002
 10
75.18703214403112
 20
204.7442633852745
 30
0.0
 11
74.71379549847288
 21
204.4710400805711
 31
0.0
1001
GENIUS_GENODEF_13
1002
{
1000
HIER
1070
     0
1002
}
1002
{
1000
MANEDIT
1070
     0
1002
}
1002
{
1000
NOSEL
1070
     0
1002
}
1002
{
1000
BEHIND
1070
     0
1002
}
1002
{
1000
OTHER
1070
     0
1002
}
1002
{
1000
REACTOR
1002
}
1001
GENIUS_GENOBJ-N-CEN_13
1002
{
1000
OWNER
1000
GEN
1002
}
1001
GENIUS_GENCEN_19
1002
{
1040
3.0
1002
}
  0
LINE
  5
90C1
  8
D002
 10
79.4537301385304
 20
206.8612324594358
 30
0.0
 11
78.84751235588132
 21
206.5112324594357
 31
0.0
1001
GENIUS_GENODEF_13
1002
{
1000
HIER
1070
     0
1002
}
1002
{
1000
MANEDIT
1070
     0
1002
}
1002
{
1000
NOSEL
1070
     0
1002
}
1002
{
1000
BEHIND
1070
     0
1002
}
1002
{
1000
OTHER
1070
     0
1002
}
1002
{
1000
REACTOR
1002
}
1001
GENIUS_GENOBJ-N-CEN_13
1002
{
1000
OWNER
1000
GEN
1002
}
1001
GENIUS_GENCEN_19
1002
{
1040
3.0
1002
}
  0
LINE
  5
90C2
  8
D002
 10
75.64321836187887
 20
204.6612324594357
 30
0.0
 11
75.49725259282499
 21
204.1164807931603
 31
0.0
  0
LINE
  5
90C3
  8
D002
 10
75.33703214403099
 20
204.4844557641392
 30
0.0
 11
75.25577113625272
 21
204.1811855544361
 31
0.0
  0
ARC
  5
90C4
  8
D002
 10
75.37651186453863
 20
204.1488331737982
 30
0.0
 40
0.1249999999999206
 50
164.9999999999954
 51
345.0000000001045
  0
LINE
  5
90C5
  8
D002
 10
75.493218361879
 20
204.9210400805711
 30
0.0
 11
74.94846669560351
 21
205.067005849625
 31
0.0
  0
LINE
  5
90C6
  8
D002
 10
75.18703214403112
 20
204.7442633852745
 30
0.0
 11
74.88376193432791
 21
204.8255243930528
 31
0.0
  0
LINE
  5
90C7
  8
D002
 10
76.24943614452795
 20
205.0112324594357
 30
0.0
 11
75.64321836187887
 21
204.6612324594357
 31
0.0
1001
GENIUS_GENODEF_13
1002
{
1000
HIER
1070
     0
1002
}
1002
{
1000
MANEDIT
1070
     0
1002
}
1002
{
1000
NOSEL
1070
     0
1002
}
1002
{
1000
BEHIND
1070
     0
1002
}
1002
{
1000
OTHER
1070
     0
1002
}
1002
{
1000
REACTOR
1002
}
1001
GENIUS_GENOBJ-N-CEN_13
1002
{
1000
OWNER
1000
GEN
1002
}
1001
GENIUS_GENCEN_19
1002
{
1040
3.0
1002
}
  0
LINE
  5
90C8
  8
D002
 10
76.53244884642035
 20
205.5210400805711
 30
0.0
 11
75.65023302441759
 21
205.7574290976266
 31
0.0
  0
ARC
  5
90C9
  8
D002
 10
74.91611431496571
 20
204.9462651213388
 30
0.0
 40
0.1249999999999206
 50
74.99999999999544
 51
254.9999999999954
  0
LINE
  5
90CA
  8
D002
 10
78.84751235588132
 20
206.5112324594357
 30
0.0
 11
79.38822182693784
 21
206.3663497933263
 31
0.0
  0
ARC
  5
90CB
  8
D002
 10
79.34246865146483
 20
206.1955966178533
 30
0.0
 40
0.1767766952966168
 50
255.0000000000127
 51
75.0000000000127
  0
LINE
  5
90CC
  8
D002
 10
78.26449965398919
 20
206.5210400805711
 30
0.0
 11
78.50088867104486
 21
207.4032559025736
 31
0.0
  0
LINE
  5
90CD
  8
D002
 10
77.32347425020461
 20
204.8911362700035
 30
0.0
 11
77.32347425020461
 21
205.2836194346141
 31
0.0
1001
GENIUS_GENODEF_13
1002
{
1000
HIER
1070
     0
1002
}
1002
{
1000
MANEDIT
1070
     0
1002
}
1002
{
1000
NOSEL
1070
     0
1002
}
1002
{
1000
BEHIND
1070
     0
1002
}
1002
{
1000
OTHER
1070
     0
1002
}
1002
{
1000
REACTOR
1002
}
1001
GENIUS_GENOBJ-N-CEN_13
1002
{
1000
OWNER
1000
GEN
1002
}
1001
GENIUS_GENCEN_19
1002
{
1040
3.0
1002
}
  0
LINE
  5
90CE
  8
D002
 10
79.60991635637842
 20
207.2978167758678
 30
0.0
 11
79.69117736415669
 21
207.6010869855708
 31
0.0
  0
ARC
  5
90CF
  8
D002
 10
79.57043663587078
 20
207.6334393662087
 30
0.0
 40
0.1249999999999206
 50
344.9999999999954
 51
165.0000000001046
  0
LINE
  5
90D0
  8
D002
 10
75.33703214403099
 20
207.2978167758678
 30
0.0
 11
75.25577113625272
 21
207.6010869855709
 31
0.0
  0
LINE
  5
90D1
  8
D002
 10
75.493218361879
 20
206.8612324594358
 30
0.0
 11
74.94846669560351
 21
206.7152666903818
 31
0.0
  0
LINE
  5
90D2
  8
D002
 10
75.18703214403112
 20
207.0380091547324
 30
0.0
 11
74.88376193432791
 21
206.9567481469542
 31
0.0
  0
LINE
  5
90D3
  8
D002
 10
79.30373013853054
 20
204.6612324594358
 30
0.0
 11
78.69751235588146
 21
205.0112324594359
 31
0.0
1001
GENIUS_GENODEF_13
1002
{
1000
HIER
1070
     0
1002
}
1002
{
1000
MANEDIT
1070
     0
1002
}
1002
{
1000
NOSEL
1070
     0
1002
}
1002
{
1000
BEHIND
1070
     0
1002
}
1002
{
1000
OTHER
1070
     0
1002
}
1002
{
1000
REACTOR
1002
}
1001
GENIUS_GENOBJ-N-CEN_13
1002
{
1000
OWNER
1000
GEN
1002
}
1001
GENIUS_GENCEN_19
1002
{
1040
3.0
1002
}
  0
LINE
  5
90D4
  8
D002
 10
79.4537301385304
 20
204.9210400805712
 30
0.0
 11
78.84751235588132
 21
205.2710400805712
 31
0.0
1001
GENIUS_GENODEF_13
1002
{
1000
HIER
1070
     0
1002
}
1002
{
1000
MANEDIT
1070
     0
1002
}
1002
{
1000
NOSEL
1070
     0
1002
}
1002
{
1000
BEHIND
1070
     0
1002
}
1002
{
1000
OTHER
1070
     0
1002
}
1002
{
1000
REACTOR
1002
}
1001
GENIUS_GENOBJ-N-CEN_13
1002
{
1000
OWNER
1000
GEN
1002
}
1001
GENIUS_GENCEN_19
1002
{
1040
3.0
1002
}
  0
ARC
  5
90D5
  8
D002
 10
75.37651186453863
 20
207.6334393662087
 30
0.0
 40
0.1249999999999206
 50
14.99999999995087
 51
194.9999999999509
  0
ARC
  5
90D6
  8
D002
 10
74.91611431496571
 20
206.836007418668
 30
0.0
 40
0.1249999999999206
 50
105.0000000000046
 51
285.0000000000046
  0
LINE
  5
90D7
  8
D002
 10
78.26449965398919
 20
205.2612324594359
 30
0.0
 11
77.92459926287856
 21
205.4574740417412
 31
0.0
1001
GENIUS_GENODEF_13
1002
{
1000
HIER
1070
     0
1002
}
1002
{
1000
MANEDIT
1070
     0
1002
}
1002
{
1000
NOSEL
1070
     0
1002
}
1002
{
1000
BEHIND
1070
     0
1002
}
1002
{
1000
OTHER
1070
     0
1002
}
1002
{
1000
REACTOR
1002
}
1001
GENIUS_GENOBJ-N-CEN_13
1002
{
1000
OWNER
1000
GEN
1002
}
1001
GENIUS_GENCEN_19
1002
{
1040
3.0
1002
}
  0
LINE
  5
90D8
  8
D002
 10
75.33703214403099
 20
207.2978167758678
 30
0.0
 11
74.86379549847297
 21
207.5710400805712
 31
0.0
1001
GENIUS_GENODEF_13
1002
{
1000
HIER
1070
     0
1002
}
1002
{
1000
MANEDIT
1070
     0
1002
}
1002
{
1000
NOSEL
1070
     0
1002
}
1002
{
1000
BEHIND
1070
     0
1002
}
1002
{
1000
OTHER
1070
     0
1002
}
1002
{
1000
REACTOR
1002
}
1001
GENIUS_GENOBJ-N-CEN_13
1002
{
1000
OWNER
1000
GEN
1002
}
1001
GENIUS_GENCEN_19
1002
{
1040
3.0
1002
}
  0
LINE
  5
90D9
  8
D002
 10
76.24943614452795
 20
206.7710400805712
 30
0.0
 11
76.10455347841852
 21
207.3117495516276
 31
0.0
  0
LINE
  5
90DA
  8
D002
 10
78.41449965398905
 20
205.5210400805712
 30
0.0
 11
79.29671547599182
 21
205.7574290976266
 31
0.0
  0
ARC
  5
90DB
  8
D002
 10
76.27530665389153
 20
207.3575027271006
 30
0.0
 40
0.1767766952966168
 50
15.00000000002528
 51
194.9999999999861
  0
LINE
  5
90DC
  8
D002
 10
80.08315300193644
 20
204.2112324594358
 30
0.0
 11
79.60991635637842
 21
204.4844557641392
 31
0.0
1001
GENIUS_GENODEF_13
1002
{
1000
HIER
1070
     0
1002
}
1002
{
1000
MANEDIT
1070
     0
1002
}
1002
{
1000
NOSEL
1070
     0
1002
}
1002
{
1000
BEHIND
1070
     0
1002
}
1002
{
1000
OTHER
1070
     0
1002
}
1002
{
1000
REACTOR
1002
}
1001
GENIUS_GENOBJ-N-CEN_13
1002
{
1000
OWNER
1000
GEN
1002
}
1001
GENIUS_GENCEN_19
1002
{
1040
3.0
1002
}
  0
LINE
  5
90DD
  8
D002
 10
76.53244884642035
 20
206.2612324594359
 30
0.0
 11
75.65023302441759
 21
206.0248434423803
 31
0.0
  0
LINE
  5
90DE
  8
D002
 10
78.41449965398905
 20
205.5210400805712
 30
0.0
 11
78.07459926287842
 21
205.7172816628765
 31
0.0
1001
GENIUS_GENODEF_13
1002
{
1000
HIER
1070
     0
1002
}
1002
{
1000
MANEDIT
1070
     0
1002
}
1002
{
1000
NOSEL
1070
     0
1002
}
1002
{
1000
BEHIND
1070
     0
1002
}
1002
{
1000
OTHER
1070
     0
1002
}
1002
{
1000
REACTOR
1002
}
1001
GENIUS_GENOBJ-N-CEN_13
1002
{
1000
OWNER
1000
GEN
1002
}
1001
GENIUS_GENCEN_19
1002
{
1040
3.0
1002
}
  0
LINE
  5
90DF
  8
D002
 10
80.23315300193653
 20
204.4710400805711
 30
0.0
 11
79.75991635637828
 21
204.7442633852745
 31
0.0
1001
GENIUS_GENODEF_13
1002
{
1000
HIER
1070
     0
1002
}
1002
{
1000
MANEDIT
1070
     0
1002
}
1002
{
1000
NOSEL
1070
     0
1002
}
1002
{
1000
BEHIND
1070
     0
1002
}
1002
{
1000
OTHER
1070
     0
1002
}
1002
{
1000
REACTOR
1002
}
1001
GENIUS_GENOBJ-N-CEN_13
1002
{
1000
OWNER
1000
GEN
1002
}
1001
GENIUS_GENCEN_19
1002
{
1040
3.0
1002
}
  0
LINE
  5
90E0
  8
D002
 10
75.64321836187887
 20
207.1210400805711
 30
0.0
 11
75.49725259282499
 21
207.6657917468465
 31
0.0
  0
ARC
  5
90E1
  8
D002
 10
75.60447984894458
 20
206.1955966178533
 30
0.0
 40
0.1767766952966168
 50
104.9999999999873
 51
284.9999999999873
  0
ARC
  5
90E2
  8
D002
 10
74.78879549847292
 20
207.4411362700035
 30
0.0
 40
0.1499999999999773
 50
59.99999999997465
 51
239.9999999999746
  0
LINE
  5
90E3
  8
D002
 10
78.84751235588132
 20
205.2710400805712
 30
0.0
 11
79.38822182693784
 21
205.4159227466805
 31
0.0
  0
LINE
  5
90E4
  8
D002
 10
76.24943614452795
 20
206.7710400805712
 30
0.0
 11
75.64321836187887
 21
207.1210400805711
 31
0.0
1001
GENIUS_GENODEF_13
1002
{
1000
HIER
1070
     0
1002
}
1002
{
1000
MANEDIT
1070
     0
1002
}
1002
{
1000
NOSEL
1070
     0
1002
}
1002
{
1000
BEHIND
1070
     0
1002
}
1002
{
1000
OTHER
1070
     0
1002
}
1002
{
1000
REACTOR
1002
}
1001
GENIUS_GENOBJ-N-CEN_13
1002
{
1000
OWNER
1000
GEN
1002
}
1001
GENIUS_GENCEN_19
1002
{
1040
3.0
1002
}
  0
ARC
  5
90E5
  8
D002
 10
80.15815300193648
 20
204.3411362700035
 30
0.0
 40
0.1499999999999773
 50
239.9999999999746
 51
59.99999999997465
  0
ARC
  5
90E6
  8
D002
 10
79.34246865146483
 20
205.5866759221536
 30
0.0
 40
0.1767766952966168
 50
284.9999999999873
 51
104.9999999999873
  0
LINE
  5
90E7
  8
D002
 10
78.26449965398919
 20
205.2612324594359
 30
0.0
 11
78.50088867104486
 21
204.3790166374332
 31
0.0
  0
LINE
  5
90E8
  8
D002
 10
75.18703214403112
 20
207.0380091547324
 30
0.0
 11
74.71379549847288
 21
207.3112324594358
 31
0.0
1001
GENIUS_GENODEF_13
1002
{
1000
HIER
1070
     0
1002
}
1002
{
1000
MANEDIT
1070
     0
1002
}
1002
{
1000
NOSEL
1070
     0
1002
}
1002
{
1000
BEHIND
1070
     0
1002
}
1002
{
1000
OTHER
1070
     0
1002
}
1002
{
1000
REACTOR
1002
}
1001
GENIUS_GENOBJ-N-CEN_13
1002
{
1000
OWNER
1000
GEN
1002
}
1001
GENIUS_GENCEN_19
1002
{
1040
3.0
1002
}
  0
LINE
  5
90E9
  8
D002
 10
78.69751235588146
 20
205.0112324594359
 30
0.0
 11
78.84239502199088
 21
204.4705229883793
 31
0.0
  0
LINE
  5
90EA
  8
D002
 10
76.09943614452808
 20
206.5112324594359
 30
0.0
 11
75.55872667347157
 21
206.3663497933264
 31
0.0
  0
LINE
  5
90EB
  8
D002
 10
76.68244884642021
 20
206.5210400805712
 30
0.0
 11
76.44605982936477
 21
207.4032559025737
 31
0.0
  0
ARC
  5
90EC
  8
D002
 10
78.67164184651787
 20
204.4247698129063
 30
0.0
 40
0.1767766952966168
 50
195.0000000000253
 51
14.99999999998613
  0
LINE
  5
90ED
  8
D002
 10
76.09943614452808
 20
206.5112324594359
 30
0.0
 11
75.493218361879
 21
206.8612324594358
 31
0.0
1001
GENIUS_GENODEF_13
1002
{
1000
HIER
1070
     0
1002
}
1002
{
1000
MANEDIT
1070
     0
1002
}
1002
{
1000
NOSEL
1070
     0
1002
}
1002
{
1000
BEHIND
1070
     0
1002
}
1002
{
1000
OTHER
1070
     0
1002
}
1002
{
1000
REACTOR
1002
}
1001
GENIUS_GENOBJ-N-CEN_13
1002
{
1000
OWNER
1000
GEN
1002
}
1001
GENIUS_GENCEN_19
1002
{
1040
3.0
1002
}
  0
LINE
  5
90F3
  8
D002
 10
76.87234923753098
 20
206.0649908771304
 30
0.0
 11
76.53244884642035
 21
206.2612324594359
 31
0.0
1001
GENIUS_GENODEF_13
1002
{
1000
HIER
1070
     0
1002
}
1002
{
1000
MANEDIT
1070
     0
1002
}
1002
{
1000
NOSEL
1070
     0
1002
}
1002
{
1000
BEHIND
1070
     0
1002
}
1002
{
1000
OTHER
1070
     0
1002
}
1002
{
1000
REACTOR
1002
}
1001
GENIUS_GENOBJ-N-CEN_13
1002
{
1000
OWNER
1000
GEN
1002
}
1001
GENIUS_GENCEN_19
1002
{
1040
3.0
1002
}
  0
LINE
  5
90F4
  8
D002
 10
77.02234923753085
 20
205.4574740417411
 30
0.0
 11
76.68244884642021
 21
205.2612324594357
 31
0.0
1001
GENIUS_GENODEF_13
1002
{
1000
HIER
1070
     0
1002
}
1002
{
1000
MANEDIT
1070
     0
1002
}
1002
{
1000
NOSEL
1070
     0
1002
}
1002
{
1000
BEHIND
1070
     0
1002
}
1002
{
1000
OTHER
1070
     0
1002
}
1002
{
1000
REACTOR
1002
}
1001
GENIUS_GENOBJ-N-CEN_13
1002
{
1000
OWNER
1000
GEN
1002
}
1001
GENIUS_GENCEN_19
1002
{
1040
3.0
1002
}
  0
LINE
  5
90F5
  8
D002
 10
77.6234742502048
 20
206.4986531053927
 30
0.0
 11
77.6234742502048
 21
206.8911362700035
 31
0.0
1001
GENIUS_GENODEF_13
1002
{
1000
HIER
1070
     0
1002
}
1002
{
1000
MANEDIT
1070
     0
1002
}
1002
{
1000
NOSEL
1070
     0
1002
}
1002
{
1000
BEHIND
1070
     0
1002
}
1002
{
1000
OTHER
1070
     0
1002
}
1002
{
1000
REACTOR
1002
}
1001
GENIUS_GENOBJ-N-CEN_13
1002
{
1000
OWNER
1000
GEN
1002
}
1001
GENIUS_GENCEN_19
1002
{
1040
3.0
1002
}
  0
LINE
  5
90F6
  8
D002
 10
76.87234923753098
 20
205.7172816628764
 30
0.0
 11
76.53244884642035
 21
205.5210400805711
 31
0.0
1001
GENIUS_GENODEF_13
1002
{
1000
HIER
1070
     0
1002
}
1002
{
1000
MANEDIT
1070
     0
1002
}
1002
{
1000
NOSEL
1070
     0
1002
}
1002
{
1000
BEHIND
1070
     0
1002
}
1002
{
1000
OTHER
1070
     0
1002
}
1002
{
1000
REACTOR
1002
}
1001
GENIUS_GENOBJ-N-CEN_13
1002
{
1000
OWNER
1000
GEN
1002
}
1001
GENIUS_GENCEN_19
1002
{
1040
3.0
1002
}
  0
LINE
  5
90F7
  8
D002
 10
77.02234923753107
 20
206.3247984982657
 30
0.0
 11
76.68244884642021
 21
206.5210400805712
 31
0.0
1001
GENIUS_GENODEF_13
1002
{
1000
HIER
1070
     0
1002
}
1002
{
1000
MANEDIT
1070
     0
1002
}
1002
{
1000
NOSEL
1070
     0
1002
}
1002
{
1000
BEHIND
1070
     0
1002
}
1002
{
1000
OTHER
1070
     0
1002
}
1002
{
1000
REACTOR
1002
}
1001
GENIUS_GENOBJ-N-CEN_13
1002
{
1000
OWNER
1000
GEN
1002
}
1001
GENIUS_GENCEN_19
1002
{
1040
3.0
1002
}
  0
LINE
  5
90F8
  8
D002
 10
77.32347425020461
 20
206.4986531053927
 30
0.0
 11
77.32347425020461
 21
206.8911362700035
 31
0.0
1001
GENIUS_GENODEF_13
1002
{
1000
HIER
1070
     0
1002
}
1002
{
1000
MANEDIT
1070
     0
1002
}
1002
{
1000
NOSEL
1070
     0
1002
}
1002
{
1000
BEHIND
1070
     0
1002
}
1002
{
1000
OTHER
1070
     0
1002
}
1002
{
1000
REACTOR
1002
}
1001
GENIUS_GENOBJ-N-CEN_13
1002
{
1000
OWNER
1000
GEN
1002
}
1001
GENIUS_GENCEN_19
1002
{
1040
3.0
1002
}
  0
POINT
  5
90F9
  8
D002
 10
77.4734742502047
 20
205.8911362700035
 30
0.0
  0
LINE
  5
90FB
  8
D002
 10
77.4734742502047
 20
206.2010027188037
 30
0.0
 11
77.2051220337631
 21
206.0460694944036
 31
0.0
  0
LINE
  5
90FC
  8
D002
 10
77.2051220337631
 20
206.0460694944036
 30
0.0
 11
77.2051220337631
 21
205.7362030456032
 31
0.0
  0
LINE
  5
90FD
  8
D002
 10
77.2051220337631
 20
205.7362030456032
 30
0.0
 11
77.4734742502047
 21
205.5812698212031
 31
0.0
  0
LINE
  5
90FE
  8
D002
 10
77.4734742502047
 20
205.5812698212031
 30
0.0
 11
77.7418264666463
 21
205.7362030456032
 31
0.0
  0
LINE
  5
90FF
  8
D002
 10
77.7418264666463
 20
205.7362030456032
 30
0.0
 11
77.7418264666463
 21
206.0460694944036
 31
0.0
  0
LINE
  5
9100
  8
D002
 10
77.7418264666463
 20
206.0460694944036
 30
0.0
 11
77.4734742502047
 21
206.2010027188037
 31
0.0
  0
LINE
  5
9101
  8
D002
 10
77.32347425020461
 20
206.4986531053927
 30
0.0
 11
77.02234923753107
 21
206.3247984982657
 31
0.0
  0
LINE
  5
9102
  8
D002
 10
77.92459926287856
 20
206.3247984982656
 30
0.0
 11
77.6234742502048
 21
206.4986531053927
 31
0.0
  0
LINE
  5
9103
  8
D002
 10
77.02234923753085
 20
205.4574740417411
 30
0.0
 11
77.32347425020461
 21
205.2836194346141
 31
0.0
  0
LINE
  5
9104
  8
D002
 10
77.6234742502048
 20
205.2836194346141
 30
0.0
 11
77.92459926287856
 21
205.4574740417412
 31
0.0
  0
LINE
  5
9105
  8
D002
 10
78.07459926287842
 20
205.7172816628765
 30
0.0
 11
78.07459926287842
 21
206.0649908771303
 31
0.0
  0
LINE
  5
9106
  8
D002
 10
76.87234923753098
 20
206.0649908771304
 30
0.0
 11
76.87234923753098
 21
205.7172816628764
 31
0.0
  0
VIEWPORT
  5
22
 67
     1
  8
0
 10
5.269134197284911
 20
5.545311567251436
 30
0.0
 40
11.13808705479925
 41
12.32365374410561
 68
     1
 69
     1
1001
GENIUS_GENSCREG_15
1000
PF
1040
1.0
1000
DF
1040
1.0
1000
MIN
1011
-0.2999093301147138
1021
-0.6165153048013714
1031
0.0
1021
-0.6165153048013714
1031
0.0
1000
MAX
1011
10.83817772468454
1021
11.70713843930424
1031
0.0
1021
11.70713843930424
1031
0.0
1000
FLAGS
1070
     4
1001
GENIUS_GENODEF_13
1002
{
1000
HIER
1070
     0
1002
}
1002
{
1000
MANEDIT
1070
     0
1002
}
1002
{
1000
NOSEL
1070
     0
1002
}
1002
{
1000
BEHIND
1070
     0
1002
}
1002
{
1000
OTHER
1070
     0
1002
}
1002
{
1000
REACTOR
1002
}
1001
GENIUS_GENOBJ-N-SDF_13
1002
{
1000
OWNER
1000
GEN
1002
}
1001
ACAD
1000
MVIEW
1002
{
1070
    16
1010
0.0
1020
0.0
1030
0.0
1020
0.0
1030
0.0
1010
0.0
1020
0.0
1030
1.0
1020
0.0
1030
1.0
1040
0.0
1040
12.32365374410561
1040
5.269134197284911
1040
5.545311567251436
1040
50.0
1040
0.0
1040
0.0
1070
     0
1070
   100
1070
     0
1070
     1
1070
     0
1070
     0
1070
     0
1070
     0
1040
0.0
1040
0.0
1040
0.0
1040
1.0
1040
1.0
1040
10.0
1040
10.0
1070
     0
1002
{
1002
}
1002
}
  0
ENDSEC
  0
EOF
